  0
SECTION
  2
HEADER
  9
$ACADVER
  1
AC1015
  9
$ACADMAINTVER
 70
     6
  9
$DWGCODEPAGE
  3
ISO8859-1
  9
$INSBASE
 10
0.0
 20
0.0
 30
0.0
  9
$EXTMIN
 10
0.7010479316555953
 20
0.4992201566244843
 30
0.0
  9
$EXTMAX
 10
9.179275000000001
 20
8.137333999999999
 30
0.0
  9
$LIMMIN
 10
0.0
 20
0.0
  9
$LIMMAX
 10
12.0
 20
9.0
  9
$ORTHOMODE
 70
     1
  9
$REGENMODE
 70
     1
  9
$FILLMODE
 70
     1
  9
$QTEXTMODE
 70
     0
  9
$MIRRTEXT
 70
     1
  9
$LTSCALE
 40
0.25
  9
$ATTMODE
 70
     1
  9
$TEXTSIZE
 40
0.225
  9
$TRACEWID
 40
0.05
  9
$TEXTSTYLE
  7
STANDARD
  9
$CLAYER
  8
0
  9
$CELTYPE
  6
ByLayer
  9
$CECOLOR
 62
   256
  9
$CELTSCALE
 40
1.0
  9
$DISPSILH
 70
     0
  9
$DIMSCALE
 40
1.0
  9
$DIMASZ
 40
0.18
  9
$DIMEXO
 40
0.0625
  9
$DIMDLI
 40
0.38
  9
$DIMRND
 40
0.0
  9
$DIMDLE
 40
0.0
  9
$DIMEXE
 40
0.18
  9
$DIMTP
 40
0.0
  9
$DIMTM
 40
0.0
  9
$DIMTXT
 40
0.18
  9
$DIMCEN
 40
0.09
  9
$DIMTSZ
 40
0.0
  9
$DIMTOL
 70
     0
  9
$DIMLIM
 70
     0
  9
$DIMTIH
 70
     1
  9
$DIMTOH
 70
     1
  9
$DIMSE1
 70
     0
  9
$DIMSE2
 70
     0
  9
$DIMTAD
 70
     0
  9
$DIMZIN
 70
     0
  9
$DIMBLK
  1

  9
$DIMASO
 70
     1
  9
$DIMSHO
 70
     1
  9
$DIMPOST
  1

  9
$DIMAPOST
  1

  9
$DIMALT
 70
     0
  9
$DIMALTD
 70
     2
  9
$DIMALTF
 40
25.4
  9
$DIMLFAC
 40
1.0
  9
$DIMTOFL
 70
     0
  9
$DIMTVP
 40
0.0
  9
$DIMTIX
 70
     0
  9
$DIMSOXD
 70
     0
  9
$DIMSAH
 70
     0
  9
$DIMBLK1
  1

  9
$DIMBLK2
  1

  9
$DIMSTYLE
  2
Standard
  9
$DIMCLRD
 70
     0
  9
$DIMCLRE
 70
     0
  9
$DIMCLRT
 70
     0
  9
$DIMTFAC
 40
1.0
  9
$DIMGAP
 40
0.09
  9
$DIMJUST
 70
     0
  9
$DIMSD1
 70
     0
  9
$DIMSD2
 70
     0
  9
$DIMTOLJ
 70
     1
  9
$DIMTZIN
 70
     0
  9
$DIMALTZ
 70
     0
  9
$DIMALTTZ
 70
     0
  9
$DIMUPT
 70
     0
  9
$DIMDEC
 70
     4
  9
$DIMTDEC
 70
     4
  9
$DIMALTU
 70
     2
  9
$DIMALTTD
 70
     2
  9
$DIMTXSTY
  7
STANDARD
  9
$DIMAUNIT
 70
     0
  9
$DIMADEC
 70
     0
  9
$DIMALTRND
 40
0.0
  9
$DIMAZIN
 70
     0
  9
$DIMDSEP
 70
    46
  9
$DIMATFIT
 70
     3
  9
$DIMFRAC
 70
     0
  9
$DIMLDRBLK
  1

  9
$DIMLUNIT
 70
     2
  9
$DIMLWD
 70
    -2
  9
$DIMLWE
 70
    -2
  9
$DIMTMOVE
 70
     0
  9
$LUNITS
 70
     2
  9
$LUPREC
 70
     4
  9
$SKETCHINC
 40
0.1
  9
$FILLETRAD
 40
0.0
  9
$AUNITS
 70
     0
  9
$AUPREC
 70
     0
  9
$MENU
  1
acad
  9
$ELEVATION
 40
0.0
  9
$PELEVATION
 40
0.0
  9
$THICKNESS
 40
0.0
  9
$LIMCHECK
 70
     0
  9
$CHAMFERA
 40
0.0
  9
$CHAMFERB
 40
0.0
  9
$CHAMFERC
 40
1.0
  9
$CHAMFERD
 40
0.0
  9
$SKPOLY
 70
     0
  9
$TDCREATE
 40
2453955.560371597
  9
$TDUCREATE
 40
2453955.893704931
  9
$TDUPDATE
 40
2453955.602038276
  9
$TDUUPDATE
 40
2453955.893704942
  9
$TDINDWG
 40
0.0000000116
  9
$TDUSRTIMER
 40
0.0000000116
  9
$USRTIMER
 70
     1
  9
$ANGBASE
 50
0.0
  9
$ANGDIR
 70
     0
  9
$PDMODE
 70
     0
  9
$PDSIZE
 40
0.0
  9
$PLINEWID
 40
0.0
  9
$SPLFRAME
 70
     0
  9
$SPLINETYPE
 70
     6
  9
$SPLINESEGS
 70
     8
  9
$HANDSEED
  5
608
  9
$SURFTAB1
 70
     6
  9
$SURFTAB2
 70
     6
  9
$SURFTYPE
 70
     6
  9
$SURFU
 70
     6
  9
$SURFV
 70
     6
  9
$UCSBASE
  2

  9
$UCSNAME
  2

  9
$UCSORG
 10
0.0
 20
0.0
 30
0.0
  9
$UCSXDIR
 10
1.0
 20
0.0
 30
0.0
  9
$UCSYDIR
 10
0.0
 20
1.0
 30
0.0
  9
$UCSORTHOREF
  2

  9
$UCSORTHOVIEW
 70
     0
  9
$UCSORGTOP
 10
0.0
 20
0.0
 30
0.0
  9
$UCSORGBOTTOM
 10
0.0
 20
0.0
 30
0.0
  9
$UCSORGLEFT
 10
0.0
 20
0.0
 30
0.0
  9
$UCSORGRIGHT
 10
0.0
 20
0.0
 30
0.0
  9
$UCSORGFRONT
 10
0.0
 20
0.0
 30
0.0
  9
$UCSORGBACK
 10
0.0
 20
0.0
 30
0.0
  9
$PUCSBASE
  2

  9
$PUCSNAME
  2

  9
$PUCSORG
 10
0.0
 20
0.0
 30
0.0
  9
$PUCSXDIR
 10
1.0
 20
0.0
 30
0.0
  9
$PUCSYDIR
 10
0.0
 20
1.0
 30
0.0
  9
$PUCSORTHOREF
  2

  9
$PUCSORTHOVIEW
 70
     0
  9
$PUCSORGTOP
 10
0.0
 20
0.0
 30
0.0
  9
$PUCSORGBOTTOM
 10
0.0
 20
0.0
 30
0.0
  9
$PUCSORGLEFT
 10
0.0
 20
0.0
 30
0.0
  9
$PUCSORGRIGHT
 10
0.0
 20
0.0
 30
0.0
  9
$PUCSORGFRONT
 10
0.0
 20
0.0
 30
0.0
  9
$PUCSORGBACK
 10
0.0
 20
0.0
 30
0.0
  9
$USERI1
 70
     0
  9
$USERI2
 70
     0
  9
$USERI3
 70
     0
  9
$USERI4
 70
     0
  9
$USERI5
 70
     0
  9
$USERR1
 40
0.0
  9
$USERR2
 40
0.0
  9
$USERR3
 40
0.0
  9
$USERR4
 40
0.0
  9
$USERR5
 40
0.0
  9
$WORLDVIEW
 70
     1
  9
$SHADEDGE
 70
     3
  9
$SHADEDIF
 70
    70
  9
$TILEMODE
 70
     1
  9
$MAXACTVP
 70
    16
  9
$PINSBASE
 10
0.0
 20
0.0
 30
0.0
  9
$PLIMCHECK
 70
     0
  9
$PEXTMIN
 10
1.000000000000000E+20
 20
1.000000000000000E+20
 30
1.000000000000000E+20
  9
$PEXTMAX
 10
-1.000000000000000E+20
 20
-1.000000000000000E+20
 30
-1.000000000000000E+20
  9
$PLIMMIN
 10
0.0
 20
0.0
  9
$PLIMMAX
 10
12.0
 20
9.0
  9
$UNITMODE
 70
     0
  9
$VISRETAIN
 70
     0
  9
$PLINEGEN
 70
     0
  9
$PSLTSCALE
 70
     1
  9
$TREEDEPTH
 70
  3020
  9
$CMLSTYLE
  2
Standard
  9
$CMLJUST
 70
     0
  9
$CMLSCALE
 40
1.0
  9
$PROXYGRAPHICS
 70
     1
  9
$MEASUREMENT
 70
     0
  9
$CELWEIGHT
370
    -1
  9
$ENDCAPS
280
     0
  9
$JOINSTYLE
280
     0
  9
$LWDISPLAY
290
     0
  9
$INSUNITS
 70
     1
  9
$HYPERLINKBASE
  1

  9
$STYLESHEET
  1

  9
$XEDIT
290
     1
  9
$CEPSNTYPE
380
     0
  9
$PSTYLEMODE
290
     0
  9
$FINGERPRINTGUID
  2
{FAEB1C30-E019-11D5-929B-00C0DF256EC4}
  9
$VERSIONGUID
  2
{FAEB1C32-E019-11D5-929B-00C0DF256EC4}
  9
$EXTNAMES
290
     1
  9
$PSVPSCALE
 40
0.0
  9
$OLESTARTUP
290
     0
  0
ENDSEC
  0
SECTION
  2
CLASSES
  0
CLASS
  1
ACDBDICTIONARYWDFLT
  2
AcDbDictionaryWithDefault
  3
AutoCAD 2000
 90
        0
280
     0
281
     0
  0
CLASS
  1
ACDBPLACEHOLDER
  2
AcDbPlaceHolder
  3
ObjectDBX Classes
 90
        0
280
     0
281
     0
  0
CLASS
  1
LAYOUT
  2
AcDbLayout
  3
ObjectDBX Classes
 90
        0
280
     0
281
     0
  0
ENDSEC
  0
SECTION
  2
TABLES
  0
TABLE
  2
VPORT
  5
8
330
0
100
AcDbSymbolTable
 70
     2
  0
VPORT
  5
1F
330
8
100
AcDbSymbolTableRecord
100
AcDbViewportTableRecord
  2
*ACTIVE
 70
     0
 10
0.0
 20
0.0
 11
1.0
 21
1.0
 12
5.859792730698659
 22
4.508359133126935
 13
0.0
 23
0.0
 14
1.0
 24
1.0
 15
0.0
 25
0.0
 16
0.0
 26
0.0
 36
1.0
 17
0.0
 27
0.0
 37
0.0
 40
8.882011605504449
 41
0.6883671291355389
 42
50.0
 43
0.0
 44
0.0
 50
0.0
 51
0.0
 71
     0
 72
   100
 73
     1
 74
     0
 75
     0
 76
     0
 77
     0
 78
     0
281
     0
 65
     1
110
0.0
120
0.0
130
0.0
111
1.0
121
0.0
131
0.0
112
0.0
122
1.0
132
0.0
 79
     0
146
0.0
  0
ENDTAB
  0
TABLE
  2
LTYPE
  5
5
330
0
100
AcDbSymbolTable
 70
     2
  0
LTYPE
  5
10
330
5
100
AcDbSymbolTableRecord
100
AcDbLinetypeTableRecord
  2
ByBlock
 70
     0
  3

 72
    65
 73
     0
 40
0.0
  0
LTYPE
  5
11
330
5
100
AcDbSymbolTableRecord
100
AcDbLinetypeTableRecord
  2
ByLayer
 70
     0
  3

 72
    65
 73
     0
 40
0.0
  0
LTYPE
  5
1B
330
5
100
AcDbSymbolTableRecord
100
AcDbLinetypeTableRecord
  2
CONTINUOUS
 70
     0
  3
Solid line
 72
    65
 73
     0
 40
0.0
  0
LTYPE
  5
1C
330
5
100
AcDbSymbolTableRecord
100
AcDbLinetypeTableRecord
  2
HIDDEN
 70
     0
  3
__ __ __ __ __ __ __ __ __ __ __ __ __ __ __ __
 72
    65
 73
     2
 40
0.375
 49
0.25
 74
     0
 49
-0.125
 74
     0
  0
ENDTAB
  0
TABLE
  2
LAYER
  5
2
330
0
100
AcDbSymbolTable
 70
     1
  0
LAYER
  5
1D
330
2
100
AcDbSymbolTableRecord
100
AcDbLayerTableRecord
  2
0
 70
     0
 62
     7
  6
CONTINUOUS
370
    -3
390
F
  0
ENDTAB
  0
TABLE
  2
STYLE
  5
3
330
0
100
AcDbSymbolTable
 70
     1
  0
STYLE
  5
21
330
3
100
AcDbSymbolTableRecord
100
AcDbTextStyleTableRecord
  2
STANDARD
 70
     0
 40
0.0
 41
1.0
 50
0.0
 71
     0
 42
0.225
  3
ROMANS.SHX
  4

  0
ENDTAB
  0
TABLE
  2
VIEW
  5
6
330
0
100
AcDbSymbolTable
 70
     0
  0
ENDTAB
  0
TABLE
  2
UCS
  5
7
330
0
100
AcDbSymbolTable
 70
     0
  0
ENDTAB
  0
TABLE
  2
APPID
  5
9
330
0
100
AcDbSymbolTable
 70
     1
  0
APPID
  5
20
330
9
100
AcDbSymbolTableRecord
100
AcDbRegAppTableRecord
  2
ACAD
 70
     0
  0
ENDTAB
  0
TABLE
  2
DIMSTYLE
  5
A
330
0
100
AcDbSymbolTable
 70
     1
100
AcDbDimStyleTable
  0
DIMSTYLE
105
22
330
A
100
AcDbSymbolTableRecord
100
AcDbDimStyleTableRecord
  2
Standard
 70
     0
  3

  4

340
21
  0
ENDTAB
  0
TABLE
  2
BLOCK_RECORD
  5
1
330
0
100
AcDbSymbolTable
 70
     0
  0
BLOCK_RECORD
  5
18
330
1
100
AcDbSymbolTableRecord
100
AcDbBlockTableRecord
  2
*Model_Space
340
19
  0
BLOCK_RECORD
  5
16
330
1
100
AcDbSymbolTableRecord
100
AcDbBlockTableRecord
  2
*Paper_Space
340
17
  0
ENDTAB
  0
ENDSEC
  0
SECTION
  2
BLOCKS
  0
BLOCK
  5
5FD
330
18
100
AcDbEntity
  8
0
100
AcDbBlockBegin
  2
*Model_Space
 70
     0
 10
0.0
 20
0.0
 30
0.0
  3
*Model_Space
  1

  4

  0
ENDBLK
  5
5FE
330
18
100
AcDbEntity
  8
0
100
AcDbBlockEnd
  0
BLOCK
  5
5FB
330
16
100
AcDbEntity
 67
     1
  8
0
100
AcDbBlockBegin
  2
*Paper_Space
 70
     0
 10
0.0
 20
0.0
 30
0.0
  3
*Paper_Space
  1

  4

  0
ENDBLK
  5
5FC
330
16
100
AcDbEntity
 67
     1
  8
0
100
AcDbBlockEnd
  0
ENDSEC
  0
SECTION
  2
ENTITIES
  0
LINE
  5
23
330
18
100
AcDbEntity
  8
0
100
AcDbLine
 10
6.531303
 20
2.38174
 30
0.0
 11
6.531303
 21
2.030724
 31
0.0
  0
LINE
  5
24
330
18
100
AcDbEntity
  8
0
100
AcDbLine
 10
6.620559
 20
2.348212
 30
0.0
 11
6.620559
 21
2.090536
 31
0.0
  0
LINE
  5
25
330
18
100
AcDbEntity
  8
0
100
AcDbLine
 10
5.262296
 20
2.858431
 30
0.0
 11
5.262296
 21
2.225504
 31
0.0
  0
LINE
  5
26
330
18
100
AcDbEntity
  8
0
100
AcDbLine
 10
5.165961
 20
2.894619
 30
0.0
 11
5.165961
 21
2.264301
 31
0.0
  0
LINE
  5
27
330
18
100
AcDbEntity
  8
0
100
AcDbLine
 10
5.882981
 20
3.361397
 30
0.0
 11
5.882981
 21
2.721976
 31
0.0
  0
LINE
  5
28
330
18
100
AcDbEntity
  8
0
100
AcDbLine
 10
5.972261000000001
 20
3.33083
 30
0.0
 11
5.972261000000001
 21
2.688775
 31
0.0
  0
LINE
  5
29
330
18
100
AcDbEntity
  8
0
100
AcDbLine
 10
6.542548
 20
3.896696
 30
0.0
 11
6.542548
 21
3.205911
 31
0.0
  0
LINE
  5
2A
330
18
100
AcDbEntity
  8
0
100
AcDbLine
 10
6.633817999999999
 20
3.867916
 30
0.0
 11
6.633817999999999
 21
3.174655
 31
0.0
  0
LINE
  5
2B
330
18
100
AcDbEntity
  8
0
100
AcDbLine
 10
5.268599
 20
3.825645
 30
0.0
 11
5.268599
 21
3.642183
 31
0.0
  0
LINE
  5
2C
330
18
100
AcDbEntity
  8
0
100
AcDbLine
 10
3.967671
 20
4.708631
 30
0.0
 11
3.967671
 21
4.087693
 31
0.0
  0
LINE
  5
2D
330
18
100
AcDbEntity
  8
0
100
AcDbLine
 10
3.882583
 20
4.735461
 30
0.0
 11
3.882583
 21
4.116832
 31
0.0
  0
LINE
  5
2E
330
18
100
AcDbEntity
  8
0
100
AcDbLine
 10
2.80306
 20
5.075867
 30
0.0
 11
2.80306
 21
4.879396
 31
0.0
  0
LINE
  5
2F
330
18
100
AcDbEntity
  8
0
100
AcDbLine
 10
2.708903
 20
5.105558
 30
0.0
 11
2.708903
 21
4.754539
 31
0.0
  0
LINE
  5
30
330
18
100
AcDbEntity
  8
0
100
AcDbLine
 10
2.163846
 20
4.10504
 30
0.0
 11
2.163846
 21
4.634718
 31
0.0
  0
LINE
  5
31
330
18
100
AcDbEntity
  8
0
100
AcDbLine
 10
2.241473
 20
4.608140000000001
 30
0.0
 11
2.241473
 21
4.076172
 31
0.0
  0
LINE
  5
32
330
18
100
AcDbEntity
  8
0
100
AcDbLine
 10
3.32189
 20
4.238238
 30
0.0
 11
3.32189
 21
3.674389
 31
0.0
  0
LINE
  5
33
330
18
100
AcDbEntity
  8
0
100
AcDbLine
 10
3.41412
 20
4.206661
 30
0.0
 11
3.41412
 21
3.640091
 31
0.0
  0
LINE
  5
34
330
18
100
AcDbEntity
  8
0
100
AcDbLine
 10
2.795237
 20
3.785161
 30
0.0
 11
2.795237
 21
3.219068
 31
0.0
  0
LINE
  5
35
330
18
100
AcDbEntity
  8
0
100
AcDbLine
 10
2.71234
 20
3.8163
 30
0.0
 11
2.71234
 21
3.252453
 31
0.0
  0
LINE
  5
36
330
18
100
AcDbEntity
  8
0
100
AcDbLine
 10
3.87404
 20
3.379918
 30
0.0
 11
3.87404
 21
2.784599
 31
0.0
  0
LINE
  5
37
330
18
100
AcDbEntity
  8
0
100
AcDbLine
 10
3.964165
 20
3.346063
 30
0.0
 11
3.964165
 21
2.748303
 31
0.0
  0
LINE
  5
38
330
18
100
AcDbEntity
  8
0
100
AcDbLine
 10
4.543697
 20
3.819928
 30
0.0
 11
4.543697
 21
3.699553
 31
0.0
  0
LINE
  5
39
330
18
100
AcDbEntity
  8
0
100
AcDbLine
 10
8.009638000000001
 20
3.230481
 30
0.0
 11
8.009638000000001
 21
2.703498
 31
0.0
  0
LINE
  5
3A
330
18
100
AcDbEntity
  8
0
100
AcDbLine
 10
8.111566999999999
 20
3.401938
 30
0.0
 11
8.111566999999999
 21
2.668592
 31
0.0
  0
LINE
  5
3B
330
18
100
AcDbEntity
  8
0
100
AcDbLine
 10
8.870367
 20
3.715268
 30
0.0
 11
8.870367
 21
3.209457
 31
0.0
  0
LINE
  5
3C
330
18
100
AcDbEntity
  8
0
100
AcDbLine
 10
8.497256
 20
3.280318
 30
0.0
 11
8.563699
 21
3.357774
 31
0.0
  0
LINE
  5
3D
330
18
100
AcDbEntity
  8
0
100
AcDbLine
 10
8.870367
 20
3.715268
 30
0.0
 11
8.490352
 21
3.827923
 31
0.0
  0
LINE
  5
3E
330
18
100
AcDbEntity
  8
0
100
AcDbLine
 10
2.326811
 20
5.655104
 30
0.0
 11
2.229906
 21
5.614747
 31
0.0
  0
LINE
  5
3F
330
18
100
AcDbEntity
  8
0
100
AcDbLine
 10
3.290530617595874
 20
6.53360562633174
 30
0.0
 11
5.594040000000001
 21
6.364806
 31
0.0
  0
LINE
  5
40
330
18
100
AcDbEntity
  8
0
100
AcDbLine
 10
5.594040000000001
 20
6.364806
 30
0.0
 11
7.177974000000001
 21
6.527304
 31
0.0
  0
LINE
  5
41
330
18
100
AcDbEntity
  8
0
100
AcDbLine
 10
7.177974000000001
 20
6.527304
 30
0.0
 11
8.73607
 21
5.892901999999999
 31
0.0
  0
LINE
  5
42
330
18
100
AcDbEntity
  8
0
100
AcDbLine
 10
8.73607
 20
5.892901999999999
 30
0.0
 11
9.107900000000001
 21
6.778275
 31
0.0
  0
LINE
  5
43
330
18
100
AcDbEntity
  8
0
100
AcDbLine
 10
3.290530617595874
 20
6.64672462633174
 30
0.0
 11
5.594040000000001
 21
6.477925
 31
0.0
  0
LINE
  5
44
330
18
100
AcDbEntity
  8
0
100
AcDbLine
 10
5.594040000000001
 20
6.477925
 30
0.0
 11
7.177974000000001
 21
6.640422999999999
 31
0.0
  0
LINE
  5
45
330
18
100
AcDbEntity
  8
0
100
AcDbLine
 10
7.177974000000001
 20
6.640422999999999
 30
0.0
 11
8.73607
 21
6.006021
 31
0.0
  0
LINE
  5
46
330
18
100
AcDbEntity
  8
0
100
AcDbLine
 10
8.73607
 20
6.006021
 30
0.0
 11
9.107900000000001
 21
6.891394
 31
0.0
  0
LINE
  5
47
330
18
100
AcDbEntity
  8
0
100
AcDbLine
 10
9.107900000000001
 20
6.891394
 30
0.0
 11
9.107900000000001
 21
6.778275
 31
0.0
  0
LINE
  5
48
330
18
100
AcDbEntity
  8
0
100
AcDbLine
 10
8.73607
 20
6.006021
 30
0.0
 11
8.73607
 21
5.892901999999999
 31
0.0
  0
LINE
  5
49
330
18
100
AcDbEntity
  8
0
100
AcDbLine
 10
8.73607
 20
5.892901999999999
 30
0.0
 11
8.73607
 21
5.892901999999999
 31
0.0
  0
LINE
  5
4A
330
18
100
AcDbEntity
  8
0
100
AcDbLine
 10
7.177974000000001
 20
6.640422999999999
 30
0.0
 11
7.177974000000001
 21
6.527304
 31
0.0
  0
LINE
  5
4B
330
18
100
AcDbEntity
  8
0
100
AcDbLine
 10
5.594040000000001
 20
6.477925
 30
0.0
 11
5.594040000000001
 21
6.364806
 31
0.0
  0
LINE
  5
4C
330
18
100
AcDbEntity
  8
0
100
AcDbLine
 10
4.140736552912961
 20
7.805338095287064
 30
0.0
 11
9.107900000000001
 21
6.891394
 31
0.0
  0
LINE
  5
4D
330
18
100
AcDbEntity
  8
0
100
AcDbLine
 10
8.794667000000001
 20
3.627021
 30
0.0
 11
8.213222999999999
 21
3.802589
 31
0.0
  0
LINE
  5
4E
330
18
100
AcDbEntity
  8
0
100
AcDbLine
 10
2.250102
 20
5.608649000000001
 30
0.0
 11
1.878623058796877
 21
5.453944091267537
 31
0.0
  0
LINE
  5
4F
330
18
100
AcDbEntity
  8
0
100
AcDbLine
 10
1.858747954230314
 20
5.460176131985186
 30
0.0
 11
1.766185
 21
5.421628
 31
0.0
  0
LINE
  5
50
330
18
100
AcDbEntity
  8
0
100
AcDbLine
 10
2.229906
 20
5.614747
 30
0.0
 11
2.229906
 21
5.600238
 31
0.0
  0
LINE
  5
51
330
18
100
AcDbEntity
  8
0
100
AcDbLine
 10
1.858747954230314
 20
5.460176131985186
 30
0.0
 11
2.976687
 21
5.109635
 31
0.0
  0
LINE
  5
52
330
18
100
AcDbEntity
  8
0
100
AcDbLine
 10
3.418045513440538
 20
5.151144196278641
 30
0.0
 11
3.418045513440538
 21
4.933353196278641
 31
0.0
  0
LINE
  5
53
330
18
100
AcDbEntity
  8
0
100
AcDbLine
 10
3.456373513440538
 20
4.86253819627864
 30
0.0
 11
3.456373513440538
 21
4.418283196278641
 31
0.0
  0
LINE
  5
54
330
18
100
AcDbEntity
  8
0
100
AcDbLine
 10
3.456373513440538
 20
4.418283196278641
 30
0.0
 11
3.496411513440538
 21
4.351361196278641
 31
0.0
  0
LINE
  5
55
330
18
100
AcDbEntity
  8
0
100
AcDbLine
 10
3.496411513440538
 20
4.351361196278641
 30
0.0
 11
3.560570513440538
 21
4.327594196278641
 31
0.0
  0
LINE
  5
56
330
18
100
AcDbEntity
  8
0
100
AcDbLine
 10
3.560570513440538
 20
4.327594196278641
 30
0.0
 11
3.592465513440538
 21
4.361755196278641
 31
0.0
  0
LINE
  5
57
330
18
100
AcDbEntity
  8
0
100
AcDbLine
 10
3.592465513440538
 20
4.361755196278641
 30
0.0
 11
3.592465513440538
 21
4.844498196278641
 31
0.0
  0
LINE
  5
58
330
18
100
AcDbEntity
  8
0
100
AcDbLine
 10
3.588305513440538
 20
4.859739196278641
 30
0.0
 11
3.419431513440538
 21
5.14606419627864
 31
0.0
  0
ARC
  5
59
330
18
100
AcDbEntity
  8
0
100
AcDbCircle
 10
3.428045513440539
 20
5.151144196278641
 30
0.0
 40
0.01
100
AcDbArc
 50
101.676629
 51
210.532092
  0
LINE
  5
5A
330
18
100
AcDbEntity
  8
0
100
AcDbLine
 10
6.990511
 20
1.909852
 30
0.0
 11
6.990511
 21
2.71476
 31
0.0
  0
LINE
  5
5B
330
18
100
AcDbEntity
  8
0
100
AcDbLine
 10
6.990511
 20
2.71476
 30
0.0
 11
7.212992999999999
 21
2.644568
 31
0.0
  0
LINE
  5
5C
330
18
100
AcDbEntity
  8
0
100
AcDbLine
 10
7.212992999999999
 20
2.644568
 30
0.0
 11
8.61379
 21
5.94269
 31
0.0
  0
LINE
  5
5D
330
18
100
AcDbEntity
  8
0
100
AcDbLine
 10
9.129857000000001
 20
7.157748
 30
0.0
 11
8.949542999999999
 21
7.19106
 31
0.0
  0
LINE
  5
5E
330
18
100
AcDbEntity
  8
0
100
AcDbLine
 10
8.949542999999999
 20
7.19106
 30
0.0
 11
8.839971
 21
6.940691999999999
 31
0.0
  0
LINE
  5
5F
330
18
100
AcDbEntity
  8
0
100
AcDbLine
 10
6.990511
 20
1.909852
 30
0.0
 11
7.212992999999999
 21
1.824246
 31
0.0
  0
LINE
  5
60
330
18
100
AcDbEntity
  8
0
100
AcDbLine
 10
7.212992999999999
 20
2.644568
 30
0.0
 11
7.212992999999999
 21
1.824246
 31
0.0
  0
LINE
  5
61
330
18
100
AcDbEntity
  8
0
100
AcDbLine
 10
7.212992999999999
 20
1.824246
 30
0.0
 11
7.859894000000001
 21
3.421598
 31
0.0
  0
LINE
  5
62
330
18
100
AcDbEntity
  8
0
100
AcDbLine
 10
9.129857000000001
 20
7.157748
 30
0.0
 11
9.129857000000001
 21
6.933503999999999
 31
0.0
  0
LINE
  5
63
330
18
100
AcDbEntity
  8
0
100
AcDbLine
 10
8.43505
 20
6.015467
 30
0.0
 11
6.990511
 21
2.71476
 31
0.0
  0
LINE
  5
64
330
18
100
AcDbEntity
  8
0
100
AcDbLine
 10
9.023338000000001
 20
6.906953
 30
0.0
 11
9.129857000000001
 21
7.157748
 31
0.0
  0
LINE
  5
65
330
18
100
AcDbEntity
  8
0
100
AcDbLine
 10
9.129857000000001
 20
6.933503999999999
 30
0.0
 11
9.114942999999999
 21
6.882413000000001
 31
0.0
  0
LINE
  5
66
330
18
100
AcDbEntity
  8
0
100
AcDbLine
 10
9.114942999999999
 20
6.882413000000001
 30
0.0
 11
9.179275000000001
 21
6.815604
 31
0.0
  0
LINE
  5
67
330
18
100
AcDbEntity
  8
0
100
AcDbLine
 10
9.179275000000001
 20
6.815604
 30
0.0
 11
9.129857000000001
 21
6.741327
 31
0.0
  0
LINE
  5
68
330
18
100
AcDbEntity
  8
0
100
AcDbLine
 10
9.129857000000001
 20
6.741327
 30
0.0
 11
9.129857000000001
 21
6.557434
 31
0.0
  0
LINE
  5
69
330
18
100
AcDbEntity
  8
0
100
AcDbLine
 10
8.497294373485323
 20
4.775974728135702
 30
0.0
 11
9.049068999999999
 21
5.334601999999999
 31
0.0
  0
LINE
  5
6A
330
18
100
AcDbEntity
  8
0
100
AcDbLine
 10
9.049068999999999
 20
5.334601999999999
 30
0.0
 11
8.878736999999999
 21
5.374961
 31
0.0
  0
LINE
  5
6B
330
18
100
AcDbEntity
  8
0
100
AcDbLine
 10
9.049068999999999
 20
5.334601999999999
 30
0.0
 11
9.049068999999999
 21
5.093297
 31
0.0
  0
LINE
  5
6C
330
18
100
AcDbEntity
  8
0
100
AcDbLine
 10
9.049068999999999
 20
4.710976000000001
 30
0.0
 11
8.068799
 21
3.645631
 31
0.0
  0
LINE
  5
6D
330
18
100
AcDbEntity
  8
0
100
AcDbLine
 10
8.49269
 20
4.984119000000001
 30
0.0
 11
8.878736999999999
 21
5.374961
 31
0.0
  0
LINE
  5
6E
330
18
100
AcDbEntity
  8
0
100
AcDbLine
 10
9.049068999999999
 20
5.093297
 30
0.0
 11
8.989274999999999
 21
5.018046
 31
0.0
  0
LINE
  5
6F
330
18
100
AcDbEntity
  8
0
100
AcDbLine
 10
8.989274999999999
 20
5.018046
 30
0.0
 11
9.103655999999999
 21
4.951437
 31
0.0
  0
LINE
  5
70
330
18
100
AcDbEntity
  8
0
100
AcDbLine
 10
9.103655999999999
 20
4.951437
 30
0.0
 11
9.049068999999999
 21
4.889188
 31
0.0
  0
LINE
  5
71
330
18
100
AcDbEntity
  8
0
100
AcDbLine
 10
9.049068999999999
 20
4.889188
 30
0.0
 11
9.049068999999999
 21
4.710976000000001
 31
0.0
  0
LINE
  5
72
330
18
100
AcDbEntity
  8
0
100
AcDbLine
 10
7.553744
 20
4.001721
 30
0.0
 11
5.87772
 21
4.5078
 31
0.0
  0
LINE
  5
73
330
18
100
AcDbEntity
  8
0
100
AcDbLine
 10
7.593978
 20
4.093653
 30
0.0
 11
7.020313000000001
 21
4.263716000000001
 31
0.0
  0
LINE
  5
74
330
18
100
AcDbEntity
  8
0
100
AcDbLine
 10
4.491399
 20
3.612649
 30
0.0
 11
4.491399
 21
2.874911
 31
0.0
  0
LINE
  5
75
330
18
100
AcDbEntity
  8
0
100
AcDbLine
 10
4.491399
 20
2.874911
 30
0.0
 11
4.678842
 21
2.798585
 31
0.0
  0
LINE
  5
76
330
18
100
AcDbEntity
  8
0
100
AcDbLine
 10
4.678842
 20
2.798585
 30
0.0
 11
4.678842
 21
3.546321
 31
0.0
  0
LINE
  5
77
330
18
100
AcDbEntity
  8
0
100
AcDbLine
 10
4.678842
 20
3.546321
 30
0.0
 11
4.491399
 21
3.612649
 31
0.0
  0
LINE
  5
78
330
18
100
AcDbEntity
  8
0
100
AcDbLine
 10
4.491399
 20
3.612649
 30
0.0
 11
5.348746
 21
5.037281
 31
0.0
  0
LINE
  5
79
330
18
100
AcDbEntity
  8
0
100
AcDbLine
 10
6.866984
 20
7.560099
 30
0.0
 11
7.042249000000001
 21
7.537778
 31
0.0
  0
LINE
  5
7A
330
18
100
AcDbEntity
  8
0
100
AcDbLine
 10
7.042249000000001
 20
7.537778
 30
0.0
 11
6.900053999999999
 21
7.297631
 31
0.0
  0
LINE
  5
7B
330
18
100
AcDbEntity
  8
0
100
AcDbLine
 10
4.678842
 20
2.798585
 30
0.0
 11
5.796943
 21
4.745755
 31
0.0
  0
LINE
  5
7C
330
18
100
AcDbEntity
  8
0
100
AcDbLine
 10
7.042249000000001
 20
7.537778
 30
0.0
 11
7.042249000000001
 21
7.349264999999999
 31
0.0
  0
LINE
  5
7D
330
18
100
AcDbEntity
  8
0
100
AcDbLine
 10
6.396457
 20
6.447127
 30
0.0
 11
5.620015
 21
5.135827
 31
0.0
  0
LINE
  5
7E
330
18
100
AcDbEntity
  8
0
100
AcDbLine
 10
6.728074
 20
7.329275
 30
0.0
 11
6.866984
 21
7.560099
 31
0.0
  0
LINE
  5
7F
330
18
100
AcDbEntity
  8
0
100
AcDbLine
 10
6.363122969980838
 20
5.436133758591785
 30
0.0
 11
6.933892999999999
 21
5.849656
 31
0.0
  0
LINE
  5
80
330
18
100
AcDbEntity
  8
0
100
AcDbLine
 10
6.933892999999999
 20
5.849656
 30
0.0
 11
6.933892999999999
 21
5.681394999999999
 31
0.0
  0
LINE
  5
81
330
18
100
AcDbEntity
  8
0
100
AcDbLine
 10
6.933892999999999
 20
5.350405
 30
0.0
 11
6.024712999999999
 21
4.62507
 31
0.0
  0
LINE
  5
82
330
18
100
AcDbEntity
  8
0
100
AcDbLine
 10
5.206758
 20
4.801344
 30
0.0
 11
4.398087
 21
5.041074
 31
0.0
  0
LINE
  5
83
330
18
100
AcDbEntity
  8
0
100
AcDbLine
 10
5.160443
 20
4.724383
 30
0.0
 11
3.91687
 21
5.099883
 31
0.0
  0
LINE
  5
84
330
18
100
AcDbEntity
  8
0
100
AcDbLine
 10
5.600749
 20
4.286835
 30
0.0
 11
7.4278
 21
3.713946
 31
0.0
  0
LINE
  5
85
330
18
100
AcDbEntity
  8
0
100
AcDbLine
 10
6.933892999999999
 20
5.849656
 30
0.0
 11
6.789631
 21
5.879109
 31
0.0
  0
LINE
  5
86
330
18
100
AcDbEntity
  8
0
100
AcDbLine
 10
6.363122969980838
 20
5.570103965397957
 30
0.0
 11
6.789631
 21
5.879109
 31
0.0
  0
LINE
  5
87
330
18
100
AcDbEntity
  8
0
100
AcDbLine
 10
6.98848
 20
5.539535
 30
0.0
 11
6.933892999999999
 21
5.477286
 31
0.0
  0
LINE
  5
88
330
18
100
AcDbEntity
  8
0
100
AcDbLine
 10
6.8741
 20
5.606144000000001
 30
0.0
 11
6.98848
 21
5.539535
 31
0.0
  0
LINE
  5
89
330
18
100
AcDbEntity
  8
0
100
AcDbLine
 10
6.933892999999999
 20
5.681394999999999
 30
0.0
 11
6.8741
 21
5.606144000000001
 31
0.0
  0
LINE
  5
8A
330
18
100
AcDbEntity
  8
0
100
AcDbLine
 10
6.933892999999999
 20
5.477286
 30
0.0
 11
6.933892999999999
 21
5.350405
 31
0.0
  0
LINE
  5
8B
330
18
100
AcDbEntity
  8
0
100
AcDbLine
 10
2.402047
 20
4.347631
 30
0.0
 11
2.571707
 21
4.305664
 31
0.0
  0
LINE
  5
8C
330
18
100
AcDbEntity
  8
0
100
AcDbLine
 10
2.571707
 20
4.305664
 30
0.0
 11
3.431720426081199
 21
5.466691929800112
 31
0.0
  0
LINE
  5
8D
330
18
100
AcDbEntity
  8
0
100
AcDbLine
 10
5.196159
 20
7.848704
 30
0.0
 11
5.056941999999999
 21
7.868167
 31
0.0
  0
LINE
  5
8E
330
18
100
AcDbEntity
  8
0
100
AcDbLine
 10
5.056941999999999
 20
7.868167
 30
0.0
 11
4.903697
 21
7.664955
 31
0.0
  0
LINE
  5
8F
330
18
100
AcDbEntity
  8
0
100
AcDbLine
 10
2.571707
 20
4.305664
 30
0.0
 11
2.571707
 21
3.634972
 31
0.0
  0
LINE
  5
90
330
18
100
AcDbEntity
  8
0
100
AcDbLine
 10
2.571707
 20
3.634972
 30
0.0
 11
2.402047
 21
3.678358
 31
0.0
  0
LINE
  5
91
330
18
100
AcDbEntity
  8
0
100
AcDbLine
 10
2.402047
 20
3.678358
 30
0.0
 11
2.402047
 21
4.347631
 31
0.0
  0
LINE
  5
92
330
18
100
AcDbEntity
  8
0
100
AcDbLine
 10
2.571707
 20
3.634972
 30
0.0
 11
3.456373513440538
 21
4.849177008469804
 31
0.0
  0
LINE
  5
93
330
18
100
AcDbEntity
  8
0
100
AcDbLine
 10
5.066905
 20
6.287954
 30
0.0
 11
4.913944
 21
6.332058999999999
 31
0.0
  0
LINE
  5
94
330
18
100
AcDbEntity
  8
0
100
AcDbLine
 10
4.913944
 20
6.332058999999999
 30
0.0
 11
4.257282
 21
5.948424
 31
0.0
  0
LINE
  5
95
330
18
100
AcDbEntity
  8
0
100
AcDbLine
 10
5.066905
 20
6.287954
 30
0.0
 11
5.066905
 21
6.116423
 31
0.0
  0
LINE
  5
96
330
18
100
AcDbEntity
  8
0
100
AcDbLine
 10
5.066905
 20
5.825289
 30
0.0
 11
3.563762083631141
 21
4.901352455514376
 31
0.0
  0
LINE
  5
97
330
18
100
AcDbEntity
  8
0
100
AcDbLine
 10
6.990511
 20
2.310111
 30
0.0
 11
5.972261000000001
 21
2.688775
 31
0.0
  0
LINE
  5
98
330
18
100
AcDbEntity
  8
0
100
AcDbLine
 10
1.913835726527233
 20
4.720313964516413
 30
0.0
 11
2.163846
 21
4.634718
 31
0.0
  0
LINE
  5
99
330
18
100
AcDbEntity
  8
0
100
AcDbLine
 10
8.235329
 20
2.626208
 30
0.0
 11
8.111566999999999
 21
2.668592
 31
0.0
  0
LINE
  5
9A
330
18
100
AcDbEntity
  8
0
100
AcDbLine
 10
6.620559
 20
2.348212
 30
0.0
 11
6.990511
 21
2.209242
 31
0.0
  0
LINE
  5
9B
330
18
100
AcDbEntity
  8
0
100
AcDbLine
 10
6.542548
 20
3.205911
 30
0.0
 11
5.268599
 21
3.642183
 31
0.0
  0
LINE
  5
9C
330
18
100
AcDbEntity
  8
0
100
AcDbLine
 10
5.972261000000001
 20
3.33083
 30
0.0
 11
7.092308
 21
2.94736
 31
0.0
  0
LINE
  5
9D
330
18
100
AcDbEntity
  8
0
100
AcDbLine
 10
5.882981
 20
2.721976
 30
0.0
 11
4.854478
 21
3.104454
 31
0.0
  0
LINE
  5
9E
330
18
100
AcDbEntity
  8
0
100
AcDbLine
 10
8.009638000000001
 20
2.703498
 30
0.0
 11
7.622734
 21
2.835995
 31
0.0
  0
LINE
  5
9F
330
18
100
AcDbEntity
  8
0
100
AcDbLine
 10
7.119058
 20
3.008482
 30
0.0
 11
6.633817999999999
 21
3.174655
 31
0.0
  0
LINE
  5
A0
330
18
100
AcDbEntity
  8
0
100
AcDbLine
 10
7.597753
 20
2.77431
 30
0.0
 11
8.165595
 21
2.579898
 31
0.0
  0
LINE
  5
A1
330
18
100
AcDbEntity
  8
0
100
AcDbLine
 10
8.068799
 20
3.512954
 30
0.0
 11
8.563699
 21
3.357774
 31
0.0
  0
LINE
  5
A2
330
18
100
AcDbEntity
  8
0
100
AcDbLine
 10
8.497256
 20
2.652029
 30
0.0
 11
8.497256
 21
2.64971
 31
0.0
  0
LINE
  5
A3
330
18
100
AcDbEntity
  8
0
100
AcDbLine
 10
8.497256
 20
2.64971
 30
0.0
 11
8.497256
 21
3.280318
 31
0.0
  0
LINE
  5
A4
330
18
100
AcDbEntity
  8
0
100
AcDbLine
 10
8.497256
 20
3.280318
 30
0.0
 11
8.111566999999999
 21
3.401938
 31
0.0
  0
LINE
  5
A5
330
18
100
AcDbEntity
  8
0
100
AcDbLine
 10
6.542548
 20
3.896696
 30
0.0
 11
5.517055
 21
4.220064
 31
0.0
  0
LINE
  5
A6
330
18
100
AcDbEntity
  8
0
100
AcDbLine
 10
7.390728999999999
 20
3.629239
 30
0.0
 11
6.633817999999999
 21
3.867916
 31
0.0
  0
LINE
  5
A7
330
18
100
AcDbEntity
  8
0
  6
Continuous
100
AcDbLine
 10
7.97247
 20
3.204466
 30
0.0
 11
7.792679
 21
3.255627
 31
0.0
  0
LINE
  5
A8
330
18
100
AcDbEntity
  8
0
  6
HIDDEN
100
AcDbLine
 10
7.612742999999999
 20
3.306829
 30
0.0
 11
7.512152
 21
3.429549
 31
0.0
  0
LINE
  5
A9
330
18
100
AcDbEntity
  8
0
  6
HIDDEN
100
AcDbLine
 10
7.512152
 20
3.429549
 30
0.0
 11
7.512152
 21
3.801936
 31
0.0
  0
LINE
  5
AA
330
18
100
AcDbEntity
  8
0
  6
HIDDEN
100
AcDbLine
 10
7.512152
 20
3.801936
 30
0.0
 11
7.585462
 21
3.870283
 31
0.0
  0
LINE
  5
AB
330
18
100
AcDbEntity
  8
0
  6
HIDDEN
100
AcDbLine
 10
7.585462
 20
3.870283
 30
0.0
 11
7.711591
 21
3.818499
 31
0.0
  0
LINE
  5
AC
330
18
100
AcDbEntity
  8
0
  6
HIDDEN
100
AcDbLine
 10
7.713582000000001
 20
3.816321
 30
0.0
 11
7.713582000000001
 21
3.493415
 31
0.0
  0
LINE
  5
AD
330
18
100
AcDbEntity
  8
0
  6
HIDDEN
100
AcDbLine
 10
7.713582000000001
 20
3.493415
 30
0.0
 11
7.794292
 21
3.467628
 31
0.0
  0
LINE
  5
AE
330
18
100
AcDbEntity
  8
0
100
AcDbLine
 10
7.882511999999999
 20
3.432033
 30
0.0
 11
7.804322
 21
3.395959
 31
0.0
  0
LINE
  5
AF
330
18
100
AcDbEntity
  8
0
100
AcDbLine
 10
5.262296
 20
2.225504
 30
0.0
 11
6.210193
 21
1.843756
 31
0.0
  0
LINE
  5
B0
330
18
100
AcDbEntity
  8
0
100
AcDbLine
 10
3.964165
 20
2.748303
 30
0.0
 11
5.165961
 21
2.264301
 31
0.0
  0
LINE
  5
B1
330
18
100
AcDbEntity
  8
0
100
AcDbLine
 10
3.882583
 20
4.116832
 30
0.0
 11
3.114449
 21
4.379885
 31
0.0
  0
LINE
  5
B2
330
18
100
AcDbEntity
  8
0
100
AcDbLine
 10
4.638939
 20
3.857814
 30
0.0
 11
3.967671
 21
4.087693
 31
0.0
  0
LINE
  5
B3
330
18
100
AcDbEntity
  8
0
100
AcDbLine
 10
5.146757
 20
3.613458
 30
0.0
 11
5.882981
 21
3.361397
 31
0.0
  0
LINE
  5
B4
330
18
100
AcDbEntity
  8
0
100
AcDbLine
 10
4.491399
 20
3.239475
 30
0.0
 11
3.41412
 21
3.640091
 31
0.0
  0
LINE
  5
B5
330
18
100
AcDbEntity
  8
0
100
AcDbLine
 10
4.810631
 20
3.028095
 30
0.0
 11
5.165961
 21
2.894619
 31
0.0
  0
LINE
  5
B6
330
18
100
AcDbEntity
  8
0
100
AcDbLine
 10
4.96223
 20
4.395017
 30
0.0
 11
3.967671
 21
4.708631000000001
 31
0.0
  0
LINE
  5
B7
330
18
100
AcDbEntity
  8
0
100
AcDbLine
 10
3.964165
 20
3.346063
 30
0.0
 11
4.491399
 21
3.148012
 31
0.0
  0
LINE
  5
B8
330
18
100
AcDbEntity
  8
0
100
AcDbLine
 10
5.262296
 20
2.858431
 30
0.0
 11
6.531303
 21
2.38174
 31
0.0
  0
ARC
  5
B9
330
18
100
AcDbEntity
  8
0
100
AcDbCircle
 10
3.909256
 20
2.742002
 30
0.0
 40
0.055269
100
AcDbArc
 50
6.546332000000001
 51
129.581215
  0
ARC
  5
BA
330
18
100
AcDbEntity
  8
0
100
AcDbCircle
 10
5.206643
 20
2.226316
 30
0.0
 40
0.055659
100
AcDbArc
 50
359.164404
 51
136.963143
  0
LINE
  5
BB
330
18
100
AcDbEntity
  8
0
100
AcDbLine
 10
2.708903
 20
5.105558
 30
0.0
 11
1.776779668270672
 21
5.399483762508416
 31
0.0
  0
LINE
  5
BC
330
18
100
AcDbEntity
  8
0
100
AcDbLine
 10
1.841230690229022
 20
4.143524627788336
 30
0.0
 11
2.402047
 21
3.932859
 31
0.0
  0
LINE
  5
BD
330
18
100
AcDbEntity
  8
0
100
AcDbLine
 10
2.163846
 20
4.10504
 30
0.0
 11
1.849037172038272
 21
4.22211023654507
 31
0.0
  0
LINE
  5
BE
330
18
100
AcDbEntity
  8
0
100
AcDbLine
 10
2.241473
 20
4.608140000000001
 30
0.0
 11
2.525237
 21
4.510987999999999
 31
0.0
  0
LINE
  5
BF
330
18
100
AcDbEntity
  8
0
100
AcDbLine
 10
1.886228384094031
 20
3.585155020829801
 30
0.0
 11
2.71234
 21
3.252453
 31
0.0
  0
LINE
  5
C0
330
18
100
AcDbEntity
  8
0
100
AcDbLine
 10
2.795237
 20
3.219068
 30
0.0
 11
3.87404
 21
2.784599
 31
0.0
  0
LINE
  5
C1
330
18
100
AcDbEntity
  8
0
100
AcDbLine
 10
2.795237
 20
3.785161
 30
0.0
 11
3.87404
 21
3.379918
 31
0.0
  0
LINE
  5
C2
330
18
100
AcDbEntity
  8
0
100
AcDbLine
 10
3.41412
 20
4.206661
 30
0.0
 11
4.543697
 21
3.819928
 31
0.0
  0
LINE
  5
C3
330
18
100
AcDbEntity
  8
0
100
AcDbLine
 10
3.32189
 20
3.674389
 30
0.0
 11
2.754233
 21
3.885488
 31
0.0
  0
LINE
  5
C4
330
18
100
AcDbEntity
  8
0
100
AcDbLine
 10
3.594408
 20
4.915943
 30
0.0
 11
5.008823000000001
 21
4.472439
 31
0.0
  0
LINE
  5
C5
330
18
100
AcDbEntity
  8
0
100
AcDbLine
 10
3.145076
 20
5.332928
 30
0.0
 11
2.231307
 21
5.608843
 31
0.0
  0
LINE
  5
C6
330
18
100
AcDbEntity
  8
0
100
AcDbLine
 10
3.194136
 20
5.397985
 30
0.0
 11
2.326811
 21
5.655104
 31
0.0
  0
LINE
  5
C7
330
18
100
AcDbEntity
  8
0
100
AcDbLine
 10
3.073265
 20
4.32336
 30
0.0
 11
3.32189
 21
4.238238
 31
0.0
  0
LINE
  5
C8
330
18
100
AcDbEntity
  8
0
100
AcDbLine
 10
2.402047
 20
4.016458
 30
0.0
 11
2.241473
 21
4.076172
 31
0.0
  0
LINE
  5
C9
330
18
100
AcDbEntity
  8
0
100
AcDbLine
 10
2.705653
 20
3.818812
 30
0.0
 11
2.71234
 21
3.8163
 31
0.0
  0
LINE
  5
CA
330
18
100
AcDbEntity
  8
0
100
AcDbLine
 10
2.922758
 20
5.038123000000001
 30
0.0
 11
2.80306
 21
5.075867
 31
0.0
  0
LINE
  5
CB
330
18
100
AcDbEntity
  8
0
100
AcDbLine
 10
2.567596
 20
4.567158
 30
0.0
 11
1.928541711073925
 21
4.786005333725265
 31
0.0
  0
LINE
  5
CC
330
18
100
AcDbEntity
  8
0
100
AcDbLine
 10
5.066905
 20
6.287954
 30
0.0
 11
4.155919310044475
 21
5.755736770078325
 31
0.0
  0
LINE
  5
CD
330
18
100
AcDbEntity
  8
0
100
AcDbLine
 10
5.066905
 20
6.116423
 30
0.0
 11
5.020141000000001
 21
6.059211
 31
0.0
  0
LINE
  5
CE
330
18
100
AcDbEntity
  8
0
100
AcDbLine
 10
5.020141000000001
 20
6.059211
 30
0.0
 11
5.115415000000001
 21
6.014547
 31
0.0
  0
LINE
  5
CF
330
18
100
AcDbEntity
  8
0
100
AcDbLine
 10
5.115415000000001
 20
6.014547
 30
0.0
 11
5.066905
 21
5.953287
 31
0.0
  0
LINE
  5
D0
330
18
100
AcDbEntity
  8
0
100
AcDbLine
 10
5.066905
 20
5.953287
 30
0.0
 11
5.066905
 21
5.825289
 31
0.0
  0
LINE
  5
D1
330
18
100
AcDbEntity
  8
0
100
AcDbLine
 10
5.196159
 20
7.848704
 30
0.0
 11
5.196159
 21
7.694103
 31
0.0
  0
LINE
  5
D2
330
18
100
AcDbEntity
  8
0
100
AcDbLine
 10
5.041296
 20
7.639638000000001
 30
0.0
 11
5.196159
 21
7.848704
 31
0.0
  0
LINE
  5
D3
330
18
100
AcDbEntity
  8
0
100
AcDbLine
 10
5.196159
 20
7.694103
 30
0.0
 11
5.251494999999999
 21
7.673389
 31
0.0
  0
LINE
  5
D4
330
18
100
AcDbEntity
  8
0
100
AcDbLine
 10
5.251494999999999
 20
7.673389
 30
0.0
 11
5.212348
 21
7.608165
 31
0.0
  0
LINE
  5
D5
330
18
100
AcDbEntity
  8
0
100
AcDbLine
 10
7.042249000000001
 20
7.349264999999999
 30
0.0
 11
7.099850999999999
 21
7.319242
 31
0.0
  0
LINE
  5
D6
330
18
100
AcDbEntity
  8
0
100
AcDbLine
 10
7.099850999999999
 20
7.319242
 30
0.0
 11
7.064681
 21
7.267341
 31
0.0
  0
LINE
  5
D7
330
18
100
AcDbEntity
  8
0
100
AcDbLine
 10
2.708903
 20
5.105558
 30
0.0
 11
2.810103
 21
5.161869
 31
0.0
  0
LINE
  5
D8
330
18
100
AcDbEntity
  8
0
100
AcDbLine
 10
2.80306
 20
5.075867
 30
0.0
 11
2.904259
 21
5.132179
 31
0.0
  0
ARC
  5
D9
330
18
100
AcDbEntity
  8
0
100
AcDbCircle
 10
2.765343
 20
5.120399
 30
0.0
 40
0.058358
100
AcDbArc
 50
194.733264
 51
310.263521
  0
LINE
  5
DA
330
18
100
AcDbEntity
  8
0
100
AcDbLine
 10
3.882583
 20
4.735461
 30
0.0
 11
3.965573000000001
 21
4.799561
 31
0.0
  0
LINE
  5
DB
330
18
100
AcDbEntity
  8
0
100
AcDbLine
 10
3.967671
 20
4.708631
 30
0.0
 11
4.050799
 21
4.772837
 31
0.0
  0
ARC
  5
DC
330
18
100
AcDbEntity
  8
0
100
AcDbCircle
 10
3.934866
 20
4.752930999999999
 30
0.0
 40
0.055124
100
AcDbArc
 50
198.47639
 51
306.520395
  0
LINE
  5
DD
330
18
100
AcDbEntity
  8
0
100
AcDbLine
 10
6.542548
 20
3.896696
 30
0.0
 11
6.613441000000001
 21
3.969296
 31
0.0
  0
LINE
  5
DE
330
18
100
AcDbEntity
  8
0
100
AcDbLine
 10
6.633817999999999
 20
3.867916
 30
0.0
 11
6.704832000000001
 21
3.940639
 31
0.0
  0
ARC
  5
DF
330
18
100
AcDbEntity
  8
0
100
AcDbCircle
 10
6.603872
 20
3.932061
 30
0.0
 40
0.070791
100
AcDbArc
 50
209.9714740000001
 51
295.025312
  0
ARC
  5
E0
330
18
100
AcDbEntity
  8
0
100
AcDbCircle
 10
6.98429
 20
4.312062
 30
0.0
 40
0.060291
100
AcDbArc
 50
200.285038
 51
306.690071
  0
LINE
  5
E1
330
18
100
AcDbEntity
  8
0
100
AcDbLine
 10
6.927738000000001
 20
4.29116
 30
0.0
 11
6.133237
 21
4.526689
 31
0.0
  0
LINE
  5
E2
330
18
100
AcDbEntity
  8
0
100
AcDbLine
 10
6.944202000000001
 20
4.185773
 30
0.0
 11
7.020313000000001
 21
4.263716000000001
 31
0.0
  0
LINE
  5
E3
330
18
100
AcDbEntity
  8
0
100
AcDbLine
 10
6.852011999999999
 20
4.21361
 30
0.0
 11
6.927738000000001
 21
4.29116
 31
0.0
  0
ARC
  5
E4
330
18
100
AcDbEntity
  8
0
100
AcDbCircle
 10
4.365626
 20
5.090454
 30
0.0
 40
0.059094
100
AcDbArc
 50
203.654594
 51
303.320515
  0
LINE
  5
E5
330
18
100
AcDbEntity
  8
0
100
AcDbLine
 10
4.311497
 20
5.066744
 30
0.0
 11
3.988577
 21
5.162473
 31
0.0
  0
LINE
  5
E6
330
18
100
AcDbEntity
  8
0
100
AcDbLine
 10
4.231429
 20
5.004902
 30
0.0
 11
4.311497
 21
5.066744
 31
0.0
  0
LINE
  5
E7
330
18
100
AcDbEntity
  8
0
100
AcDbLine
 10
4.317576
 20
4.978889
 30
0.0
 11
4.398087
 21
5.041074
 31
0.0
  0
ARC
  5
E8
330
18
100
AcDbEntity
  8
0
100
AcDbCircle
 10
8.069230000000001
 20
3.445368
 30
0.0
 40
0.060651
100
AcDbArc
 50
269.592755
 51
314.26952
  0
LINE
  5
E9
330
18
100
AcDbEntity
  8
0
100
AcDbLine
 10
8.111566999999999
 20
3.401938
 30
0.0
 11
8.179435
 21
3.478263
 31
0.0
  0
LINE
  5
EA
330
18
100
AcDbEntity
  8
0
100
AcDbLine
 10
8.068799
 20
3.500611
 30
0.0
 11
8.077380999999999
 21
3.510263
 31
0.0
  0
ARC
  5
EB
330
18
100
AcDbEntity
  8
0
100
AcDbCircle
 10
8.448015
 20
3.871353
 30
0.0
 40
0.060651
100
AcDbArc
 50
190.727266
 51
314.26952
  0
LINE
  5
EC
330
18
100
AcDbEntity
  8
0
100
AcDbLine
 10
8.388849
 20
3.858014
 30
0.0
 11
8.290931000000001
 21
3.887042
 31
0.0
  0
LINE
  5
ED
330
18
100
AcDbEntity
  8
0
100
AcDbLine
 10
8.413935
 20
3.741984
 30
0.0
 11
8.490352
 21
3.827923
 31
0.0
  0
LINE
  5
EE
330
18
100
AcDbEntity
  8
0
100
AcDbLine
 10
8.311050999999999
 20
3.77305
 30
0.0
 11
8.388424000000001
 21
3.860064
 31
0.0
  0
LINE
  5
EF
330
18
100
AcDbEntity
  8
0
100
AcDbLine
 10
8.563699
 20
3.357774
 30
0.0
 11
8.634858
 21
3.033644
 31
0.0
  0
LINE
  5
F0
330
18
100
AcDbEntity
  8
0
100
AcDbLine
 10
8.634858
 20
3.033644
 30
0.0
 11
8.746016000000001
 21
3.178308
 31
0.0
  0
LINE
  5
F1
330
18
100
AcDbEntity
  8
0
100
AcDbLine
 10
8.748030999999999
 20
3.183355
 30
0.0
 11
8.748494000000001
 21
3.187753
 31
0.0
  0
LINE
  5
F2
330
18
100
AcDbEntity
  8
0
100
AcDbLine
 10
8.794667000000001
 20
3.627021
 30
0.0
 11
8.870367
 21
3.715268
 31
0.0
  0
LINE
  5
F3
330
18
100
AcDbEntity
  8
0
100
AcDbLine
 10
8.609893
 20
3.411623000000001
 30
0.0
 11
8.748472999999999
 21
3.573171
 31
0.0
  0
LINE
  5
F4
330
18
100
AcDbEntity
  8
0
100
AcDbLine
 10
8.66821
 20
3.203948
 30
0.0
 11
8.723835000000001
 21
3.183272
 31
0.0
  0
LINE
  5
F5
330
18
100
AcDbEntity
  8
0
100
AcDbLine
 10
8.677123
 20
3.280966
 30
0.0
 11
8.730572
 21
3.261099
 31
0.0
  0
ARC
  5
F6
330
18
100
AcDbEntity
  8
0
100
AcDbCircle
 10
8.933042
 20
3.146869
 30
0.0
 40
0.041356
100
AcDbArc
 50
318.352962
 51
41.647038
  0
ARC
  5
F7
330
18
100
AcDbEntity
  8
0
100
AcDbCircle
 10
8.978207000000001
 20
3.106704
 30
0.0
 40
0.019085
100
AcDbArc
 50
138.352962
 51
221.647038
  0
ARC
  5
F8
330
18
100
AcDbEntity
  8
0
100
AcDbCircle
 10
8.949613000000001
 20
3.116483
 30
0.0
 40
0.026646
100
AcDbArc
 50
302.540233
 51
34.754962
  0
LINE
  5
F9
330
18
100
AcDbEntity
  8
0
100
AcDbLine
 10
8.870367
 20
3.142452
 30
0.0
 11
8.870367
 21
3.00153
 31
0.0
  0
ARC
  5
FA
330
18
100
AcDbEntity
  8
0
100
AcDbCircle
 10
8.705435000000001
 20
3.244056
 30
0.0
 40
0.054721
100
AcDbArc
 50
144.162254
 51
227.135083
  0
ARC
  5
FB
330
18
100
AcDbEntity
  8
0
100
AcDbCircle
 10
8.672299000000001
 20
3.267988
 30
0.0
 40
0.013846
100
AcDbArc
 50
69.609539
 51
144.162254
  0
LINE
  5
FC
330
18
100
AcDbEntity
  8
0
100
AcDbLine
 10
8.745778999999999
 20
3.188763
 30
0.0
 11
8.784364999999999
 21
3.17442
 31
0.0
  0
LINE
  5
FD
330
18
100
AcDbEntity
  8
0
100
AcDbLine
 10
8.869702999999999
 20
3.142699
 30
0.0
 11
8.902338
 21
3.130568
 31
0.0
  0
LINE
  5
FE
330
18
100
AcDbEntity
  8
0
100
AcDbLine
 10
8.797395
 20
3.155929
 30
0.0
 11
8.847759
 21
3.137208
 31
0.0
  0
LINE
  5
FF
330
18
100
AcDbEntity
  8
0
100
AcDbLine
 10
8.915367999999999
 20
3.112078
 30
0.0
 11
8.963946
 21
3.094021
 31
0.0
  0
LINE
  5
100
330
18
100
AcDbEntity
  8
0
100
AcDbLine
 10
8.923936999999999
 20
3.189224
 30
0.0
 11
8.963946
 21
3.174352
 31
0.0
  0
LINE
  5
101
330
18
100
AcDbEntity
  8
0
100
AcDbLine
 10
8.88246
 20
3.192431
 30
0.0
 11
8.903003999999999
 21
3.184795
 31
0.0
  0
LINE
  5
102
330
18
100
AcDbEntity
  8
0
100
AcDbLine
 10
8.807346000000001
 20
3.232561
 30
0.0
 11
8.869502000000001
 21
3.209457
 31
0.0
  0
LINE
  5
103
330
18
100
AcDbEntity
  8
0
100
AcDbLine
 10
8.74353
 20
3.244072
 30
0.0
 11
8.786413
 21
3.228132
 31
0.0
  0
ARC
  5
104
330
18
100
AcDbEntity
  8
0
100
AcDbCircle
 10
8.727088
 20
3.251725
 30
0.0
 40
0.01
100
AcDbArc
 50
4.935193
 51
69.609539
  0
ARC
  5
105
330
18
100
AcDbEntity
  8
0
100
AcDbCircle
 10
8.747014
 20
3.253446
 30
0.0
 40
0.01
100
AcDbArc
 50
184.935193
 51
249.609539
  0
ARC
  5
106
330
18
100
AcDbEntity
  8
0
100
AcDbCircle
 10
8.789897999999999
 20
3.237506
 30
0.0
 40
0.01
100
AcDbArc
 50
249.609539
 51
314.283885
  0
ARC
  5
107
330
18
100
AcDbEntity
  8
0
100
AcDbCircle
 10
8.803861999999999
 20
3.223188
 30
0.0
 40
0.01
100
AcDbArc
 50
69.609539
 51
134.283885
  0
ARC
  5
108
330
18
100
AcDbEntity
  8
0
100
AcDbCircle
 10
8.885944
 20
3.201805
 30
0.0
 40
0.01
100
AcDbArc
 50
184.935193
 51
249.609539
  0
ARC
  5
109
330
18
100
AcDbEntity
  8
0
100
AcDbCircle
 10
8.866017999999999
 20
3.200084
 30
0.0
 40
0.01
100
AcDbArc
 50
4.935193
 51
69.609539
  0
ARC
  5
10A
330
18
100
AcDbEntity
  8
0
100
AcDbCircle
 10
8.906488000000001
 20
3.194168
 30
0.0
 40
0.01
100
AcDbArc
 50
249.609539
 51
314.283885
  0
ARC
  5
10B
330
18
100
AcDbEntity
  8
0
100
AcDbCircle
 10
8.920453
 20
3.17985
 30
0.0
 40
0.01
100
AcDbArc
 50
69.609539
 51
134.283885
  0
ARC
  5
10C
330
18
100
AcDbEntity
  8
0
100
AcDbCircle
 10
8.898854
 20
3.121195
 30
0.0
 40
0.01
100
AcDbArc
 50
0.7336699999999998
 51
69.609539
  0
ARC
  5
10D
330
18
100
AcDbEntity
  8
0
100
AcDbCircle
 10
8.866219000000001
 20
3.133326
 30
0.0
 40
0.01
100
AcDbArc
 50
69.609539
 51
138.485408
  0
ARC
  5
10E
330
18
100
AcDbEntity
  8
0
100
AcDbCircle
 10
8.800879
 20
3.165302
 30
0.0
 40
0.01
100
AcDbArc
 50
180.73367
 51
249.609539
  0
ARC
  5
10F
330
18
100
AcDbEntity
  8
0
100
AcDbCircle
 10
8.780880999999999
 20
3.165046
 30
0.0
 40
0.01
100
AcDbArc
 50
0.7336699999999998
 51
69.609539
  0
ARC
  5
110
330
18
100
AcDbEntity
  8
0
100
AcDbCircle
 10
8.742294000000001
 20
3.179389
 30
0.0
 40
0.01
100
AcDbArc
 50
69.609539
 51
138.485408
  0
ARC
  5
111
330
18
100
AcDbEntity
  8
0
100
AcDbCircle
 10
8.727319
 20
3.192645
 30
0.0
 40
0.01
100
AcDbArc
 50
249.609539
 51
318.485408
  0
ARC
  5
112
330
18
100
AcDbEntity
  8
0
100
AcDbCircle
 10
8.851242999999998
 20
3.146582
 30
0.0
 40
0.01
100
AcDbArc
 50
249.609539
 51
318.485408
  0
ARC
  5
113
330
18
100
AcDbEntity
  8
0
100
AcDbCircle
 10
8.918852000000001
 20
3.121451
 30
0.0
 40
0.01
100
AcDbArc
 50
180.73367
 51
249.609539
  0
ARC
  5
114
330
18
100
AcDbEntity
  8
0
100
AcDbCircle
 10
8.738086000000001
 20
3.1844
 30
0.0
 40
0.01
100
AcDbArc
 50
322.46179
 51
353.999471
  0
LINE
  5
115
330
18
100
AcDbEntity
  8
0
100
AcDbLine
 10
8.754004
 20
3.240179
 30
0.0
 11
8.794667000000001
 21
3.627021
 31
0.0
  0
LINE
  5
116
330
18
100
AcDbEntity
  8
0
100
AcDbLine
 10
4.010727193191613
 20
6.480830103134573
 30
0.0
 11
2.402047
 21
4.347631
 31
0.0
  0
LINE
  5
117
330
18
100
AcDbEntity
  8
0
  6
HIDDEN
100
AcDbLine
 10
3.580848513440539
 20
5.541158196278641
 30
0.0
 11
3.668820513440539
 21
5.51743519627864
 31
0.0
  0
LINE
  5
118
330
18
100
AcDbEntity
  8
0
  6
HIDDEN
100
AcDbLine
 10
3.676936513440539
 20
5.515247196278641
 30
0.0
 11
3.694905513440538
 21
5.527331196278641
 31
0.0
  0
LINE
  5
119
330
18
100
AcDbEntity
  8
0
  6
HIDDEN
100
AcDbLine
 10
3.694905513440538
 20
5.527331196278641
 30
0.0
 11
3.706616513440538
 21
5.602453196278641
 31
0.0
  0
LINE
  5
11A
330
18
100
AcDbEntity
  8
0
100
AcDbLine
 10
3.347333513440538
 20
5.597093196278641
 30
0.0
 11
3.429129513440539
 21
5.471609196278641
 31
0.0
  0
LINE
  5
11B
330
18
100
AcDbEntity
  8
0
100
AcDbLine
 10
3.433997513440538
 20
5.455227196278641
 30
0.0
 11
3.433997513440538
 21
5.170730196278641
 31
0.0
  0
LINE
  5
11C
330
18
100
AcDbEntity
  8
0
100
AcDbLine
 10
3.558764513440539
 20
5.261689196278641
 30
0.0
 11
3.558764513440539
 21
5.567870196278641
 31
0.0
  0
LINE
  5
11D
330
18
100
AcDbEntity
  8
0
100
AcDbLine
 10
3.550023513440539
 20
5.589038196278641
 30
0.0
 11
3.440176513440538
 21
5.699354196278641
 31
0.0
  0
LINE
  5
11E
330
18
100
AcDbEntity
  8
0
100
AcDbLine
 10
3.348242513440538
 20
5.609204196278641
 30
0.0
 11
3.439835513440539
 21
5.71310619627864
 31
0.0
  0
LINE
  5
11F
330
18
100
AcDbEntity
  8
0
100
AcDbLine
 10
3.450561513440539
 20
5.715850196278641
 30
0.0
 11
3.458386513440539
 21
5.713115196278641
 31
0.0
  0
ARC
  5
120
330
18
100
AcDbEntity
  8
0
100
AcDbCircle
 10
3.447262513440538
 20
5.70641019627864
 30
0.0
 40
0.01
100
AcDbArc
 50
70.736349
 51
224.877908
  0
LINE
  5
121
330
18
100
AcDbEntity
  8
0
  6
HIDDEN
100
AcDbLine
 10
3.668211513440538
 20
5.63795619627864
 30
0.0
 11
3.472540513440539
 21
5.70637119627864
 31
0.0
  0
LINE
  5
122
330
18
100
AcDbEntity
  8
0
  6
HIDDEN
100
AcDbLine
 10
3.699684513440539
 20
5.610312196278641
 30
0.0
 11
3.678461513440539
 21
5.63437219627864
 31
0.0
  0
ARC
  5
123
330
18
100
AcDbEntity
  8
0
100
AcDbCircle
 10
3.355710513440538
 20
5.602553196278641
 30
0.0
 40
0.01
100
AcDbArc
 50
138.314121
 51
213.09809
  0
ARC
  5
124
330
18
100
AcDbEntity
  8
0
100
AcDbCircle
 10
3.528764513440539
 20
5.567870196278641
 30
0.0
 40
0.03
100
AcDbArc
 50
0.0
 51
44.87790800000001
  0
ARC
  5
125
330
18
100
AcDbEntity
  8
0
100
AcDbCircle
 10
3.403997513440539
 20
5.455227196278641
 30
0.0
 40
0.03
100
AcDbArc
 50
0.0
 51
33.09809
  0
LINE
  5
126
330
18
100
AcDbEntity
  8
0
100
AcDbLine
 10
3.442055513440538
 20
5.465768196278641
 30
0.0
 11
3.543141513440538
 21
5.58125719627864
 31
0.0
  0
ARC
  5
127
330
18
100
AcDbEntity
  8
0
100
AcDbCircle
 10
3.423997513440538
 20
5.170730196278641
 30
0.0
 40
0.01
100
AcDbArc
 50
281.676629
 51
0.0
  0
ARC
  5
128
330
18
100
AcDbEntity
  8
0
100
AcDbCircle
 10
3.562465513440539
 20
4.844498196278641
 30
0.0
 40
0.03
100
AcDbArc
 50
0.0
 51
30.532092
  0
LINE
  5
129
330
18
100
AcDbEntity
  8
0
100
AcDbLine
 10
3.555427513440539
 20
5.247937196278641
 30
0.0
 11
3.463953513440538
 21
5.070577196278642
 31
0.0
  0
ARC
  5
12A
330
18
100
AcDbEntity
  8
0
100
AcDbCircle
 10
3.528764513440539
 20
5.261689196278641
 30
0.0
 40
0.03
100
AcDbArc
 50
332.717409
 51
0.0
  0
LINE
  5
12B
330
18
100
AcDbEntity
  8
0
100
AcDbLine
 10
3.424117513440538
 20
4.915257196278641
 30
0.0
 11
3.450301513440539
 21
4.880634196278641
 31
0.0
  0
ARC
  5
12C
330
18
100
AcDbEntity
  8
0
100
AcDbCircle
 10
3.426373513440538
 20
4.86253819627864
 30
0.0
 40
0.03
100
AcDbArc
 50
0.0
 51
37.09930900000001
  0
ARC
  5
12D
330
18
100
AcDbEntity
  8
0
100
AcDbCircle
 10
3.448045513440539
 20
4.933353196278641
 30
0.0
 40
0.03
100
AcDbArc
 50
180.0
 51
217.099309
  0
LINE
  5
12E
330
18
100
AcDbEntity
  8
0
  6
HIDDEN
100
AcDbLine
 10
5.964207
 20
4.576798
 30
0.0
 11
5.964207
 21
3.859835
 31
0.0
  0
LINE
  5
12F
330
18
100
AcDbEntity
  8
0
  6
HIDDEN
100
AcDbLine
 10
5.964207
 20
3.859835
 30
0.0
 11
6.133237
 21
3.813418
 31
0.0
  0
LINE
  5
130
330
18
100
AcDbEntity
  8
0
  6
HIDDEN
100
AcDbLine
 10
6.133237
 20
3.813418
 30
0.0
 11
6.133237
 21
4.526689
 31
0.0
  0
LINE
  5
131
330
18
100
AcDbEntity
  8
0
100
AcDbLine
 10
6.133237
 20
4.526689
 30
0.0
 11
5.928942
 21
4.711889
 31
0.0
  0
LINE
  5
132
330
18
100
AcDbEntity
  8
0
100
AcDbLine
 10
5.697003
 20
4.929083
 30
0.0
 11
5.355172000000001
 21
5.03616
 31
0.0
  0
LINE
  5
133
330
18
100
AcDbEntity
  8
0
  6
HIDDEN
100
AcDbLine
 10
5.393297000000001
 20
5.010173
 30
0.0
 11
5.759699
 21
4.655040000000001
 31
0.0
  0
LINE
  5
134
330
18
100
AcDbEntity
  8
0
  6
HIDDEN
100
AcDbLine
 10
5.759699
 20
3.947043
 30
0.0
 11
5.615023000000001
 21
3.987519
 31
0.0
  0
LINE
  5
135
330
18
100
AcDbEntity
  8
0
  6
HIDDEN
100
AcDbLine
 10
5.615023000000001
 20
3.987519
 30
0.0
 11
5.615023000000001
 21
4.645835
 31
0.0
  0
LINE
  5
136
330
18
100
AcDbEntity
  8
0
  6
HIDDEN
100
AcDbLine
 10
5.615023000000001
 20
4.675219
 30
0.0
 11
5.511324
 21
4.794357
 31
0.0
  0
LINE
  5
137
330
18
100
AcDbEntity
  8
0
  6
HIDDEN
100
AcDbLine
 10
5.503538
 20
4.803302
 30
0.0
 11
5.470534
 21
4.797303
 31
0.0
  0
LINE
  5
138
330
18
100
AcDbEntity
  8
0
  6
HIDDEN
100
AcDbLine
 10
5.470534
 20
4.797303
 30
0.0
 11
5.419331
 21
4.86161
 31
0.0
  0
LINE
  5
139
330
18
100
AcDbEntity
  8
0
  6
HIDDEN
100
AcDbLine
 10
5.419331
 20
4.86161
 30
0.0
 11
5.451032
 21
4.869288
 31
0.0
  0
LINE
  5
13A
330
18
100
AcDbEntity
  8
0
  6
HIDDEN
100
AcDbLine
 10
5.451032
 20
4.869288
 30
0.0
 11
5.401526000000001
 21
4.929275
 31
0.0
  0
LINE
  5
13B
330
18
100
AcDbEntity
  8
0
  6
HIDDEN
100
AcDbLine
 10
5.401526000000001
 20
4.929275
 30
0.0
 11
5.364021
 21
4.926276000000001
 31
0.0
  0
LINE
  5
13C
330
18
100
AcDbEntity
  8
0
  6
HIDDEN
100
AcDbLine
 10
5.759699
 20
4.633837000000001
 30
0.0
 11
5.759699
 21
3.947043
 31
0.0
  0
LINE
  5
13D
330
18
100
AcDbEntity
  8
0
  6
HIDDEN
100
AcDbLine
 10
5.357314
 20
4.935832
 30
0.0
 11
5.333880000000001
 21
4.969223
 31
0.0
  0
LINE
  5
13E
330
18
100
AcDbEntity
  8
0
  6
HIDDEN
100
AcDbLine
 10
5.339076
 20
4.985059
 30
0.0
 11
5.377001
 21
5.002625
 31
0.0
  0
LINE
  5
13F
330
18
100
AcDbEntity
  8
0
 62
     0
100
AcDbLine
 10
7.221581
 20
3.821055
 30
0.0
 11
7.245686
 21
3.849781
 31
0.0
  0
LINE
  5
140
330
18
100
AcDbEntity
  8
0
 62
     0
100
AcDbLine
 10
8.297471
 20
3.726926
 30
0.0
 11
8.321576
 21
3.755653
 31
0.0
  0
LINE
  5
141
330
18
100
AcDbEntity
  8
0
 62
     0
100
AcDbLine
 10
8.725477
 20
3.319454
 30
0.0
 11
8.749582
 21
3.348181
 31
0.0
  0
LINE
  5
142
330
18
100
AcDbEntity
  8
0
 62
     0
100
AcDbLine
 10
6.793575
 20
4.228527
 30
0.0
 11
6.795402
 21
4.230704
 31
0.0
  0
LINE
  5
143
330
18
100
AcDbEntity
  8
0
 62
     0
100
AcDbLine
 10
6.434945
 20
4.259903
 30
0.0
 11
6.45905
 21
4.28863
 31
0.0
  0
LINE
  5
144
330
18
100
AcDbEntity
  8
0
 62
     0
100
AcDbLine
 10
8.725477
 20
3.319454
 30
0.0
 11
8.755363000000001
 21
3.31684
 31
0.0
  0
LINE
  5
145
330
18
100
AcDbEntity
  8
0
 62
     0
100
AcDbLine
 10
7.221581
 20
3.821055
 30
0.0
 11
7.251467
 21
3.81844
 31
0.0
  0
LINE
  5
146
330
18
100
AcDbEntity
  8
0
 62
     0
100
AcDbLine
 10
8.297471
 20
3.726926
 30
0.0
 11
8.327357000000001
 21
3.724312
 31
0.0
  0
LINE
  5
147
330
18
100
AcDbEntity
  8
0
 62
     0
100
AcDbLine
 10
6.434945
 20
4.259903
 30
0.0
 11
6.464830999999999
 21
4.257288
 31
0.0
  0
LINE
  5
148
330
18
100
AcDbEntity
  8
0
 62
     0
100
AcDbLine
 10
6.793575
 20
4.228527
 30
0.0
 11
6.806297
 21
4.227414
 31
0.0
  0
LINE
  5
149
330
18
100
AcDbEntity
  8
0
 62
     0
100
AcDbLine
 10
7.251469
 20
3.818433999999999
 30
0.0
 11
7.245688
 21
3.849775
 31
0.0
  0
LINE
  5
14A
330
18
100
AcDbEntity
  8
0
 62
     0
100
AcDbLine
 10
8.327359
 20
3.724305
 30
0.0
 11
8.321578000000001
 21
3.755646
 31
0.0
  0
LINE
  5
14B
330
18
100
AcDbEntity
  8
0
 62
     0
100
AcDbLine
 10
8.755364999999999
 20
3.316832
 30
0.0
 11
8.749582999999999
 21
3.348174
 31
0.0
  0
LINE
  5
14C
330
18
100
AcDbEntity
  8
0
 62
     0
100
AcDbLine
 10
6.464833000000001
 20
4.257283
 30
0.0
 11
6.459052
 21
4.288624
 31
0.0
  0
LINE
  5
14D
330
18
100
AcDbEntity
  8
0
 62
     0
100
AcDbLine
 10
7.312741
 20
3.953795
 30
0.0
 11
7.351686
 21
3.994384
 31
0.0
  0
LINE
  5
14E
330
18
100
AcDbEntity
  8
0
 62
     0
100
AcDbLine
 10
6.779121000000001
 20
4.036555
 30
0.0
 11
6.818065
 21
4.077143
 31
0.0
  0
LINE
  5
14F
330
18
100
AcDbEntity
  8
0
 62
     0
100
AcDbLine
 10
6.2455
 20
4.119314
 30
0.0
 11
6.284445
 21
4.159903
 31
0.0
  0
LINE
  5
150
330
18
100
AcDbEntity
  8
0
 62
     0
100
AcDbLine
 10
5.748697
 20
4.240444999999999
 30
0.0
 11
5.750824
 21
4.242662
 31
0.0
  0
LINE
  5
151
330
18
100
AcDbEntity
  8
0
 62
     0
100
AcDbLine
 10
6.823591
 20
4.029653
 30
0.0
 11
6.818067
 21
4.077138
 31
0.0
  0
LINE
  5
152
330
18
100
AcDbEntity
  8
0
 62
     0
100
AcDbLine
 10
7.357212
 20
3.946893
 30
0.0
 11
7.351688
 21
3.994378
 31
0.0
  0
LINE
  5
153
330
18
100
AcDbEntity
  8
0
 62
     0
100
AcDbLine
 10
6.289971
 20
4.112413
 30
0.0
 11
6.284447
 21
4.159898
 31
0.0
  0
LINE
  5
154
330
18
100
AcDbEntity
  8
0
 62
     0
100
AcDbLine
 10
5.751174
 20
4.239668
 30
0.0
 11
5.750826
 21
4.242657
 31
0.0
  0
LINE
  5
155
330
18
100
AcDbEntity
  8
0
 62
     0
100
AcDbLine
 10
6.2455
 20
4.119314
 30
0.0
 11
6.289969
 21
4.112418
 31
0.0
  0
LINE
  5
156
330
18
100
AcDbEntity
  8
0
 62
     0
100
AcDbLine
 10
6.779121000000001
 20
4.036555
 30
0.0
 11
6.823589
 21
4.029658
 31
0.0
  0
LINE
  5
157
330
18
100
AcDbEntity
  8
0
 62
     0
100
AcDbLine
 10
7.312741
 20
3.953795
 30
0.0
 11
7.35721
 21
3.946899
 31
0.0
  0
LINE
  5
158
330
18
100
AcDbEntity
  8
0
 62
     0
100
AcDbLine
 10
7.149295
 20
3.965687
 30
0.0
 11
7.184303999999999
 21
3.979125
 31
0.0
  0
LINE
  5
159
330
18
100
AcDbEntity
  8
0
 62
     0
100
AcDbLine
 10
7.447748
 20
3.764377
 30
0.0
 11
7.4503
 21
3.765357
 31
0.0
  0
LINE
  5
15A
330
18
100
AcDbEntity
  8
0
 62
     0
100
AcDbLine
 10
8.166313000000001
 20
3.724333
 30
0.0
 11
8.201321999999999
 21
3.737772
 31
0.0
  0
LINE
  5
15B
330
18
100
AcDbEntity
  8
0
 62
     0
100
AcDbLine
 10
8.464767
 20
3.523024
 30
0.0
 11
8.499775999999999
 21
3.536463
 31
0.0
  0
LINE
  5
15C
330
18
100
AcDbEntity
  8
0
 62
     0
100
AcDbLine
 10
6.460635
 20
4.01721
 30
0.0
 11
6.465739
 21
4.019169000000001
 31
0.0
  0
LINE
  5
15D
330
18
100
AcDbEntity
  8
0
 62
     0
100
AcDbLine
 10
6.850841
 20
4.166996
 30
0.0
 11
6.885851
 21
4.180435
 31
0.0
  0
LINE
  5
15E
330
18
100
AcDbEntity
  8
0
 62
     0
100
AcDbLine
 10
6.132276999999999
 20
4.20704
 30
0.0
 11
6.167286
 21
4.220479
 31
0.0
  0
LINE
  5
15F
330
18
100
AcDbEntity
  8
0
 62
     0
100
AcDbLine
 10
5.833823000000001
 20
4.408348999999999
 30
0.0
 11
5.868832
 21
4.421787999999999
 31
0.0
  0
LINE
  5
160
330
18
100
AcDbEntity
  8
0
 62
     0
100
AcDbLine
 10
5.833823000000001
 20
4.408348999999999
 30
0.0
 11
5.858694
 21
4.391573999999999
 31
0.0
  0
LINE
  5
161
330
18
100
AcDbEntity
  8
0
 62
     0
100
AcDbLine
 10
6.132276999999999
 20
4.20704
 30
0.0
 11
6.157148
 21
4.190264
 31
0.0
  0
LINE
  5
162
330
18
100
AcDbEntity
  8
0
 62
     0
100
AcDbLine
 10
6.850841
 20
4.166996
 30
0.0
 11
6.875711999999999
 21
4.15022
 31
0.0
  0
LINE
  5
163
330
18
100
AcDbEntity
  8
0
 62
     0
100
AcDbLine
 10
7.149295
 20
3.965687
 30
0.0
 11
7.174166000000001
 21
3.948911
 31
0.0
  0
LINE
  5
164
330
18
100
AcDbEntity
  8
0
 62
     0
100
AcDbLine
 10
7.447748
 20
3.764377
 30
0.0
 11
7.449388000000001
 21
3.763272
 31
0.0
  0
LINE
  5
165
330
18
100
AcDbEntity
  8
0
 62
     0
100
AcDbLine
 10
8.166313000000001
 20
3.724333
 30
0.0
 11
8.191184
 21
3.707558
 31
0.0
  0
LINE
  5
166
330
18
100
AcDbEntity
  8
0
 62
     0
100
AcDbLine
 10
8.464767
 20
3.523024
 30
0.0
 11
8.489638000000001
 21
3.506248
 31
0.0
  0
LINE
  5
167
330
18
100
AcDbEntity
  8
0
 62
     0
100
AcDbLine
 10
7.174167999999999
 20
3.948905
 30
0.0
 11
7.184305999999999
 21
3.979119
 31
0.0
  0
LINE
  5
168
330
18
100
AcDbEntity
  8
0
 62
     0
100
AcDbLine
 10
8.191186
 20
3.707551
 30
0.0
 11
8.201324000000001
 21
3.737765
 31
0.0
  0
LINE
  5
169
330
18
100
AcDbEntity
  8
0
 62
     0
100
AcDbLine
 10
8.489639
 20
3.506241
 30
0.0
 11
8.499777999999999
 21
3.536455
 31
0.0
  0
LINE
  5
16A
330
18
100
AcDbEntity
  8
0
 62
     0
100
AcDbLine
 10
6.875715
 20
4.150214
 30
0.0
 11
6.885853
 21
4.180429
 31
0.0
  0
LINE
  5
16B
330
18
100
AcDbEntity
  8
0
 62
     0
100
AcDbLine
 10
6.464662000000001
 20
4.015947
 30
0.0
 11
6.465742
 21
4.019164
 31
0.0
  0
LINE
  5
16C
330
18
100
AcDbEntity
  8
0
 62
     0
100
AcDbLine
 10
6.15715
 20
4.190258999999999
 30
0.0
 11
6.167288
 21
4.220473
 31
0.0
  0
LINE
  5
16D
330
18
100
AcDbEntity
  8
0
 62
     0
100
AcDbLine
 10
5.858697
 20
4.391568
 30
0.0
 11
5.868835
 21
4.421783000000001
 31
0.0
  0
LINE
  5
16E
330
18
100
AcDbEntity
  8
0
 62
     0
100
AcDbLine
 10
7.241842999999999
 20
3.932722
 30
0.0
 11
7.241842999999999
 21
3.932722
 31
0.0
  0
LINE
  5
16F
330
18
100
AcDbEntity
  8
0
 62
     0
100
AcDbLine
 10
6.98929
 20
3.900712
 30
0.0
 11
6.98929
 21
3.900712
 31
0.0
  0
LINE
  5
170
330
18
100
AcDbEntity
  8
0
 62
     0
100
AcDbLine
 10
6.995369999999999
 20
4.067158999999999
 30
0.0
 11
6.995369999999999
 21
4.067158999999999
 31
0.0
  0
LINE
  5
171
330
18
100
AcDbEntity
  8
0
 62
     0
100
AcDbLine
 10
6.738650999999999
 20
4.031954
 30
0.0
 11
6.738650999999999
 21
4.031954
 31
0.0
  0
LINE
  5
172
330
18
100
AcDbEntity
  8
0
 62
     0
100
AcDbLine
 10
6.744731
 20
4.198401000000001
 30
0.0
 11
6.744731
 21
4.198401000000001
 31
0.0
  0
LINE
  5
173
330
18
100
AcDbEntity
  8
0
 62
     0
100
AcDbLine
 10
6.485037999999999
 20
4.160913
 30
0.0
 11
6.485037999999999
 21
4.160913
 31
0.0
  0
LINE
  5
174
330
18
100
AcDbEntity
  8
0
 62
     0
100
AcDbLine
 10
6.232485
 20
4.128904
 30
0.0
 11
6.232485
 21
4.128904
 31
0.0
  0
LINE
  5
175
330
18
100
AcDbEntity
  8
0
 62
     0
100
AcDbLine
 10
6.238565
 20
4.29535
 30
0.0
 11
6.238565
 21
4.29535
 31
0.0
  0
LINE
  5
176
330
18
100
AcDbEntity
  8
0
 62
     0
100
AcDbLine
 10
7.501537
 20
3.97021
 30
0.0
 11
7.501537
 21
3.97021
 31
0.0
  0
LINE
  5
177
330
18
100
AcDbEntity
  8
0
 62
     0
100
AcDbLine
 10
8.258341999999999
 20
3.742019
 30
0.0
 11
8.258341999999999
 21
3.742019
 31
0.0
  0
LINE
  5
178
330
18
100
AcDbEntity
  8
0
 62
     0
100
AcDbLine
 10
8.252262
 20
3.575572
 30
0.0
 11
8.252262
 21
3.575572
 31
0.0
  0
LINE
  5
179
330
18
100
AcDbEntity
  8
0
 62
     0
100
AcDbLine
 10
8.508980000000001
 20
3.610777
 30
0.0
 11
8.508980000000001
 21
3.610777
 31
0.0
  0
LINE
  5
17A
330
18
100
AcDbEntity
  8
0
 62
     0
100
AcDbLine
 10
8.5029
 20
3.44433
 30
0.0
 11
8.5029
 21
3.44433
 31
0.0
  0
LINE
  5
17B
330
18
100
AcDbEntity
  8
0
 62
     0
100
AcDbLine
 10
8.755453999999999
 20
3.47634
 30
0.0
 11
8.755453999999999
 21
3.47634
 31
0.0
  0
LINE
  5
17C
330
18
100
AcDbEntity
  8
0
 62
     0
100
AcDbLine
 10
8.749374000000001
 20
3.309893
 30
0.0
 11
8.749374000000001
 21
3.309893
 31
0.0
  0
LINE
  5
17D
330
18
100
AcDbEntity
  8
0
 62
     0
100
AcDbLine
 10
7.230905
 20
3.860392
 30
0.0
 11
7.230905
 21
3.860392
 31
0.0
  0
LINE
  5
17E
330
18
100
AcDbEntity
  8
0
 62
     0
100
AcDbLine
 10
7.356075
 20
3.876871
 30
0.0
 11
7.356075
 21
3.876871
 31
0.0
  0
LINE
  5
17F
330
18
100
AcDbEntity
  8
0
 62
     0
100
AcDbLine
 10
6.732127999999999
 20
3.974616
 30
0.0
 11
6.732127999999999
 21
3.974616
 31
0.0
  0
LINE
  5
180
330
18
100
AcDbEntity
  8
0
 62
     0
100
AcDbLine
 10
6.857297999999999
 20
3.991095
 30
0.0
 11
6.857297999999999
 21
3.991095
 31
0.0
  0
LINE
  5
181
330
18
100
AcDbEntity
  8
0
 62
     0
100
AcDbLine
 10
7.046664
 20
4.016025
 30
0.0
 11
7.046664
 21
4.016025
 31
0.0
  0
LINE
  5
182
330
18
100
AcDbEntity
  8
0
 62
     0
100
AcDbLine
 10
7.362439
 20
4.057598000000001
 30
0.0
 11
7.362439
 21
4.057598000000001
 31
0.0
  0
LINE
  5
183
330
18
100
AcDbEntity
  8
0
 62
     0
100
AcDbLine
 10
6.233352
 20
4.088839
 30
0.0
 11
6.233352
 21
4.088839
 31
0.0
  0
LINE
  5
184
330
18
100
AcDbEntity
  8
0
 62
     0
100
AcDbLine
 10
6.358522
 20
4.105318000000001
 30
0.0
 11
6.358522
 21
4.105318000000001
 31
0.0
  0
LINE
  5
185
330
18
100
AcDbEntity
  8
0
 62
     0
100
AcDbLine
 10
6.547888
 20
4.130249
 30
0.0
 11
6.547888
 21
4.130249
 31
0.0
  0
LINE
  5
186
330
18
100
AcDbEntity
  8
0
 62
     0
100
AcDbLine
 10
6.863663000000001
 20
4.171821
 30
0.0
 11
6.863663000000001
 21
4.171821
 31
0.0
  0
LINE
  5
187
330
18
100
AcDbEntity
  8
0
 62
     0
100
AcDbLine
 10
5.859746
 20
4.219542
 30
0.0
 11
5.859746
 21
4.219542
 31
0.0
  0
LINE
  5
188
330
18
100
AcDbEntity
  8
0
 62
     0
100
AcDbLine
 10
6.364887
 20
4.286045
 30
0.0
 11
6.364887
 21
4.286045
 31
0.0
  0
LINE
  5
189
330
18
100
AcDbEntity
  8
0
 62
     0
100
AcDbLine
 10
6.490057
 20
4.302524
 30
0.0
 11
6.490057
 21
4.302524
 31
0.0
  0
LINE
  5
18A
330
18
100
AcDbEntity
  8
0
 62
     0
100
AcDbLine
 10
5.866111
 20
4.400269000000001
 30
0.0
 11
5.866111
 21
4.400269000000001
 31
0.0
  0
LINE
  5
18B
330
18
100
AcDbEntity
  8
0
 62
     0
100
AcDbLine
 10
8.228457000000001
 20
3.631944
 30
0.0
 11
8.228457000000001
 21
3.631944
 31
0.0
  0
LINE
  5
18C
330
18
100
AcDbEntity
  8
0
 62
     0
100
AcDbLine
 10
8.353627000000001
 20
3.648423
 30
0.0
 11
8.353627000000001
 21
3.648423
 31
0.0
  0
LINE
  5
18D
330
18
100
AcDbEntity
  8
0
 62
     0
100
AcDbLine
 10
8.542992999999999
 20
3.673354
 30
0.0
 11
8.542992999999999
 21
3.673354
 31
0.0
  0
LINE
  5
18E
330
18
100
AcDbEntity
  8
0
 62
     0
100
AcDbLine
 10
8.411458
 20
3.476148
 30
0.0
 11
8.411458
 21
3.476148
 31
0.0
  0
LINE
  5
18F
330
18
100
AcDbEntity
  8
0
 62
     0
100
AcDbLine
 10
8.727233999999999
 20
3.51772
 30
0.0
 11
8.727233999999999
 21
3.51772
 31
0.0
  0
LINE
  5
190
330
18
100
AcDbEntity
  8
0
 62
     0
100
AcDbLine
 10
8.595699
 20
3.320514
 30
0.0
 11
8.595699
 21
3.320514
 31
0.0
  0
LINE
  5
191
330
18
100
AcDbEntity
  8
0
 62
     0
100
AcDbLine
 10
8.720869
 20
3.336993
 30
0.0
 11
8.720869
 21
3.336993
 31
0.0
  0
LINE
  5
192
330
18
100
AcDbEntity
  8
0
 62
     0
100
AcDbLine
 10
5.948891000000001
 20
4.464069
 30
0.0
 11
5.948891000000001
 21
4.464069
 31
0.0
  0
LINE
  5
193
330
18
100
AcDbEntity
  8
0
 62
     0
100
AcDbLine
 10
6.277813
 20
4.254522
 30
0.0
 11
6.277813
 21
4.254522
 31
0.0
  0
LINE
  5
194
330
18
100
AcDbEntity
  8
0
 62
     0
100
AcDbLine
 10
6.714268
 20
3.97647
 30
0.0
 11
6.714268
 21
3.97647
 31
0.0
  0
LINE
  5
195
330
18
100
AcDbEntity
  8
0
 62
     0
100
AcDbLine
 10
6.819692
 20
3.909307
 30
0.0
 11
6.819692
 21
3.909307
 31
0.0
  0
LINE
  5
196
330
18
100
AcDbEntity
  8
0
 62
     0
100
AcDbLine
 10
6.544724
 20
4.243245
 30
0.0
 11
6.544724
 21
4.243245
 31
0.0
  0
LINE
  5
197
330
18
100
AcDbEntity
  8
0
 62
     0
100
AcDbLine
 10
6.98118
 20
3.965192
 30
0.0
 11
6.98118
 21
3.965192
 31
0.0
  0
LINE
  5
198
330
18
100
AcDbEntity
  8
0
 62
     0
100
AcDbLine
 10
7.086603
 20
3.89803
 30
0.0
 11
7.086603
 21
3.89803
 31
0.0
  0
LINE
  5
199
330
18
100
AcDbEntity
  8
0
 62
     0
100
AcDbLine
 10
7.248091000000001
 20
3.953915
 30
0.0
 11
7.248091000000001
 21
3.953915
 31
0.0
  0
LINE
  5
19A
330
18
100
AcDbEntity
  8
0
 62
     0
100
AcDbLine
 10
7.353515
 20
3.886753
 30
0.0
 11
7.353515
 21
3.886753
 31
0.0
  0
LINE
  5
19B
330
18
100
AcDbEntity
  8
0
 62
     0
100
AcDbLine
 10
7.515002000000001
 20
3.942638
 30
0.0
 11
7.515002000000001
 21
3.942638
 31
0.0
  0
LINE
  5
19C
330
18
100
AcDbEntity
  8
0
 62
     0
100
AcDbLine
 10
8.21626
 20
3.654651
 30
0.0
 11
8.21626
 21
3.654651
 31
0.0
  0
LINE
  5
19D
330
18
100
AcDbEntity
  8
0
 62
     0
100
AcDbLine
 10
8.652714999999999
 20
3.376598
 30
0.0
 11
8.652714999999999
 21
3.376598
 31
0.0
  0
LINE
  5
19E
330
18
100
AcDbEntity
  8
0
 62
     0
100
AcDbLine
 10
8.758139
 20
3.309436
 30
0.0
 11
8.758139
 21
3.309436
 31
0.0
  0
LINE
  5
19F
330
18
100
AcDbEntity
  8
0
 62
     0
100
AcDbLine
 10
8.483171000000001
 20
3.643373
 30
0.0
 11
8.483171000000001
 21
3.643373
 31
0.0
  0
LINE
  5
1A0
330
18
100
AcDbEntity
  8
0
 62
     0
100
AcDbLine
 10
8.750082000000001
 20
3.632096
 30
0.0
 11
8.750082000000001
 21
3.632096
 31
0.0
  0
LINE
  5
1A1
330
18
100
AcDbEntity
  8
0
 62
     0
100
AcDbLine
 10
6.37159
 20
4.339965
 30
0.0
 11
6.37159
 21
4.339965
 31
0.0
  0
LINE
  5
1A2
330
18
100
AcDbEntity
  8
0
 62
     0
100
AcDbLine
 10
6.491398
 20
4.230182
 30
0.0
 11
6.491398
 21
4.230182
 31
0.0
  0
LINE
  5
1A3
330
18
100
AcDbEntity
  8
0
 62
     0
100
AcDbLine
 10
6.682352000000001
 20
4.055204
 30
0.0
 11
6.682352000000001
 21
4.055204
 31
0.0
  0
LINE
  5
1A4
330
18
100
AcDbEntity
  8
0
 62
     0
100
AcDbLine
 10
6.973946000000001
 20
4.105256
 30
0.0
 11
6.973946000000001
 21
4.105256
 31
0.0
  0
LINE
  5
1A5
330
18
100
AcDbEntity
  8
0
 62
     0
100
AcDbLine
 10
7.244895
 20
3.856977
 30
0.0
 11
7.244895
 21
3.856977
 31
0.0
  0
LINE
  5
1A6
330
18
100
AcDbEntity
  8
0
 62
     0
100
AcDbLine
 10
7.364703
 20
3.747193
 30
0.0
 11
7.364703
 21
3.747193
 31
0.0
  0
LINE
  5
1A7
330
18
100
AcDbEntity
  8
0
 62
     0
100
AcDbLine
 10
8.138844000000001
 20
3.67232
 30
0.0
 11
8.138844000000001
 21
3.67232
 31
0.0
  0
LINE
  5
1A8
330
18
100
AcDbEntity
  8
0
 62
     0
100
AcDbLine
 10
8.409792999999999
 20
3.424041
 30
0.0
 11
8.409792999999999
 21
3.424041
 31
0.0
  0
LINE
  5
1A9
330
18
100
AcDbEntity
  8
0
 62
     0
100
AcDbLine
 10
8.430437
 20
3.722373
 30
0.0
 11
8.430437
 21
3.722373
 31
0.0
  0
LINE
  5
1AA
330
18
100
AcDbEntity
  8
0
 62
     0
100
AcDbLine
 10
8.701385999999999
 20
3.474094
 30
0.0
 11
8.701385999999999
 21
3.474094
 31
0.0
  0
LINE
  5
1AB
330
18
100
AcDbEntity
  8
0
 62
     0
100
AcDbLine
 10
6.199805000000001
 20
4.180129
 30
0.0
 11
6.199805000000001
 21
4.180129
 31
0.0
  0
LINE
  5
1AC
330
18
100
AcDbEntity
  8
0
 62
     0
100
AcDbLine
 10
5.788404
 20
4.23986
 30
0.0
 11
5.788404
 21
4.23986
 31
0.0
  0
LINE
  5
1AD
330
18
100
AcDbEntity
  8
0
100
AcDbLine
 10
6.098962
 20
4.53685
 30
0.0
 11
5.994634
 21
4.567778
 31
0.0
  0
LINE
  5
1AE
330
18
100
AcDbEntity
  8
0
100
AcDbLine
 10
5.442503
 20
5.183264
 30
0.0
 11
5.631994000000001
 21
5.132626
 31
0.0
  0
ARC
  5
1AF
330
18
100
AcDbEntity
  8
0
100
AcDbCircle
 10
5.436049
 20
5.159111
 30
0.0
 40
0.025
100
AcDbArc
 50
75.03852600000001
 51
148.960359
  0
ARC
  5
1B0
330
18
100
AcDbEntity
  8
0
100
AcDbCircle
 10
5.347699
 20
5.012303
 30
0.0
 40
0.025
100
AcDbArc
 50
72.607114
 51
210.320348
  0
LINE
  5
1B1
330
18
100
AcDbEntity
  8
0
100
AcDbLine
 10
5.326279
 20
5.025194
 30
0.0
 11
5.414628
 21
5.172002
 31
0.0
  0
LINE
  5
1B2
330
18
100
AcDbEntity
  8
0
100
AcDbLine
 10
5.437094999999999
 20
5.184089
 30
0.0
 11
6.184083
 21
6.425339
 31
0.0
  0
LINE
  5
1B3
330
18
100
AcDbEntity
  8
0
100
AcDbLine
 10
5.654193
 20
5.101811
 30
0.0
 11
5.650616
 21
5.043364
 31
0.0
  0
LINE
  5
1B4
330
18
100
AcDbEntity
  8
0
100
AcDbLine
 10
5.657141999999999
 20
5.022781
 30
0.0
 11
5.713196
 21
4.952773000000001
 31
0.0
  0
LINE
  5
1B5
330
18
100
AcDbEntity
  8
0
100
AcDbLine
 10
5.738047
 20
4.889305
 30
0.0
 11
5.766598999999999
 21
4.88738
 31
0.0
  0
LINE
  5
1B6
330
18
100
AcDbEntity
  8
0
100
AcDbLine
 10
5.775368
 20
4.883789
 30
0.0
 11
5.824992
 21
4.841129000000001
 31
0.0
  0
LINE
  5
1B7
330
18
100
AcDbEntity
  8
0
100
AcDbLine
 10
5.822874
 20
4.834126
 30
0.0
 11
5.806214
 21
4.832069000000001
 31
0.0
  0
LINE
  5
1B8
330
18
100
AcDbEntity
  8
0
100
AcDbLine
 10
5.728982
 20
4.893158000000001
 30
0.0
 11
5.685312000000001
 21
4.932745
 31
0.0
  0
ARC
  5
1B9
330
18
100
AcDbEntity
  8
0
100
AcDbCircle
 10
5.624249
 20
5.103643
 30
0.0
 40
0.03
100
AcDbArc
 50
356.498014
 51
75.03852600000001
  0
ARC
  5
1BA
330
18
100
AcDbEntity
  8
0
100
AcDbCircle
 10
5.68056
 20
5.041532
 30
0.0
 40
0.03
100
AcDbArc
 50
176.498014
 51
218.683121
  0
ARC
  5
1BB
330
18
100
AcDbEntity
  8
0
100
AcDbCircle
 10
5.701486
 20
4.943397
 30
0.0
 40
0.015
100
AcDbArc
 50
252.607114
 51
38.683121
  0
LINE
  5
1BC
330
18
100
AcDbEntity
  8
0
100
AcDbLine
 10
5.528797
 20
4.981773000000001
 30
0.0
 11
4.678842
 21
3.546321
 31
0.0
  0
LINE
  5
1BD
330
18
100
AcDbEntity
  8
0
100
AcDbLine
 10
5.551601
 20
5.020286000000001
 30
0.0
 11
5.597211
 21
5.097314
 31
0.0
  0
ARC
  5
1BE
330
18
100
AcDbEntity
  8
0
100
AcDbCircle
 10
5.739056
 20
4.904271
 30
0.0
 40
0.015
100
AcDbArc
 50
227.8068850000001
 51
266.143795
  0
ARC
  5
1BF
330
18
100
AcDbEntity
  8
0
100
AcDbCircle
 10
5.76559
 20
4.872414
 30
0.0
 40
0.015
100
AcDbArc
 50
49.31502800000001
 51
86.143795
  0
ARC
  5
1C0
330
18
100
AcDbEntity
  8
0
100
AcDbCircle
 10
5.806704
 20
4.828099
 30
0.0
 40
0.004
100
AcDbArc
 50
97.038461
 51
227.8068850000001
  0
ARC
  5
1C1
330
18
100
AcDbEntity
  8
0
100
AcDbCircle
 10
5.822384
 20
4.838096
 30
0.0
 40
0.004
100
AcDbArc
 50
277.038461
 51
49.31502800000001
  0
ARC
  5
1C2
330
18
100
AcDbEntity
  8
0
100
AcDbCircle
 10
5.947308000000001
 20
4.724849
 30
0.0
 40
0.004
100
AcDbArc
 50
277.038461
 51
49.31502800000001
  0
LINE
  5
1C3
330
18
100
AcDbEntity
  8
0
100
AcDbLine
 10
5.900291999999999
 20
4.770542
 30
0.0
 11
5.949915
 21
4.727882
 31
0.0
  0
LINE
  5
1C4
330
18
100
AcDbEntity
  8
0
100
AcDbLine
 10
5.947798000000001
 20
4.720879
 30
0.0
 11
5.931138
 21
4.718822
 31
0.0
  0
ARC
  5
1C5
330
18
100
AcDbEntity
  8
0
100
AcDbCircle
 10
5.931628
 20
4.714852
 30
0.0
 40
0.004
100
AcDbArc
 50
97.038461
 51
227.8068850000001
  0
ARC
  5
1C6
330
18
100
AcDbEntity
  8
0
100
AcDbCircle
 10
5.890514
 20
4.759168
 30
0.0
 40
0.015
100
AcDbArc
 50
49.31502800000001
 51
86.143795
  0
LINE
  5
1C7
330
18
100
AcDbEntity
  8
0
100
AcDbLine
 10
5.862971
 20
4.776058
 30
0.0
 11
5.891522
 21
4.774133999999999
 31
0.0
  0
ARC
  5
1C8
330
18
100
AcDbEntity
  8
0
100
AcDbCircle
 10
5.863980000000001
 20
4.791024
 30
0.0
 40
0.015
100
AcDbArc
 50
227.8068850000001
 51
266.143795
  0
LINE
  5
1C9
330
18
100
AcDbEntity
  8
0
100
AcDbLine
 10
5.853905999999999
 20
4.779911
 30
0.0
 11
5.804018
 21
4.825135
 31
0.0
  0
LINE
  5
1CA
330
18
100
AcDbEntity
  8
0
100
AcDbLine
 10
5.528836
 20
4.98176
 30
0.0
 11
5.954762000000001
 21
4.606832
 31
0.0
  0
LINE
  5
1CB
330
18
100
AcDbEntity
  8
0
100
AcDbLine
 10
5.953835
 20
4.568523
 30
0.0
 11
5.476506
 21
4.187715
 31
0.0
  0
ARC
  5
1CC
330
18
100
AcDbEntity
  8
0
100
AcDbCircle
 10
5.938244
 20
4.588066
 30
0.0
 40
0.025
100
AcDbArc
 50
308.58255
 51
48.64357899999999
  0
LINE
  5
1CD
330
18
100
AcDbEntity
  8
0
100
AcDbLine
 10
5.829342
 20
4.802178
 30
0.0
 11
5.848257902454378
 21
4.835119987946052
 31
0.0
  0
LINE
  5
1CE
330
18
100
AcDbEntity
  8
0
100
AcDbLine
 10
7.894347
 20
3.726375
 30
0.0
 11
7.894347
 21
3.482127
 31
0.0
  0
LINE
  5
1CF
330
18
100
AcDbEntity
  8
0
  6
HIDDEN
100
AcDbLine
 10
7.622659
 20
3.830392
 30
0.0
 11
7.552878999999999
 21
3.758041
 31
0.0
  0
LINE
  5
1D0
330
18
100
AcDbEntity
  8
0
  6
HIDDEN
100
AcDbLine
 10
7.555406
 20
3.62692
 30
0.0
 11
7.628164999999999
 21
3.705289
 31
0.0
  0
LINE
  5
1D1
330
18
100
AcDbEntity
  8
0
  6
HIDDEN
100
AcDbLine
 10
7.628164999999999
 20
3.726395
 30
0.0
 11
7.628164999999999
 21
3.476056
 31
0.0
  0
LINE
  5
1D2
330
18
100
AcDbEntity
  8
0
  6
HIDDEN
100
AcDbLine
 10
7.713582000000001
 20
3.493415
 30
0.0
 11
7.631956
 21
3.43354
 31
0.0
  0
LINE
  5
1D3
330
18
100
AcDbEntity
  8
0
  6
HIDDEN
100
AcDbLine
 10
7.931549
 20
3.435233
 30
0.0
 11
8.037801
 21
3.398621
 31
0.0
  0
LINE
  5
1D4
330
18
100
AcDbEntity
  8
0
  6
HIDDEN
100
AcDbLine
 10
7.640044000000001
 20
3.73837
 30
0.0
 11
7.679924000000001
 21
3.778569
 31
0.0
  0
LINE
  5
1D5
330
18
100
AcDbEntity
  8
0
100
AcDbLine
 10
7.937397
 20
3.724545
 30
0.0
 11
7.929473
 21
3.703493
 31
0.0
  0
LINE
  5
1D6
330
18
100
AcDbEntity
  8
0
100
AcDbLine
 10
7.929473
 20
3.703493
 30
0.0
 11
7.997928999999999
 21
3.60667
 31
0.0
  0
LINE
  5
1D7
330
18
100
AcDbEntity
  8
0
100
AcDbLine
 10
7.997928999999999
 20
3.60667
 30
0.0
 11
8.021949000000001
 21
3.607767
 31
0.0
  0
LINE
  5
1D8
330
18
100
AcDbEntity
  8
0
100
AcDbLine
 10
7.997928999999999
 20
3.4705
 30
0.0
 11
8.021949000000001
 21
3.471597
 31
0.0
  0
LINE
  5
1D9
330
18
100
AcDbEntity
  8
0
100
AcDbLine
 10
7.929473
 20
3.567323000000001
 30
0.0
 11
7.997928999999999
 21
3.4705
 31
0.0
  0
LINE
  5
1DA
330
18
100
AcDbEntity
  8
0
100
AcDbLine
 10
7.937397
 20
3.588375
 30
0.0
 11
7.929473
 21
3.567323000000001
 31
0.0
  0
POINT
  5
1DB
330
18
100
AcDbEntity
  8
0
100
AcDbPoint
 10
7.984497
 20
3.461471
 30
0.0
  0
POINT
  5
1DC
330
18
100
AcDbEntity
  8
0
100
AcDbPoint
 10
7.990046
 20
3.575607
 30
0.0
  0
LINE
  5
1DD
330
18
100
AcDbEntity
  8
0
  6
Continuous
100
AcDbLine
 10
7.97247
 20
3.204466
 30
0.0
 11
8.068799
 21
3.274631
 31
0.0
  0
LINE
  5
1DE
330
18
100
AcDbEntity
  8
0
100
AcDbLine
 10
8.068799
 20
3.671939
 30
0.0
 11
8.002321
 21
3.75984
 31
0.0
  0
LINE
  5
1DF
330
18
100
AcDbEntity
  8
0
100
AcDbLine
 10
8.002321
 20
3.75984
 30
0.0
 11
7.887069
 21
3.792909
 31
0.0
  0
LINE
  5
1E0
330
18
100
AcDbEntity
  8
0
  6
Continuous
100
AcDbLine
 10
8.057824
 20
3.265578
 30
0.0
 11
8.057824
 21
3.662886
 31
0.0
  0
LINE
  5
1E1
330
18
100
AcDbEntity
  8
0
100
AcDbLine
 10
8.057824
 20
3.662886
 30
0.0
 11
7.991346000000001
 21
3.750787
 31
0.0
  0
LINE
  5
1E2
330
18
100
AcDbEntity
  8
0
100
AcDbLine
 10
7.991346000000001
 20
3.750787
 30
0.0
 11
7.888124
 21
3.780404
 31
0.0
  0
LINE
  5
1E3
330
18
100
AcDbEntity
  8
0
100
AcDbLine
 10
7.888124
 20
3.780404
 30
0.0
 11
7.804322
 21
3.709998
 31
0.0
  0
LINE
  5
1E4
330
18
100
AcDbEntity
  8
0
100
AcDbLine
 10
7.804322
 20
3.709998
 30
0.0
 11
7.804322
 21
3.395959
 31
0.0
  0
LINE
  5
1E5
330
18
100
AcDbEntity
  8
0
100
AcDbLine
 10
7.887069
 20
3.792909
 30
0.0
 11
7.794292
 21
3.714963
 31
0.0
  0
LINE
  5
1E6
330
18
100
AcDbEntity
  8
0
100
AcDbLine
 10
7.794292
 20
3.714963
 30
0.0
 11
7.794292
 21
3.400924
 31
0.0
  0
LINE
  5
1E7
330
18
100
AcDbEntity
  8
0
100
AcDbLine
 10
7.804322
 20
3.395959
 30
0.0
 11
7.794292
 21
3.400924
 31
0.0
  0
LINE
  5
1E8
330
18
100
AcDbEntity
  8
0
100
AcDbLine
 10
7.794292
 20
3.714963
 30
0.0
 11
7.804322
 21
3.709998
 31
0.0
  0
LINE
  5
1E9
330
18
100
AcDbEntity
  8
0
100
AcDbLine
 10
7.887069
 20
3.792909
 30
0.0
 11
7.888124
 21
3.780404
 31
0.0
  0
LINE
  5
1EA
330
18
100
AcDbEntity
  8
0
100
AcDbLine
 10
7.997644
 20
3.761734
 30
0.0
 11
8.04308067739183
 21
3.87392783542172
 31
0.0
  0
LINE
  5
1EB
330
18
100
AcDbEntity
  8
0
100
AcDbLine
 10
8.002321
 20
3.75984
 30
0.0
 11
7.991346000000001
 21
3.750787
 31
0.0
  0
LINE
  5
1EC
330
18
100
AcDbEntity
  8
0
100
AcDbLine
 10
8.068799
 20
3.671939
 30
0.0
 11
8.057824
 21
3.662886
 31
0.0
  0
LINE
  5
1ED
330
18
100
AcDbEntity
  8
0
  6
Continuous
100
AcDbLine
 10
8.068799
 20
3.274631
 30
0.0
 11
8.068799
 21
3.671939
 31
0.0
  0
CIRCLE
  5
1EE
330
18
100
AcDbEntity
  8
0
  6
HIDDEN
100
AcDbCircle
 10
7.650628
 20
3.345019
 30
0.0
 40
0.007996
  0
CIRCLE
  5
1EF
330
18
100
AcDbEntity
  8
0
  6
HIDDEN
100
AcDbCircle
 10
7.699344
 20
3.428297
 30
0.0
 40
0.007996
  0
CIRCLE
  5
1F0
330
18
100
AcDbEntity
  8
0
  6
HIDDEN
100
AcDbCircle
 10
7.781685
 20
3.363561
 30
0.0
 40
0.007996
  0
CIRCLE
  5
1F1
330
18
100
AcDbEntity
  8
0
  6
HIDDEN
100
AcDbCircle
 10
7.773966000000001
 20
3.291458
 30
0.0
 40
0.007996
  0
ARC
  5
1F2
330
18
100
AcDbEntity
  8
0
100
AcDbCircle
 10
6.056483999999999
 20
3.935145
 30
0.0
 40
0.024056
100
AcDbArc
 50
220.513197
 51
240.932925
  0
ARC
  5
1F3
330
18
100
AcDbEntity
  8
0
100
AcDbCircle
 10
6.054507
 20
3.931588
 30
0.0
 40
0.019986
100
AcDbArc
 50
240.932925
 51
264.859304
  0
ARC
  5
1F4
330
18
100
AcDbEntity
  8
0
100
AcDbCircle
 10
6.047993
 20
3.942302
 30
0.0
 40
0.015563
100
AcDbArc
 50
84.85930400000001
 51
112.030821
  0
ARC
  5
1F5
330
18
100
AcDbEntity
  8
0
100
AcDbCircle
 10
6.047993
 20
3.942302
 30
0.0
 40
0.015563
100
AcDbArc
 50
112.030821
 51
139.202338
  0
ARC
  5
1F6
330
18
100
AcDbEntity
  8
0
100
AcDbCircle
 10
6.051341000000001
 20
3.939412
 30
0.0
 40
0.019986
100
AcDbArc
 50
139.202338
 51
163.128717
  0
ARC
  5
1F7
330
18
100
AcDbEntity
  8
0
100
AcDbCircle
 10
6.055235
 20
3.938231
 30
0.0
 40
0.024056
100
AcDbArc
 50
163.128717
 51
179.124894
  0
ARC
  5
1F8
330
18
100
AcDbEntity
  8
0
100
AcDbCircle
 10
6.050762000000001
 20
3.930073
 30
0.0
 40
0.019986
100
AcDbArc
 50
319.202338
 51
343.128717
  0
ARC
  5
1F9
330
18
100
AcDbEntity
  8
0
100
AcDbCircle
 10
6.046868
 20
3.931254
 30
0.0
 40
0.024056
100
AcDbArc
 50
343.128717
 51
3.548445
  0
ARC
  5
1FA
330
18
100
AcDbEntity
  8
0
100
AcDbCircle
 10
6.041627
 20
3.930929
 30
0.0
 40
0.029307
100
AcDbArc
 50
3.548445
 51
22.030821
  0
ARC
  5
1FB
330
18
100
AcDbEntity
  8
0
100
AcDbCircle
 10
6.041627
 20
3.930929
 30
0.0
 40
0.029307
100
AcDbArc
 50
22.030821
 51
40.513197
  0
ARC
  5
1FC
330
18
100
AcDbEntity
  8
0
100
AcDbCircle
 10
6.045619
 20
3.93434
 30
0.0
 40
0.024056
100
AcDbArc
 50
40.513197
 51
50.746549
  0
ARC
  5
1FD
330
18
100
AcDbEntity
  8
0
100
AcDbCircle
 10
5.683293
 20
4.041439
 30
0.0
 40
0.015563
100
AcDbArc
 50
112.030821
 51
139.202338
  0
ARC
  5
1FE
330
18
100
AcDbEntity
  8
0
100
AcDbCircle
 10
5.686642
 20
4.038548000000001
 30
0.0
 40
0.019986
100
AcDbArc
 50
139.202338
 51
163.128717
  0
ARC
  5
1FF
330
18
100
AcDbEntity
  8
0
100
AcDbCircle
 10
5.690536
 20
4.037367
 30
0.0
 40
0.024056
100
AcDbArc
 50
163.128717
 51
179.124894
  0
ARC
  5
200
330
18
100
AcDbEntity
  8
0
100
AcDbCircle
 10
5.686063
 20
4.029209
 30
0.0
 40
0.019986
100
AcDbArc
 50
319.202338
 51
343.128717
  0
ARC
  5
201
330
18
100
AcDbEntity
  8
0
100
AcDbCircle
 10
5.682169
 20
4.030390000000001
 30
0.0
 40
0.024056
100
AcDbArc
 50
343.128717
 51
3.548445
  0
ARC
  5
202
330
18
100
AcDbEntity
  8
0
100
AcDbCircle
 10
5.676928
 20
4.030065000000001
 30
0.0
 40
0.029307
100
AcDbArc
 50
3.548445
 51
22.030821
  0
ARC
  5
203
330
18
100
AcDbEntity
  8
0
100
AcDbCircle
 10
5.676928
 20
4.030065000000001
 30
0.0
 40
0.029307
100
AcDbArc
 50
22.030821
 51
40.513197
  0
ARC
  5
204
330
18
100
AcDbEntity
  8
0
100
AcDbCircle
 10
5.68092
 20
4.033476
 30
0.0
 40
0.024056
100
AcDbArc
 50
40.513197
 51
50.746549
  0
ARC
  5
205
330
18
100
AcDbEntity
  8
0
100
AcDbCircle
 10
5.691784999999999
 20
4.034281
 30
0.0
 40
0.024056
100
AcDbArc
 50
220.513197
 51
240.932925
  0
ARC
  5
206
330
18
100
AcDbEntity
  8
0
100
AcDbCircle
 10
5.689808
 20
4.030724
 30
0.0
 40
0.019986
100
AcDbArc
 50
240.932925
 51
264.859304
  0
ARC
  5
207
330
18
100
AcDbEntity
  8
0
100
AcDbCircle
 10
5.683293
 20
4.041439
 30
0.0
 40
0.015563
100
AcDbArc
 50
84.85930400000001
 51
112.030821
  0
ARC
  5
208
330
18
100
AcDbEntity
  8
0
100
AcDbCircle
 10
7.852231
 20
3.461614
 30
0.0
 40
0.007634
100
AcDbArc
 50
241.031925
 51
274.918365
  0
ARC
  5
209
330
18
100
AcDbEntity
  8
0
100
AcDbCircle
 10
7.851646000000001
 20
3.468414
 30
0.0
 40
0.014458
100
AcDbArc
 50
274.918365
 51
299.3685430000001
  0
ARC
  5
20A
330
18
100
AcDbEntity
  8
0
100
AcDbCircle
 10
7.848152000000001
 20
3.474623
 30
0.0
 40
0.021583
100
AcDbArc
 50
299.3685430000001
 51
316.701739
  0
ARC
  5
20B
330
18
100
AcDbEntity
  8
0
100
AcDbCircle
 10
7.840934
 20
3.481424
 30
0.0
 40
0.0315
100
AcDbArc
 50
316.701739
 51
331.031925
  0
ARC
  5
20C
330
18
100
AcDbEntity
  8
0
100
AcDbCircle
 10
7.840934
 20
3.481424
 30
0.0
 40
0.0315
100
AcDbArc
 50
331.031925
 51
345.362111
  0
ARC
  5
20D
330
18
100
AcDbEntity
  8
0
100
AcDbCircle
 10
7.85053
 20
3.478918
 30
0.0
 40
0.021583
100
AcDbArc
 50
345.362111
 51
2.695308
  0
ARC
  5
20E
330
18
100
AcDbEntity
  8
0
100
AcDbCircle
 10
7.857646000000001
 20
3.479253
 30
0.0
 40
0.014458
100
AcDbArc
 50
2.695308
 51
27.145486
  0
ARC
  5
20F
330
18
100
AcDbEntity
  8
0
100
AcDbCircle
 10
7.863719000000001
 20
3.482367
 30
0.0
 40
0.007634
100
AcDbArc
 50
27.145486
 51
61.031925
  0
ARC
  5
210
330
18
100
AcDbEntity
  8
0
100
AcDbCircle
 10
7.863719000000001
 20
3.482367
 30
0.0
 40
0.007634
100
AcDbArc
 50
61.031925
 51
94.91836500000001
  0
ARC
  5
211
330
18
100
AcDbEntity
  8
0
100
AcDbCircle
 10
7.864304
 20
3.475567
 30
0.0
 40
0.014458
100
AcDbArc
 50
94.91836500000001
 51
119.368543
  0
ARC
  5
212
330
18
100
AcDbEntity
  8
0
100
AcDbCircle
 10
7.867798
 20
3.469358
 30
0.0
 40
0.021583
100
AcDbArc
 50
119.368543
 51
136.701739
  0
ARC
  5
213
330
18
100
AcDbEntity
  8
0
100
AcDbCircle
 10
7.875016000000001
 20
3.462557
 30
0.0
 40
0.0315
100
AcDbArc
 50
136.701739
 51
151.031925
  0
ARC
  5
214
330
18
100
AcDbEntity
  8
0
100
AcDbCircle
 10
7.875016000000001
 20
3.462557
 30
0.0
 40
0.0315
100
AcDbArc
 50
151.031925
 51
165.362111
  0
ARC
  5
215
330
18
100
AcDbEntity
  8
0
100
AcDbCircle
 10
7.865421
 20
3.465063
 30
0.0
 40
0.021583
100
AcDbArc
 50
165.362111
 51
182.695308
  0
ARC
  5
216
330
18
100
AcDbEntity
  8
0
100
AcDbCircle
 10
7.858304
 20
3.464728
 30
0.0
 40
0.014458
100
AcDbArc
 50
182.695308
 51
207.145486
  0
ARC
  5
217
330
18
100
AcDbEntity
  8
0
100
AcDbCircle
 10
7.852231
 20
3.461614
 30
0.0
 40
0.007634
100
AcDbArc
 50
207.145486
 51
241.031925
  0
ARC
  5
218
330
18
100
AcDbEntity
  8
0
100
AcDbCircle
 10
7.852231
 20
3.539675
 30
0.0
 40
0.007634
100
AcDbArc
 50
241.031925
 51
274.918365
  0
ARC
  5
219
330
18
100
AcDbEntity
  8
0
100
AcDbCircle
 10
7.851646000000001
 20
3.546475
 30
0.0
 40
0.014458
100
AcDbArc
 50
274.918365
 51
299.3685430000001
  0
ARC
  5
21A
330
18
100
AcDbEntity
  8
0
100
AcDbCircle
 10
7.848152000000001
 20
3.552684
 30
0.0
 40
0.021583
100
AcDbArc
 50
299.3685430000001
 51
316.701739
  0
ARC
  5
21B
330
18
100
AcDbEntity
  8
0
100
AcDbCircle
 10
7.840934
 20
3.559485
 30
0.0
 40
0.0315
100
AcDbArc
 50
316.701739
 51
331.031925
  0
ARC
  5
21C
330
18
100
AcDbEntity
  8
0
100
AcDbCircle
 10
7.840934
 20
3.559485
 30
0.0
 40
0.0315
100
AcDbArc
 50
331.031925
 51
345.362111
  0
ARC
  5
21D
330
18
100
AcDbEntity
  8
0
100
AcDbCircle
 10
7.85053
 20
3.556979
 30
0.0
 40
0.021583
100
AcDbArc
 50
345.362111
 51
2.695308
  0
ARC
  5
21E
330
18
100
AcDbEntity
  8
0
100
AcDbCircle
 10
7.857646000000001
 20
3.557314
 30
0.0
 40
0.014458
100
AcDbArc
 50
2.695308
 51
27.145486
  0
ARC
  5
21F
330
18
100
AcDbEntity
  8
0
100
AcDbCircle
 10
7.863719000000001
 20
3.560428
 30
0.0
 40
0.007634
100
AcDbArc
 50
27.145486
 51
61.031925
  0
ARC
  5
220
330
18
100
AcDbEntity
  8
0
100
AcDbCircle
 10
7.863719000000001
 20
3.560428
 30
0.0
 40
0.007634
100
AcDbArc
 50
61.031925
 51
94.91836500000001
  0
ARC
  5
221
330
18
100
AcDbEntity
  8
0
100
AcDbCircle
 10
7.864304
 20
3.553628
 30
0.0
 40
0.014458
100
AcDbArc
 50
94.91836500000001
 51
119.368543
  0
ARC
  5
222
330
18
100
AcDbEntity
  8
0
100
AcDbCircle
 10
7.867798
 20
3.547419
 30
0.0
 40
0.021583
100
AcDbArc
 50
119.368543
 51
136.701739
  0
ARC
  5
223
330
18
100
AcDbEntity
  8
0
100
AcDbCircle
 10
7.875016000000001
 20
3.540618
 30
0.0
 40
0.0315
100
AcDbArc
 50
136.701739
 51
151.031925
  0
ARC
  5
224
330
18
100
AcDbEntity
  8
0
100
AcDbCircle
 10
7.875016000000001
 20
3.540618
 30
0.0
 40
0.0315
100
AcDbArc
 50
151.031925
 51
165.362111
  0
ARC
  5
225
330
18
100
AcDbEntity
  8
0
100
AcDbCircle
 10
7.865421
 20
3.543124
 30
0.0
 40
0.021583
100
AcDbArc
 50
165.362111
 51
182.695308
  0
ARC
  5
226
330
18
100
AcDbEntity
  8
0
100
AcDbCircle
 10
7.858304
 20
3.542789
 30
0.0
 40
0.014458
100
AcDbArc
 50
182.695308
 51
207.145486
  0
ARC
  5
227
330
18
100
AcDbEntity
  8
0
100
AcDbCircle
 10
7.852231
 20
3.539675
 30
0.0
 40
0.007634
100
AcDbArc
 50
207.145486
 51
241.031925
  0
ARC
  5
228
330
18
100
AcDbEntity
  8
0
100
AcDbCircle
 10
7.852231
 20
3.614777
 30
0.0
 40
0.007634
100
AcDbArc
 50
241.031925
 51
274.918365
  0
ARC
  5
229
330
18
100
AcDbEntity
  8
0
100
AcDbCircle
 10
7.851646000000001
 20
3.621577
 30
0.0
 40
0.014458
100
AcDbArc
 50
274.918365
 51
299.3685430000001
  0
ARC
  5
22A
330
18
100
AcDbEntity
  8
0
100
AcDbCircle
 10
7.848152000000001
 20
3.627785
 30
0.0
 40
0.021583
100
AcDbArc
 50
299.3685430000001
 51
316.701739
  0
ARC
  5
22B
330
18
100
AcDbEntity
  8
0
100
AcDbCircle
 10
7.840934
 20
3.634587
 30
0.0
 40
0.0315
100
AcDbArc
 50
316.701739
 51
331.031925
  0
ARC
  5
22C
330
18
100
AcDbEntity
  8
0
100
AcDbCircle
 10
7.840934
 20
3.634587
 30
0.0
 40
0.0315
100
AcDbArc
 50
331.031925
 51
345.362111
  0
ARC
  5
22D
330
18
100
AcDbEntity
  8
0
100
AcDbCircle
 10
7.85053
 20
3.632081
 30
0.0
 40
0.021583
100
AcDbArc
 50
345.362111
 51
2.695308
  0
ARC
  5
22E
330
18
100
AcDbEntity
  8
0
100
AcDbCircle
 10
7.857646000000001
 20
3.632416000000001
 30
0.0
 40
0.014458
100
AcDbArc
 50
2.695308
 51
27.145486
  0
ARC
  5
22F
330
18
100
AcDbEntity
  8
0
100
AcDbCircle
 10
7.863719000000001
 20
3.635529
 30
0.0
 40
0.007634
100
AcDbArc
 50
27.145486
 51
61.031925
  0
ARC
  5
230
330
18
100
AcDbEntity
  8
0
100
AcDbCircle
 10
7.863719000000001
 20
3.635529
 30
0.0
 40
0.007634
100
AcDbArc
 50
61.031925
 51
94.91836500000001
  0
ARC
  5
231
330
18
100
AcDbEntity
  8
0
100
AcDbCircle
 10
7.864304
 20
3.628730000000001
 30
0.0
 40
0.014458
100
AcDbArc
 50
94.91836500000001
 51
119.368543
  0
ARC
  5
232
330
18
100
AcDbEntity
  8
0
100
AcDbCircle
 10
7.867798
 20
3.622521
 30
0.0
 40
0.021583
100
AcDbArc
 50
119.368543
 51
136.701739
  0
ARC
  5
233
330
18
100
AcDbEntity
  8
0
100
AcDbCircle
 10
7.875016000000001
 20
3.61572
 30
0.0
 40
0.0315
100
AcDbArc
 50
136.701739
 51
151.031925
  0
ARC
  5
234
330
18
100
AcDbEntity
  8
0
100
AcDbCircle
 10
7.875016000000001
 20
3.61572
 30
0.0
 40
0.0315
100
AcDbArc
 50
151.031925
 51
165.362111
  0
ARC
  5
235
330
18
100
AcDbEntity
  8
0
100
AcDbCircle
 10
7.865421
 20
3.618226
 30
0.0
 40
0.021583
100
AcDbArc
 50
165.362111
 51
182.695308
  0
ARC
  5
236
330
18
100
AcDbEntity
  8
0
100
AcDbCircle
 10
7.858304
 20
3.617891
 30
0.0
 40
0.014458
100
AcDbArc
 50
182.695308
 51
207.145486
  0
ARC
  5
237
330
18
100
AcDbEntity
  8
0
100
AcDbCircle
 10
7.852231
 20
3.614777
 30
0.0
 40
0.007634
100
AcDbArc
 50
207.145486
 51
241.031925
  0
ARC
  5
238
330
18
100
AcDbEntity
  8
0
100
AcDbCircle
 10
7.852231
 20
3.687821
 30
0.0
 40
0.007634
100
AcDbArc
 50
241.031925
 51
274.918365
  0
ARC
  5
239
330
18
100
AcDbEntity
  8
0
100
AcDbCircle
 10
7.851646000000001
 20
3.69462
 30
0.0
 40
0.014458
100
AcDbArc
 50
274.918365
 51
299.3685430000001
  0
ARC
  5
23A
330
18
100
AcDbEntity
  8
0
100
AcDbCircle
 10
7.848152000000001
 20
3.700829
 30
0.0
 40
0.021583
100
AcDbArc
 50
299.3685430000001
 51
316.701739
  0
ARC
  5
23B
330
18
100
AcDbEntity
  8
0
100
AcDbCircle
 10
7.840934
 20
3.707631
 30
0.0
 40
0.0315
100
AcDbArc
 50
316.701739
 51
331.031925
  0
ARC
  5
23C
330
18
100
AcDbEntity
  8
0
100
AcDbCircle
 10
7.840934
 20
3.707631
 30
0.0
 40
0.0315
100
AcDbArc
 50
331.031925
 51
345.362111
  0
ARC
  5
23D
330
18
100
AcDbEntity
  8
0
100
AcDbCircle
 10
7.85053
 20
3.705124
 30
0.0
 40
0.021583
100
AcDbArc
 50
345.362111
 51
2.695308
  0
ARC
  5
23E
330
18
100
AcDbEntity
  8
0
100
AcDbCircle
 10
7.857646000000001
 20
3.705459
 30
0.0
 40
0.014458
100
AcDbArc
 50
2.695308
 51
27.145486
  0
ARC
  5
23F
330
18
100
AcDbEntity
  8
0
100
AcDbCircle
 10
7.863719000000001
 20
3.708573
 30
0.0
 40
0.007634
100
AcDbArc
 50
27.145486
 51
61.031925
  0
ARC
  5
240
330
18
100
AcDbEntity
  8
0
100
AcDbCircle
 10
7.863719000000001
 20
3.708573
 30
0.0
 40
0.007634
100
AcDbArc
 50
61.031925
 51
94.91836500000001
  0
ARC
  5
241
330
18
100
AcDbEntity
  8
0
100
AcDbCircle
 10
7.864304
 20
3.701774
 30
0.0
 40
0.014458
100
AcDbArc
 50
94.91836500000001
 51
119.368543
  0
ARC
  5
242
330
18
100
AcDbEntity
  8
0
100
AcDbCircle
 10
7.867798
 20
3.695565
 30
0.0
 40
0.021583
100
AcDbArc
 50
119.368543
 51
136.701739
  0
ARC
  5
243
330
18
100
AcDbEntity
  8
0
100
AcDbCircle
 10
7.875016000000001
 20
3.688763
 30
0.0
 40
0.0315
100
AcDbArc
 50
136.701739
 51
151.031925
  0
ARC
  5
244
330
18
100
AcDbEntity
  8
0
100
AcDbCircle
 10
7.875016000000001
 20
3.688763
 30
0.0
 40
0.0315
100
AcDbArc
 50
151.031925
 51
165.362111
  0
ARC
  5
245
330
18
100
AcDbEntity
  8
0
100
AcDbCircle
 10
7.865421
 20
3.69127
 30
0.0
 40
0.021583
100
AcDbArc
 50
165.362111
 51
182.695308
  0
ARC
  5
246
330
18
100
AcDbEntity
  8
0
100
AcDbCircle
 10
7.858304
 20
3.690935
 30
0.0
 40
0.014458
100
AcDbArc
 50
182.695308
 51
207.145486
  0
ARC
  5
247
330
18
100
AcDbEntity
  8
0
100
AcDbCircle
 10
7.852231
 20
3.687821
 30
0.0
 40
0.007634
100
AcDbArc
 50
207.145486
 51
241.031925
  0
ARC
  5
248
330
18
100
AcDbEntity
  8
0
100
AcDbCircle
 10
8.009288
 20
3.343524
 30
0.0
 40
0.015738
100
AcDbArc
 50
117.875387
 51
144.919477
  0
ARC
  5
249
330
18
100
AcDbEntity
  8
0
100
AcDbCircle
 10
8.012832000000001
 20
3.341035
 30
0.0
 40
0.020069
100
AcDbArc
 50
144.919477
 51
168.81966
  0
ARC
  5
24A
330
18
100
AcDbEntity
  8
0
100
AcDbCircle
 10
8.016731
 20
3.340265
 30
0.0
 40
0.024043
100
AcDbArc
 50
168.81966
 51
189.298348
  0
ARC
  5
24B
330
18
100
AcDbEntity
  8
0
100
AcDbCircle
 10
8.021783000000001
 20
3.341092
 30
0.0
 40
0.029162
100
AcDbArc
 50
189.298348
 51
207.875387
  0
ARC
  5
24C
330
18
100
AcDbEntity
  8
0
100
AcDbCircle
 10
8.021783000000001
 20
3.341092
 30
0.0
 40
0.029162
100
AcDbArc
 50
207.875387
 51
226.452425
  0
ARC
  5
24D
330
18
100
AcDbEntity
  8
0
  6
Continuous
100
AcDbCircle
 10
8.018255999999999
 20
3.337382
 30
0.0
 40
0.024043
100
AcDbArc
 50
226.452425
 51
246.931113
  0
ARC
  5
24E
330
18
100
AcDbEntity
  8
0
100
AcDbCircle
 10
8.016699000000001
 20
3.333725
 30
0.0
 40
0.020069
100
AcDbArc
 50
246.931113
 51
270.831296
  0
ARC
  5
24F
330
18
100
AcDbEntity
  8
0
100
AcDbCircle
 10
8.016762
 20
3.329395
 30
0.0
 40
0.015738
100
AcDbArc
 50
270.831296
 51
297.875387
  0
ARC
  5
250
330
18
100
AcDbEntity
  8
0
100
AcDbCircle
 10
8.016762
 20
3.329395
 30
0.0
 40
0.015738
100
AcDbArc
 50
297.875387
 51
324.919477
  0
ARC
  5
251
330
18
100
AcDbEntity
  8
0
100
AcDbCircle
 10
8.013218
 20
3.331884
 30
0.0
 40
0.020069
100
AcDbArc
 50
324.919477
 51
348.81966
  0
ARC
  5
252
330
18
100
AcDbEntity
  8
0
100
AcDbCircle
 10
8.009319
 20
3.332655
 30
0.0
 40
0.024043
100
AcDbArc
 50
348.81966
 51
9.298347999999999
  0
ARC
  5
253
330
18
100
AcDbEntity
  8
0
100
AcDbCircle
 10
8.004267000000001
 20
3.331827
 30
0.0
 40
0.029162
100
AcDbArc
 50
9.298347999999999
 51
27.875387
  0
ARC
  5
254
330
18
100
AcDbEntity
  8
0
100
AcDbCircle
 10
8.004267000000001
 20
3.331827
 30
0.0
 40
0.029162
100
AcDbArc
 50
27.875387
 51
46.452425
  0
ARC
  5
255
330
18
100
AcDbEntity
  8
0
100
AcDbCircle
 10
8.007794000000001
 20
3.335538
 30
0.0
 40
0.024043
100
AcDbArc
 50
46.452425
 51
66.931113
  0
ARC
  5
256
330
18
100
AcDbEntity
  8
0
100
AcDbCircle
 10
8.009350999999999
 20
3.339194
 30
0.0
 40
0.020069
100
AcDbArc
 50
66.931113
 51
90.831296
  0
ARC
  5
257
330
18
100
AcDbEntity
  8
0
100
AcDbCircle
 10
8.009288
 20
3.343524
 30
0.0
 40
0.015738
100
AcDbArc
 50
90.831296
 51
117.875387
  0
ARC
  5
258
330
18
100
AcDbEntity
  8
0
100
AcDbCircle
 10
7.930034
 20
3.387251
 30
0.0
 40
0.015738
100
AcDbArc
 50
117.875387
 51
144.919477
  0
ARC
  5
259
330
18
100
AcDbEntity
  8
0
100
AcDbCircle
 10
7.933578
 20
3.384762
 30
0.0
 40
0.020069
100
AcDbArc
 50
144.919477
 51
168.81966
  0
ARC
  5
25A
330
18
100
AcDbEntity
  8
0
100
AcDbCircle
 10
7.937477
 20
3.383992
 30
0.0
 40
0.024043
100
AcDbArc
 50
168.81966
 51
189.298348
  0
ARC
  5
25B
330
18
100
AcDbEntity
  8
0
100
AcDbCircle
 10
7.942529
 20
3.384819
 30
0.0
 40
0.029162
100
AcDbArc
 50
189.298348
 51
207.875387
  0
ARC
  5
25C
330
18
100
AcDbEntity
  8
0
100
AcDbCircle
 10
7.942529
 20
3.384819
 30
0.0
 40
0.029162
100
AcDbArc
 50
207.875387
 51
226.452425
  0
ARC
  5
25D
330
18
100
AcDbEntity
  8
0
100
AcDbCircle
 10
7.939002
 20
3.381108
 30
0.0
 40
0.024043
100
AcDbArc
 50
226.452425
 51
246.931113
  0
ARC
  5
25E
330
18
100
AcDbEntity
  8
0
100
AcDbCircle
 10
7.937444999999999
 20
3.377452
 30
0.0
 40
0.020069
100
AcDbArc
 50
246.931113
 51
270.831296
  0
ARC
  5
25F
330
18
100
AcDbEntity
  8
0
100
AcDbCircle
 10
7.937508
 20
3.373122
 30
0.0
 40
0.015738
100
AcDbArc
 50
270.831296
 51
297.875387
  0
ARC
  5
260
330
18
100
AcDbEntity
  8
0
100
AcDbCircle
 10
7.937508
 20
3.373122
 30
0.0
 40
0.015738
100
AcDbArc
 50
297.875387
 51
324.919477
  0
ARC
  5
261
330
18
100
AcDbEntity
  8
0
  6
Continuous
100
AcDbCircle
 10
7.933964
 20
3.375611
 30
0.0
 40
0.020069
100
AcDbArc
 50
324.919477
 51
348.81966
  0
ARC
  5
262
330
18
100
AcDbEntity
  8
0
100
AcDbCircle
 10
7.930064999999999
 20
3.376381
 30
0.0
 40
0.024043
100
AcDbArc
 50
348.81966
 51
9.298347999999999
  0
ARC
  5
263
330
18
100
AcDbEntity
  8
0
100
AcDbCircle
 10
7.925013000000001
 20
3.375554
 30
0.0
 40
0.029162
100
AcDbArc
 50
9.298347999999999
 51
27.875387
  0
ARC
  5
264
330
18
100
AcDbEntity
  8
0
100
AcDbCircle
 10
7.925013000000001
 20
3.375554
 30
0.0
 40
0.029162
100
AcDbArc
 50
27.875387
 51
46.452425
  0
ARC
  5
265
330
18
100
AcDbEntity
  8
0
100
AcDbCircle
 10
7.928539999999999
 20
3.379264
 30
0.0
 40
0.024043
100
AcDbArc
 50
46.452425
 51
66.931113
  0
ARC
  5
266
330
18
100
AcDbEntity
  8
0
100
AcDbCircle
 10
7.930097
 20
3.382921
 30
0.0
 40
0.020069
100
AcDbArc
 50
66.931113
 51
90.831296
  0
ARC
  5
267
330
18
100
AcDbEntity
  8
0
100
AcDbCircle
 10
7.930034
 20
3.387251
 30
0.0
 40
0.015738
100
AcDbArc
 50
90.831296
 51
117.875387
  0
ARC
  5
268
330
18
100
AcDbEntity
  8
0
100
AcDbCircle
 10
7.951532
 20
3.268218
 30
0.0
 40
0.015738
100
AcDbArc
 50
117.875387
 51
144.919477
  0
ARC
  5
269
330
18
100
AcDbEntity
  8
0
100
AcDbCircle
 10
7.955075999999999
 20
3.265729
 30
0.0
 40
0.020069
100
AcDbArc
 50
144.919477
 51
168.81966
  0
ARC
  5
26A
330
18
100
AcDbEntity
  8
0
100
AcDbCircle
 10
7.958975
 20
3.264959
 30
0.0
 40
0.024043
100
AcDbArc
 50
168.81966
 51
189.298348
  0
ARC
  5
26B
330
18
100
AcDbEntity
  8
0
100
AcDbCircle
 10
7.964026
 20
3.265786
 30
0.0
 40
0.029162
100
AcDbArc
 50
189.298348
 51
207.875387
  0
ARC
  5
26C
330
18
100
AcDbEntity
  8
0
100
AcDbCircle
 10
7.964026
 20
3.265786
 30
0.0
 40
0.029162
100
AcDbArc
 50
207.875387
 51
226.452425
  0
ARC
  5
26D
330
18
100
AcDbEntity
  8
0
100
AcDbCircle
 10
7.9605
 20
3.262075
 30
0.0
 40
0.024043
100
AcDbArc
 50
226.452425
 51
246.931113
  0
ARC
  5
26E
330
18
100
AcDbEntity
  8
0
100
AcDbCircle
 10
7.958942
 20
3.258419
 30
0.0
 40
0.020069
100
AcDbArc
 50
246.931113
 51
270.831296
  0
ARC
  5
26F
330
18
100
AcDbEntity
  8
0
100
AcDbCircle
 10
7.959005
 20
3.254089
 30
0.0
 40
0.015738
100
AcDbArc
 50
270.831296
 51
297.875387
  0
ARC
  5
270
330
18
100
AcDbEntity
  8
0
100
AcDbCircle
 10
7.959005
 20
3.254089
 30
0.0
 40
0.015738
100
AcDbArc
 50
297.875387
 51
324.919477
  0
ARC
  5
271
330
18
100
AcDbEntity
  8
0
100
AcDbCircle
 10
7.955461
 20
3.256578
 30
0.0
 40
0.020069
100
AcDbArc
 50
324.919477
 51
348.81966
  0
ARC
  5
272
330
18
100
AcDbEntity
  8
0
100
AcDbCircle
 10
7.951561999999999
 20
3.257348
 30
0.0
 40
0.024043
100
AcDbArc
 50
348.81966
 51
9.298347999999999
  0
ARC
  5
273
330
18
100
AcDbEntity
  8
0
  6
Continuous
100
AcDbCircle
 10
7.946511
 20
3.256521
 30
0.0
 40
0.029162
100
AcDbArc
 50
9.298347999999999
 51
27.875387
  0
ARC
  5
274
330
18
100
AcDbEntity
  8
0
100
AcDbCircle
 10
7.946511
 20
3.256521
 30
0.0
 40
0.029162
100
AcDbArc
 50
27.875387
 51
46.452425
  0
ARC
  5
275
330
18
100
AcDbEntity
  8
0
100
AcDbCircle
 10
7.950036999999999
 20
3.260231
 30
0.0
 40
0.024043
100
AcDbArc
 50
46.452425
 51
66.931113
  0
ARC
  5
276
330
18
100
AcDbEntity
  8
0
100
AcDbCircle
 10
7.951594999999999
 20
3.263888
 30
0.0
 40
0.020069
100
AcDbArc
 50
66.931113
 51
90.831296
  0
ARC
  5
277
330
18
100
AcDbEntity
  8
0
100
AcDbCircle
 10
7.951532
 20
3.268218
 30
0.0
 40
0.015738
100
AcDbArc
 50
90.831296
 51
117.875387
  0
ARC
  5
278
330
18
100
AcDbEntity
  8
0
100
AcDbCircle
 10
6.105304
 20
4.464188
 30
0.0
 40
0.004863
100
AcDbArc
 50
112.030821
 51
139.202338
  0
ARC
  5
279
330
18
100
AcDbEntity
  8
0
100
AcDbCircle
 10
6.10635
 20
4.463285
 30
0.0
 40
0.006246
100
AcDbArc
 50
139.202338
 51
163.128717
  0
ARC
  5
27A
330
18
100
AcDbEntity
  8
0
100
AcDbCircle
 10
6.107567
 20
4.462916000000001
 30
0.0
 40
0.007517
100
AcDbArc
 50
163.128717
 51
183.548445
  0
ARC
  5
27B
330
18
100
AcDbEntity
  8
0
100
AcDbCircle
 10
6.109205
 20
4.463017
 30
0.0
 40
0.009158
100
AcDbArc
 50
183.548445
 51
202.030821
  0
ARC
  5
27C
330
18
100
AcDbEntity
  8
0
100
AcDbCircle
 10
6.109205
 20
4.463017
 30
0.0
 40
0.009158
100
AcDbArc
 50
202.030821
 51
220.513197
  0
ARC
  5
27D
330
18
100
AcDbEntity
  8
0
100
AcDbCircle
 10
6.107957
 20
4.461951
 30
0.0
 40
0.007517
100
AcDbArc
 50
220.513197
 51
240.932925
  0
ARC
  5
27E
330
18
100
AcDbEntity
  8
0
100
AcDbCircle
 10
6.10734
 20
4.46084
 30
0.0
 40
0.006246
100
AcDbArc
 50
240.932925
 51
264.859304
  0
ARC
  5
27F
330
18
100
AcDbEntity
  8
0
100
AcDbCircle
 10
6.107216
 20
4.459463
 30
0.0
 40
0.004863
100
AcDbArc
 50
264.859304
 51
292.030821
  0
ARC
  5
280
330
18
100
AcDbEntity
  8
0
100
AcDbCircle
 10
6.107216
 20
4.459463
 30
0.0
 40
0.004863
100
AcDbArc
 50
292.030821
 51
319.202338
  0
ARC
  5
281
330
18
100
AcDbEntity
  8
0
100
AcDbCircle
 10
6.106169
 20
4.460366000000001
 30
0.0
 40
0.006246
100
AcDbArc
 50
319.202338
 51
343.128717
  0
ARC
  5
282
330
18
100
AcDbEntity
  8
0
100
AcDbCircle
 10
6.104952
 20
4.460735
 30
0.0
 40
0.007517
100
AcDbArc
 50
343.128717
 51
3.548445
  0
ARC
  5
283
330
18
100
AcDbEntity
  8
0
100
AcDbCircle
 10
6.103315
 20
4.460634
 30
0.0
 40
0.009158
100
AcDbArc
 50
3.548445
 51
22.030821
  0
ARC
  5
284
330
18
100
AcDbEntity
  8
0
100
AcDbCircle
 10
6.103315
 20
4.460634
 30
0.0
 40
0.009158
100
AcDbArc
 50
22.030821
 51
40.513197
  0
ARC
  5
285
330
18
100
AcDbEntity
  8
0
100
AcDbCircle
 10
6.104562000000001
 20
4.4617
 30
0.0
 40
0.007517
100
AcDbArc
 50
40.513197
 51
60.932925
  0
ARC
  5
286
330
18
100
AcDbEntity
  8
0
100
AcDbCircle
 10
6.105180000000001
 20
4.462811
 30
0.0
 40
0.006246
100
AcDbArc
 50
60.932925
 51
84.85930400000001
  0
ARC
  5
287
330
18
100
AcDbEntity
  8
0
100
AcDbCircle
 10
6.105304
 20
4.464188
 30
0.0
 40
0.004863
100
AcDbArc
 50
84.85930400000001
 51
112.030821
  0
ARC
  5
288
330
18
100
AcDbEntity
  8
0
100
AcDbCircle
 10
6.015604
 20
4.366732
 30
0.0
 40
0.004863
100
AcDbArc
 50
112.030821
 51
139.202338
  0
ARC
  5
289
330
18
100
AcDbEntity
  8
0
100
AcDbCircle
 10
6.01665
 20
4.365828
 30
0.0
 40
0.006246
100
AcDbArc
 50
139.202338
 51
163.128717
  0
ARC
  5
28A
330
18
100
AcDbEntity
  8
0
100
AcDbCircle
 10
6.017867
 20
4.365459
 30
0.0
 40
0.007517
100
AcDbArc
 50
163.128717
 51
183.548445
  0
ARC
  5
28B
330
18
100
AcDbEntity
  8
0
100
AcDbCircle
 10
6.019505000000001
 20
4.365561000000001
 30
0.0
 40
0.009158
100
AcDbArc
 50
183.548445
 51
202.030821
  0
ARC
  5
28C
330
18
100
AcDbEntity
  8
0
100
AcDbCircle
 10
6.019505000000001
 20
4.365561000000001
 30
0.0
 40
0.009158
100
AcDbArc
 50
202.030821
 51
220.513197
  0
ARC
  5
28D
330
18
100
AcDbEntity
  8
0
100
AcDbCircle
 10
6.018257
 20
4.364495
 30
0.0
 40
0.007517
100
AcDbArc
 50
220.513197
 51
240.932925
  0
ARC
  5
28E
330
18
100
AcDbEntity
  8
0
100
AcDbCircle
 10
6.01764
 20
4.363383
 30
0.0
 40
0.006246
100
AcDbArc
 50
240.932925
 51
264.859304
  0
ARC
  5
28F
330
18
100
AcDbEntity
  8
0
100
AcDbCircle
 10
6.017516000000001
 20
4.362007
 30
0.0
 40
0.004863
100
AcDbArc
 50
264.859304
 51
292.030821
  0
ARC
  5
290
330
18
100
AcDbEntity
  8
0
100
AcDbCircle
 10
6.017516000000001
 20
4.362007
 30
0.0
 40
0.004863
100
AcDbArc
 50
292.030821
 51
319.202338
  0
ARC
  5
291
330
18
100
AcDbEntity
  8
0
100
AcDbCircle
 10
6.016469
 20
4.36291
 30
0.0
 40
0.006246
100
AcDbArc
 50
319.202338
 51
343.128717
  0
ARC
  5
292
330
18
100
AcDbEntity
  8
0
100
AcDbCircle
 10
6.015251999999999
 20
4.363279
 30
0.0
 40
0.007517
100
AcDbArc
 50
343.128717
 51
3.548445
  0
ARC
  5
293
330
18
100
AcDbEntity
  8
0
100
AcDbCircle
 10
6.013615
 20
4.363176999999999
 30
0.0
 40
0.009158
100
AcDbArc
 50
3.548445
 51
22.030821
  0
ARC
  5
294
330
18
100
AcDbEntity
  8
0
100
AcDbCircle
 10
6.013615
 20
4.363176999999999
 30
0.0
 40
0.009158
100
AcDbArc
 50
22.030821
 51
40.513197
  0
ARC
  5
295
330
18
100
AcDbEntity
  8
0
100
AcDbCircle
 10
6.014862
 20
4.364243
 30
0.0
 40
0.007517
100
AcDbArc
 50
40.513197
 51
60.932925
  0
ARC
  5
296
330
18
100
AcDbEntity
  8
0
100
AcDbCircle
 10
6.01548
 20
4.365355
 30
0.0
 40
0.006246
100
AcDbArc
 50
60.932925
 51
84.85930400000001
  0
ARC
  5
297
330
18
100
AcDbEntity
  8
0
100
AcDbCircle
 10
6.015604
 20
4.366732
 30
0.0
 40
0.004863
100
AcDbArc
 50
84.85930400000001
 51
112.030821
  0
ARC
  5
298
330
18
100
AcDbEntity
  8
0
100
AcDbCircle
 10
6.095367
 20
4.195880000000001
 30
0.0
 40
0.004863
100
AcDbArc
 50
112.030821
 51
139.202338
  0
ARC
  5
299
330
18
100
AcDbEntity
  8
0
100
AcDbCircle
 10
6.096413
 20
4.194977
 30
0.0
 40
0.006246
100
AcDbArc
 50
139.202338
 51
163.128717
  0
ARC
  5
29A
330
18
100
AcDbEntity
  8
0
100
AcDbCircle
 10
6.097630000000001
 20
4.194608000000001
 30
0.0
 40
0.007517
100
AcDbArc
 50
163.128717
 51
183.548445
  0
ARC
  5
29B
330
18
100
AcDbEntity
  8
0
100
AcDbCircle
 10
6.099268
 20
4.194709
 30
0.0
 40
0.009158
100
AcDbArc
 50
183.548445
 51
202.030821
  0
ARC
  5
29C
330
18
100
AcDbEntity
  8
0
100
AcDbCircle
 10
6.099268
 20
4.194709
 30
0.0
 40
0.009158
100
AcDbArc
 50
202.030821
 51
220.513197
  0
ARC
  5
29D
330
18
100
AcDbEntity
  8
0
100
AcDbCircle
 10
6.098021
 20
4.193643
 30
0.0
 40
0.007517
100
AcDbArc
 50
220.513197
 51
240.932925
  0
ARC
  5
29E
330
18
100
AcDbEntity
  8
0
100
AcDbCircle
 10
6.097403
 20
4.192532
 30
0.0
 40
0.006246
100
AcDbArc
 50
240.932925
 51
264.859304
  0
ARC
  5
29F
330
18
100
AcDbEntity
  8
0
100
AcDbCircle
 10
6.097279
 20
4.191155
 30
0.0
 40
0.004863
100
AcDbArc
 50
264.859304
 51
292.030821
  0
ARC
  5
2A0
330
18
100
AcDbEntity
  8
0
100
AcDbCircle
 10
6.097279
 20
4.191155
 30
0.0
 40
0.004863
100
AcDbArc
 50
292.030821
 51
319.202338
  0
ARC
  5
2A1
330
18
100
AcDbEntity
  8
0
100
AcDbCircle
 10
6.096233
 20
4.192058
 30
0.0
 40
0.006246
100
AcDbArc
 50
319.202338
 51
343.128717
  0
ARC
  5
2A2
330
18
100
AcDbEntity
  8
0
100
AcDbCircle
 10
6.095016
 20
4.192427
 30
0.0
 40
0.007517
100
AcDbArc
 50
343.128717
 51
3.548445
  0
ARC
  5
2A3
330
18
100
AcDbEntity
  8
0
100
AcDbCircle
 10
6.093378
 20
4.192326
 30
0.0
 40
0.009158
100
AcDbArc
 50
3.548445
 51
22.030821
  0
ARC
  5
2A4
330
18
100
AcDbEntity
  8
0
100
AcDbCircle
 10
6.093378
 20
4.192326
 30
0.0
 40
0.009158
100
AcDbArc
 50
22.030821
 51
40.513197
  0
ARC
  5
2A5
330
18
100
AcDbEntity
  8
0
100
AcDbCircle
 10
6.094625
 20
4.193392
 30
0.0
 40
0.007517
100
AcDbArc
 50
40.513197
 51
60.932925
  0
ARC
  5
2A6
330
18
100
AcDbEntity
  8
0
100
AcDbCircle
 10
6.095243
 20
4.194503
 30
0.0
 40
0.006246
100
AcDbArc
 50
60.932925
 51
84.85930400000001
  0
ARC
  5
2A7
330
18
100
AcDbEntity
  8
0
100
AcDbCircle
 10
6.095367
 20
4.195880000000001
 30
0.0
 40
0.004863
100
AcDbArc
 50
84.85930400000001
 51
112.030821
  0
ARC
  5
2A8
330
18
100
AcDbEntity
  8
0
100
AcDbCircle
 10
6.029635
 20
4.112533999999999
 30
0.0
 40
0.004863
100
AcDbArc
 50
112.030821
 51
139.202338
  0
ARC
  5
2A9
330
18
100
AcDbEntity
  8
0
100
AcDbCircle
 10
6.030681
 20
4.11163
 30
0.0
 40
0.006246
100
AcDbArc
 50
139.202338
 51
163.128717
  0
ARC
  5
2AA
330
18
100
AcDbEntity
  8
0
100
AcDbCircle
 10
6.031898
 20
4.111261
 30
0.0
 40
0.007517
100
AcDbArc
 50
163.128717
 51
183.548445
  0
ARC
  5
2AB
330
18
100
AcDbEntity
  8
0
100
AcDbCircle
 10
6.033536
 20
4.111363
 30
0.0
 40
0.009158
100
AcDbArc
 50
183.548445
 51
202.030821
  0
ARC
  5
2AC
330
18
100
AcDbEntity
  8
0
100
AcDbCircle
 10
6.033536
 20
4.111363
 30
0.0
 40
0.009158
100
AcDbArc
 50
202.030821
 51
220.513197
  0
ARC
  5
2AD
330
18
100
AcDbEntity
  8
0
100
AcDbCircle
 10
6.032287999999999
 20
4.110297
 30
0.0
 40
0.007517
100
AcDbArc
 50
220.513197
 51
240.932925
  0
ARC
  5
2AE
330
18
100
AcDbEntity
  8
0
100
AcDbCircle
 10
6.031671
 20
4.109185
 30
0.0
 40
0.006246
100
AcDbArc
 50
240.932925
 51
264.859304
  0
ARC
  5
2AF
330
18
100
AcDbEntity
  8
0
100
AcDbCircle
 10
6.031547
 20
4.107809
 30
0.0
 40
0.004863
100
AcDbArc
 50
264.859304
 51
292.030821
  0
ARC
  5
2B0
330
18
100
AcDbEntity
  8
0
100
AcDbCircle
 10
6.031547
 20
4.107809
 30
0.0
 40
0.004863
100
AcDbArc
 50
292.030821
 51
319.202338
  0
ARC
  5
2B1
330
18
100
AcDbEntity
  8
0
100
AcDbCircle
 10
6.0305
 20
4.108712000000001
 30
0.0
 40
0.006246
100
AcDbArc
 50
319.202338
 51
343.128717
  0
ARC
  5
2B2
330
18
100
AcDbEntity
  8
0
100
AcDbCircle
 10
6.029283
 20
4.109081
 30
0.0
 40
0.007517
100
AcDbArc
 50
343.128717
 51
3.548445
  0
ARC
  5
2B3
330
18
100
AcDbEntity
  8
0
100
AcDbCircle
 10
6.027645
 20
4.108979
 30
0.0
 40
0.009158
100
AcDbArc
 50
3.548445
 51
22.030821
  0
ARC
  5
2B4
330
18
100
AcDbEntity
  8
0
100
AcDbCircle
 10
6.027645
 20
4.108979
 30
0.0
 40
0.009158
100
AcDbArc
 50
22.030821
 51
40.513197
  0
ARC
  5
2B5
330
18
100
AcDbEntity
  8
0
100
AcDbCircle
 10
6.028893
 20
4.110045
 30
0.0
 40
0.007517
100
AcDbArc
 50
40.513197
 51
60.932925
  0
ARC
  5
2B6
330
18
100
AcDbEntity
  8
0
100
AcDbCircle
 10
6.029511
 20
4.111157
 30
0.0
 40
0.006246
100
AcDbArc
 50
60.932925
 51
84.85930400000001
  0
ARC
  5
2B7
330
18
100
AcDbEntity
  8
0
100
AcDbCircle
 10
6.029635
 20
4.112533999999999
 30
0.0
 40
0.004863
100
AcDbArc
 50
84.85930400000001
 51
112.030821
  0
ARC
  5
2B8
330
18
100
AcDbEntity
  8
0
100
AcDbCircle
 10
6.100209
 20
3.98669
 30
0.0
 40
0.004863
100
AcDbArc
 50
112.030821
 51
139.202338
  0
ARC
  5
2B9
330
18
100
AcDbEntity
  8
0
100
AcDbCircle
 10
6.101255
 20
3.985787
 30
0.0
 40
0.006246
100
AcDbArc
 50
139.202338
 51
163.128717
  0
ARC
  5
2BA
330
18
100
AcDbEntity
  8
0
100
AcDbCircle
 10
6.102472
 20
3.985418
 30
0.0
 40
0.007517
100
AcDbArc
 50
163.128717
 51
183.548445
  0
ARC
  5
2BB
330
18
100
AcDbEntity
  8
0
100
AcDbCircle
 10
6.10411
 20
3.985519
 30
0.0
 40
0.009158
100
AcDbArc
 50
183.548445
 51
202.030821
  0
ARC
  5
2BC
330
18
100
AcDbEntity
  8
0
100
AcDbCircle
 10
6.10411
 20
3.985519
 30
0.0
 40
0.009158
100
AcDbArc
 50
202.030821
 51
220.513197
  0
ARC
  5
2BD
330
18
100
AcDbEntity
  8
0
100
AcDbCircle
 10
6.102862
 20
3.984453
 30
0.0
 40
0.007517
100
AcDbArc
 50
220.513197
 51
240.932925
  0
ARC
  5
2BE
330
18
100
AcDbEntity
  8
0
100
AcDbCircle
 10
6.102244000000001
 20
3.983342
 30
0.0
 40
0.006246
100
AcDbArc
 50
240.932925
 51
264.859304
  0
ARC
  5
2BF
330
18
100
AcDbEntity
  8
0
100
AcDbCircle
 10
6.102121
 20
3.981965
 30
0.0
 40
0.004863
100
AcDbArc
 50
264.859304
 51
292.030821
  0
ARC
  5
2C0
330
18
100
AcDbEntity
  8
0
100
AcDbCircle
 10
6.102121
 20
3.981965
 30
0.0
 40
0.004863
100
AcDbArc
 50
292.030821
 51
319.202338
  0
ARC
  5
2C1
330
18
100
AcDbEntity
  8
0
100
AcDbCircle
 10
6.101074
 20
3.982868
 30
0.0
 40
0.006246
100
AcDbArc
 50
319.202338
 51
343.128717
  0
ARC
  5
2C2
330
18
100
AcDbEntity
  8
0
100
AcDbCircle
 10
6.099857
 20
3.983237
 30
0.0
 40
0.007517
100
AcDbArc
 50
343.128717
 51
3.548445
  0
ARC
  5
2C3
330
18
100
AcDbEntity
  8
0
100
AcDbCircle
 10
6.098219
 20
3.983136
 30
0.0
 40
0.009158
100
AcDbArc
 50
3.548445
 51
22.030821
  0
ARC
  5
2C4
330
18
100
AcDbEntity
  8
0
100
AcDbCircle
 10
6.098219
 20
3.983136
 30
0.0
 40
0.009158
100
AcDbArc
 50
22.030821
 51
40.513197
  0
ARC
  5
2C5
330
18
100
AcDbEntity
  8
0
100
AcDbCircle
 10
6.099467
 20
3.984202
 30
0.0
 40
0.007517
100
AcDbArc
 50
40.513197
 51
60.932925
  0
ARC
  5
2C6
330
18
100
AcDbEntity
  8
0
100
AcDbCircle
 10
6.100085
 20
3.985313
 30
0.0
 40
0.006246
100
AcDbArc
 50
60.932925
 51
84.85930400000001
  0
ARC
  5
2C7
330
18
100
AcDbEntity
  8
0
100
AcDbCircle
 10
6.100209
 20
3.98669
 30
0.0
 40
0.004863
100
AcDbArc
 50
84.85930400000001
 51
112.030821
  0
ARC
  5
2C8
330
18
100
AcDbEntity
  8
0
100
AcDbCircle
 10
6.012467
 20
3.900253
 30
0.0
 40
0.004863
100
AcDbArc
 50
112.030821
 51
139.202338
  0
ARC
  5
2C9
330
18
100
AcDbEntity
  8
0
100
AcDbCircle
 10
6.013513
 20
3.899349
 30
0.0
 40
0.006246
100
AcDbArc
 50
139.202338
 51
163.128717
  0
ARC
  5
2CA
330
18
100
AcDbEntity
  8
0
100
AcDbCircle
 10
6.01473
 20
3.89898
 30
0.0
 40
0.007517
100
AcDbArc
 50
163.128717
 51
183.548445
  0
ARC
  5
2CB
330
18
100
AcDbEntity
  8
0
100
AcDbCircle
 10
6.016368
 20
3.899082
 30
0.0
 40
0.009158
100
AcDbArc
 50
183.548445
 51
202.030821
  0
ARC
  5
2CC
330
18
100
AcDbEntity
  8
0
100
AcDbCircle
 10
6.016368
 20
3.899082
 30
0.0
 40
0.009158
100
AcDbArc
 50
202.030821
 51
220.513197
  0
ARC
  5
2CD
330
18
100
AcDbEntity
  8
0
100
AcDbCircle
 10
6.01512
 20
3.898016
 30
0.0
 40
0.007517
100
AcDbArc
 50
220.513197
 51
240.932925
  0
ARC
  5
2CE
330
18
100
AcDbEntity
  8
0
100
AcDbCircle
 10
6.014501999999999
 20
3.896904
 30
0.0
 40
0.006246
100
AcDbArc
 50
240.932925
 51
264.859304
  0
ARC
  5
2CF
330
18
100
AcDbEntity
  8
0
100
AcDbCircle
 10
6.014379
 20
3.895528
 30
0.0
 40
0.004863
100
AcDbArc
 50
264.859304
 51
292.030821
  0
ARC
  5
2D0
330
18
100
AcDbEntity
  8
0
100
AcDbCircle
 10
6.014379
 20
3.895528
 30
0.0
 40
0.004863
100
AcDbArc
 50
292.030821
 51
319.202338
  0
ARC
  5
2D1
330
18
100
AcDbEntity
  8
0
100
AcDbCircle
 10
6.013332
 20
3.896431
 30
0.0
 40
0.006246
100
AcDbArc
 50
319.202338
 51
343.128717
  0
ARC
  5
2D2
330
18
100
AcDbEntity
  8
0
100
AcDbCircle
 10
6.012115000000001
 20
3.8968
 30
0.0
 40
0.007517
100
AcDbArc
 50
343.128717
 51
3.548445
  0
ARC
  5
2D3
330
18
100
AcDbEntity
  8
0
100
AcDbCircle
 10
6.010477
 20
3.896698
 30
0.0
 40
0.009158
100
AcDbArc
 50
3.548445
 51
22.030821
  0
ARC
  5
2D4
330
18
100
AcDbEntity
  8
0
100
AcDbCircle
 10
6.010477
 20
3.896698
 30
0.0
 40
0.009158
100
AcDbArc
 50
22.030821
 51
40.513197
  0
ARC
  5
2D5
330
18
100
AcDbEntity
  8
0
100
AcDbCircle
 10
6.011725
 20
3.897764
 30
0.0
 40
0.007517
100
AcDbArc
 50
40.513197
 51
60.932925
  0
ARC
  5
2D6
330
18
100
AcDbEntity
  8
0
100
AcDbCircle
 10
6.012343
 20
3.898876
 30
0.0
 40
0.006246
100
AcDbArc
 50
60.932925
 51
84.85930400000001
  0
ARC
  5
2D7
330
18
100
AcDbEntity
  8
0
100
AcDbCircle
 10
6.012467
 20
3.900253
 30
0.0
 40
0.004863
100
AcDbArc
 50
84.85930400000001
 51
112.030821
  0
ARC
  5
2D8
330
18
100
AcDbEntity
  8
0
100
AcDbCircle
 10
5.661386
 20
4.116031
 30
0.0
 40
0.004863
100
AcDbArc
 50
112.030821
 51
139.202338
  0
ARC
  5
2D9
330
18
100
AcDbEntity
  8
0
100
AcDbCircle
 10
5.662433
 20
4.115128
 30
0.0
 40
0.006246
100
AcDbArc
 50
139.202338
 51
163.128717
  0
ARC
  5
2DA
330
18
100
AcDbEntity
  8
0
100
AcDbCircle
 10
5.66365
 20
4.114758999999999
 30
0.0
 40
0.007517
100
AcDbArc
 50
163.128717
 51
183.548445
  0
ARC
  5
2DB
330
18
100
AcDbEntity
  8
0
100
AcDbCircle
 10
5.665287999999999
 20
4.114861
 30
0.0
 40
0.009158
100
AcDbArc
 50
183.548445
 51
202.030821
  0
ARC
  5
2DC
330
18
100
AcDbEntity
  8
0
100
AcDbCircle
 10
5.665287999999999
 20
4.114861
 30
0.0
 40
0.009158
100
AcDbArc
 50
202.030821
 51
220.513197
  0
ARC
  5
2DD
330
18
100
AcDbEntity
  8
0
100
AcDbCircle
 10
5.66404
 20
4.113795
 30
0.0
 40
0.007517
100
AcDbArc
 50
220.513197
 51
240.932925
  0
ARC
  5
2DE
330
18
100
AcDbEntity
  8
0
100
AcDbCircle
 10
5.663422
 20
4.112683000000001
 30
0.0
 40
0.006246
100
AcDbArc
 50
240.932925
 51
264.859304
  0
ARC
  5
2DF
330
18
100
AcDbEntity
  8
0
100
AcDbCircle
 10
5.663298
 20
4.111307
 30
0.0
 40
0.004863
100
AcDbArc
 50
264.859304
 51
292.030821
  0
ARC
  5
2E0
330
18
100
AcDbEntity
  8
0
100
AcDbCircle
 10
5.663298
 20
4.111307
 30
0.0
 40
0.004863
100
AcDbArc
 50
292.030821
 51
319.202338
  0
ARC
  5
2E1
330
18
100
AcDbEntity
  8
0
100
AcDbCircle
 10
5.662252
 20
4.11221
 30
0.0
 40
0.006246
100
AcDbArc
 50
319.202338
 51
343.128717
  0
ARC
  5
2E2
330
18
100
AcDbEntity
  8
0
100
AcDbCircle
 10
5.661035
 20
4.112579
 30
0.0
 40
0.007517
100
AcDbArc
 50
343.128717
 51
3.548445
  0
ARC
  5
2E3
330
18
100
AcDbEntity
  8
0
100
AcDbCircle
 10
5.659397
 20
4.112476999999999
 30
0.0
 40
0.009158
100
AcDbArc
 50
3.548445
 51
22.030821
  0
ARC
  5
2E4
330
18
100
AcDbEntity
  8
0
100
AcDbCircle
 10
5.659397
 20
4.112476999999999
 30
0.0
 40
0.009158
100
AcDbArc
 50
22.030821
 51
40.513197
  0
ARC
  5
2E5
330
18
100
AcDbEntity
  8
0
100
AcDbCircle
 10
5.660645
 20
4.113543
 30
0.0
 40
0.007517
100
AcDbArc
 50
40.513197
 51
60.932925
  0
ARC
  5
2E6
330
18
100
AcDbEntity
  8
0
100
AcDbCircle
 10
5.661263
 20
4.114655
 30
0.0
 40
0.006246
100
AcDbArc
 50
60.932925
 51
84.85930400000001
  0
ARC
  5
2E7
330
18
100
AcDbEntity
  8
0
100
AcDbCircle
 10
5.661386
 20
4.116031
 30
0.0
 40
0.004863
100
AcDbArc
 50
84.85930400000001
 51
112.030821
  0
ARC
  5
2E8
330
18
100
AcDbEntity
  8
0
100
AcDbCircle
 10
5.661386
 20
4.359315000000001
 30
0.0
 40
0.004863
100
AcDbArc
 50
112.030821
 51
139.202338
  0
ARC
  5
2E9
330
18
100
AcDbEntity
  8
0
100
AcDbCircle
 10
5.662433
 20
4.358412
 30
0.0
 40
0.006246
100
AcDbArc
 50
139.202338
 51
163.128717
  0
ARC
  5
2EA
330
18
100
AcDbEntity
  8
0
100
AcDbCircle
 10
5.66365
 20
4.358043
 30
0.0
 40
0.007517
100
AcDbArc
 50
163.128717
 51
183.548445
  0
ARC
  5
2EB
330
18
100
AcDbEntity
  8
0
100
AcDbCircle
 10
5.665287999999999
 20
4.358144
 30
0.0
 40
0.009158
100
AcDbArc
 50
183.548445
 51
202.030821
  0
ARC
  5
2EC
330
18
100
AcDbEntity
  8
0
100
AcDbCircle
 10
5.665287999999999
 20
4.358144
 30
0.0
 40
0.009158
100
AcDbArc
 50
202.030821
 51
220.513197
  0
ARC
  5
2ED
330
18
100
AcDbEntity
  8
0
100
AcDbCircle
 10
5.66404
 20
4.357078
 30
0.0
 40
0.007517
100
AcDbArc
 50
220.513197
 51
240.932925
  0
ARC
  5
2EE
330
18
100
AcDbEntity
  8
0
100
AcDbCircle
 10
5.663422
 20
4.355967
 30
0.0
 40
0.006246
100
AcDbArc
 50
240.932925
 51
264.859304
  0
ARC
  5
2EF
330
18
100
AcDbEntity
  8
0
100
AcDbCircle
 10
5.663298
 20
4.35459
 30
0.0
 40
0.004863
100
AcDbArc
 50
264.859304
 51
292.030821
  0
ARC
  5
2F0
330
18
100
AcDbEntity
  8
0
100
AcDbCircle
 10
5.663298
 20
4.35459
 30
0.0
 40
0.004863
100
AcDbArc
 50
292.030821
 51
319.202338
  0
ARC
  5
2F1
330
18
100
AcDbEntity
  8
0
100
AcDbCircle
 10
5.662252
 20
4.355493
 30
0.0
 40
0.006246
100
AcDbArc
 50
319.202338
 51
343.128717
  0
ARC
  5
2F2
330
18
100
AcDbEntity
  8
0
100
AcDbCircle
 10
5.661035
 20
4.355862
 30
0.0
 40
0.007517
100
AcDbArc
 50
343.128717
 51
3.548445
  0
ARC
  5
2F3
330
18
100
AcDbEntity
  8
0
100
AcDbCircle
 10
5.659397
 20
4.355761
 30
0.0
 40
0.009158
100
AcDbArc
 50
3.548445
 51
22.030821
  0
ARC
  5
2F4
330
18
100
AcDbEntity
  8
0
100
AcDbCircle
 10
5.659397
 20
4.355761
 30
0.0
 40
0.009158
100
AcDbArc
 50
22.030821
 51
40.513197
  0
ARC
  5
2F5
330
18
100
AcDbEntity
  8
0
100
AcDbCircle
 10
5.660645
 20
4.356827
 30
0.0
 40
0.007517
100
AcDbArc
 50
40.513197
 51
60.932925
  0
ARC
  5
2F6
330
18
100
AcDbEntity
  8
0
100
AcDbCircle
 10
5.661263
 20
4.357938
 30
0.0
 40
0.006246
100
AcDbArc
 50
60.932925
 51
84.85930400000001
  0
ARC
  5
2F7
330
18
100
AcDbEntity
  8
0
100
AcDbCircle
 10
5.661386
 20
4.359315000000001
 30
0.0
 40
0.004863
100
AcDbArc
 50
84.85930400000001
 51
112.030821
  0
ARC
  5
2F8
330
18
100
AcDbEntity
  8
0
100
AcDbCircle
 10
5.730948000000001
 20
4.476687
 30
0.0
 40
0.004863
100
AcDbArc
 50
112.030821
 51
139.202338
  0
ARC
  5
2F9
330
18
100
AcDbEntity
  8
0
100
AcDbCircle
 10
5.731995
 20
4.475783
 30
0.0
 40
0.006246
100
AcDbArc
 50
139.202338
 51
163.128717
  0
ARC
  5
2FA
330
18
100
AcDbEntity
  8
0
100
AcDbCircle
 10
5.733212
 20
4.475414
 30
0.0
 40
0.007517
100
AcDbArc
 50
163.128717
 51
183.548445
  0
ARC
  5
2FB
330
18
100
AcDbEntity
  8
0
100
AcDbCircle
 10
5.73485
 20
4.475516000000001
 30
0.0
 40
0.009158
100
AcDbArc
 50
183.548445
 51
202.030821
  0
ARC
  5
2FC
330
18
100
AcDbEntity
  8
0
100
AcDbCircle
 10
5.73485
 20
4.475516000000001
 30
0.0
 40
0.009158
100
AcDbArc
 50
202.030821
 51
220.513197
  0
ARC
  5
2FD
330
18
100
AcDbEntity
  8
0
100
AcDbCircle
 10
5.733601999999999
 20
4.47445
 30
0.0
 40
0.007517
100
AcDbArc
 50
220.513197
 51
240.932925
  0
ARC
  5
2FE
330
18
100
AcDbEntity
  8
0
100
AcDbCircle
 10
5.732984
 20
4.473338
 30
0.0
 40
0.006246
100
AcDbArc
 50
240.932925
 51
264.859304
  0
ARC
  5
2FF
330
18
100
AcDbEntity
  8
0
100
AcDbCircle
 10
5.73286
 20
4.471962
 30
0.0
 40
0.004863
100
AcDbArc
 50
264.859304
 51
292.030821
  0
ARC
  5
300
330
18
100
AcDbEntity
  8
0
100
AcDbCircle
 10
5.73286
 20
4.471962
 30
0.0
 40
0.004863
100
AcDbArc
 50
292.030821
 51
319.202338
  0
ARC
  5
301
330
18
100
AcDbEntity
  8
0
100
AcDbCircle
 10
5.731814
 20
4.472865000000001
 30
0.0
 40
0.006246
100
AcDbArc
 50
319.202338
 51
343.128717
  0
ARC
  5
302
330
18
100
AcDbEntity
  8
0
100
AcDbCircle
 10
5.730597
 20
4.473234
 30
0.0
 40
0.007517
100
AcDbArc
 50
343.128717
 51
3.548445
  0
ARC
  5
303
330
18
100
AcDbEntity
  8
0
100
AcDbCircle
 10
5.728959
 20
4.473132
 30
0.0
 40
0.009158
100
AcDbArc
 50
3.548445
 51
22.030821
  0
ARC
  5
304
330
18
100
AcDbEntity
  8
0
100
AcDbCircle
 10
5.728959
 20
4.473132
 30
0.0
 40
0.009158
100
AcDbArc
 50
22.030821
 51
40.513197
  0
ARC
  5
305
330
18
100
AcDbEntity
  8
0
100
AcDbCircle
 10
5.730207
 20
4.474198
 30
0.0
 40
0.007517
100
AcDbArc
 50
40.513197
 51
60.932925
  0
ARC
  5
306
330
18
100
AcDbEntity
  8
0
100
AcDbCircle
 10
5.730825
 20
4.47531
 30
0.0
 40
0.006246
100
AcDbArc
 50
60.932925
 51
84.85930400000001
  0
ARC
  5
307
330
18
100
AcDbEntity
  8
0
100
AcDbCircle
 10
5.730948000000001
 20
4.476687
 30
0.0
 40
0.004863
100
AcDbArc
 50
84.85930400000001
 51
112.030821
  0
ARC
  5
308
330
18
100
AcDbEntity
  8
0
100
AcDbCircle
 10
5.730948000000001
 20
4.209436
 30
0.0
 40
0.004863
100
AcDbArc
 50
112.030821
 51
139.202338
  0
ARC
  5
309
330
18
100
AcDbEntity
  8
0
100
AcDbCircle
 10
5.731995
 20
4.208533
 30
0.0
 40
0.006246
100
AcDbArc
 50
139.202338
 51
163.128717
  0
ARC
  5
30A
330
18
100
AcDbEntity
  8
0
100
AcDbCircle
 10
5.733212
 20
4.208163
 30
0.0
 40
0.007517
100
AcDbArc
 50
163.128717
 51
183.548445
  0
ARC
  5
30B
330
18
100
AcDbEntity
  8
0
100
AcDbCircle
 10
5.73485
 20
4.208265
 30
0.0
 40
0.009158
100
AcDbArc
 50
183.548445
 51
202.030821
  0
ARC
  5
30C
330
18
100
AcDbEntity
  8
0
100
AcDbCircle
 10
5.73485
 20
4.208265
 30
0.0
 40
0.009158
100
AcDbArc
 50
202.030821
 51
220.513197
  0
ARC
  5
30D
330
18
100
AcDbEntity
  8
0
100
AcDbCircle
 10
5.733601999999999
 20
4.207199
 30
0.0
 40
0.007517
100
AcDbArc
 50
220.513197
 51
240.932925
  0
ARC
  5
30E
330
18
100
AcDbEntity
  8
0
100
AcDbCircle
 10
5.732984
 20
4.206087999999999
 30
0.0
 40
0.006246
100
AcDbArc
 50
240.932925
 51
264.859304
  0
ARC
  5
30F
330
18
100
AcDbEntity
  8
0
100
AcDbCircle
 10
5.73286
 20
4.204711
 30
0.0
 40
0.004863
100
AcDbArc
 50
264.859304
 51
292.030821
  0
ARC
  5
310
330
18
100
AcDbEntity
  8
0
100
AcDbCircle
 10
5.73286
 20
4.204711
 30
0.0
 40
0.004863
100
AcDbArc
 50
292.030821
 51
319.202338
  0
ARC
  5
311
330
18
100
AcDbEntity
  8
0
100
AcDbCircle
 10
5.731814
 20
4.205614
 30
0.0
 40
0.006246
100
AcDbArc
 50
319.202338
 51
343.128717
  0
ARC
  5
312
330
18
100
AcDbEntity
  8
0
100
AcDbCircle
 10
5.730597
 20
4.205983
 30
0.0
 40
0.007517
100
AcDbArc
 50
343.128717
 51
3.548445
  0
ARC
  5
313
330
18
100
AcDbEntity
  8
0
100
AcDbCircle
 10
5.728959
 20
4.205881
 30
0.0
 40
0.009158
100
AcDbArc
 50
3.548445
 51
22.030821
  0
ARC
  5
314
330
18
100
AcDbEntity
  8
0
100
AcDbCircle
 10
5.728959
 20
4.205881
 30
0.0
 40
0.009158
100
AcDbArc
 50
22.030821
 51
40.513197
  0
ARC
  5
315
330
18
100
AcDbEntity
  8
0
100
AcDbCircle
 10
5.730207
 20
4.206947
 30
0.0
 40
0.007517
100
AcDbArc
 50
40.513197
 51
60.932925
  0
ARC
  5
316
330
18
100
AcDbEntity
  8
0
100
AcDbCircle
 10
5.730825
 20
4.208059
 30
0.0
 40
0.006246
100
AcDbArc
 50
60.932925
 51
84.85930400000001
  0
ARC
  5
317
330
18
100
AcDbEntity
  8
0
100
AcDbCircle
 10
5.730948000000001
 20
4.209436
 30
0.0
 40
0.004863
100
AcDbArc
 50
84.85930400000001
 51
112.030821
  0
ARC
  5
318
330
18
100
AcDbEntity
  8
0
100
AcDbCircle
 10
5.730948000000001
 20
3.98622
 30
0.0
 40
0.004863
100
AcDbArc
 50
112.030821
 51
139.202338
  0
ARC
  5
319
330
18
100
AcDbEntity
  8
0
100
AcDbCircle
 10
5.731995
 20
3.985317
 30
0.0
 40
0.006246
100
AcDbArc
 50
139.202338
 51
163.128717
  0
ARC
  5
31A
330
18
100
AcDbEntity
  8
0
100
AcDbCircle
 10
5.733212
 20
3.984948
 30
0.0
 40
0.007517
100
AcDbArc
 50
163.128717
 51
183.548445
  0
ARC
  5
31B
330
18
100
AcDbEntity
  8
0
100
AcDbCircle
 10
5.73485
 20
3.985049
 30
0.0
 40
0.009158
100
AcDbArc
 50
183.548445
 51
202.030821
  0
ARC
  5
31C
330
18
100
AcDbEntity
  8
0
100
AcDbCircle
 10
5.73485
 20
3.985049
 30
0.0
 40
0.009158
100
AcDbArc
 50
202.030821
 51
220.513197
  0
ARC
  5
31D
330
18
100
AcDbEntity
  8
0
100
AcDbCircle
 10
5.733601999999999
 20
3.983983
 30
0.0
 40
0.007517
100
AcDbArc
 50
220.513197
 51
240.932925
  0
ARC
  5
31E
330
18
100
AcDbEntity
  8
0
100
AcDbCircle
 10
5.732984
 20
3.982872
 30
0.0
 40
0.006246
100
AcDbArc
 50
240.932925
 51
264.859304
  0
ARC
  5
31F
330
18
100
AcDbEntity
  8
0
100
AcDbCircle
 10
5.73286
 20
3.981495
 30
0.0
 40
0.004863
100
AcDbArc
 50
264.859304
 51
292.030821
  0
ARC
  5
320
330
18
100
AcDbEntity
  8
0
100
AcDbCircle
 10
5.73286
 20
3.981495
 30
0.0
 40
0.004863
100
AcDbArc
 50
292.030821
 51
319.202338
  0
ARC
  5
321
330
18
100
AcDbEntity
  8
0
100
AcDbCircle
 10
5.731814
 20
3.982398
 30
0.0
 40
0.006246
100
AcDbArc
 50
319.202338
 51
343.128717
  0
ARC
  5
322
330
18
100
AcDbEntity
  8
0
100
AcDbCircle
 10
5.730597
 20
3.982767
 30
0.0
 40
0.007517
100
AcDbArc
 50
343.128717
 51
3.548445
  0
ARC
  5
323
330
18
100
AcDbEntity
  8
0
100
AcDbCircle
 10
5.728959
 20
3.982666000000001
 30
0.0
 40
0.009158
100
AcDbArc
 50
3.548445
 51
22.030821
  0
ARC
  5
324
330
18
100
AcDbEntity
  8
0
100
AcDbCircle
 10
5.728959
 20
3.982666000000001
 30
0.0
 40
0.009158
100
AcDbArc
 50
22.030821
 51
40.513197
  0
ARC
  5
325
330
18
100
AcDbEntity
  8
0
100
AcDbCircle
 10
5.730207
 20
3.983732
 30
0.0
 40
0.007517
100
AcDbArc
 50
40.513197
 51
60.932925
  0
ARC
  5
326
330
18
100
AcDbEntity
  8
0
100
AcDbCircle
 10
5.730825
 20
3.984843
 30
0.0
 40
0.006246
100
AcDbArc
 50
60.932925
 51
84.85930400000001
  0
ARC
  5
327
330
18
100
AcDbEntity
  8
0
100
AcDbCircle
 10
5.730948000000001
 20
3.98622
 30
0.0
 40
0.004863
100
AcDbArc
 50
84.85930400000001
 51
112.030821
  0
ARC
  5
328
330
18
100
AcDbEntity
  8
0
100
AcDbCircle
 10
3.560470513440539
 20
4.819426196278641
 30
0.0
 40
0.004393
100
AcDbArc
 50
268.681254
 51
295.471194
  0
ARC
  5
329
330
18
100
AcDbEntity
  8
0
100
AcDbCircle
 10
3.559984513440539
 20
4.820447196278641
 30
0.0
 40
0.005524
100
AcDbArc
 50
295.471194
 51
319.317124
  0
ARC
  5
32A
330
18
100
AcDbEntity
  8
0
100
AcDbCircle
 10
3.559201513440538
 20
4.82112019627864
 30
0.0
 40
0.006556
100
AcDbArc
 50
319.317124
 51
339.913247
  0
ARC
  5
32B
330
18
100
AcDbEntity
  8
0
100
AcDbCircle
 10
3.557957513440539
 20
4.821575196278641
 30
0.0
 40
0.007882
100
AcDbArc
 50
339.913247
 51
358.681254
  0
ARC
  5
32C
330
18
100
AcDbEntity
  8
0
100
AcDbCircle
 10
3.557957513440539
 20
4.821575196278641
 30
0.0
 40
0.007882
100
AcDbArc
 50
358.681254
 51
17.44926
  0
ARC
  5
32D
330
18
100
AcDbEntity
  8
0
100
AcDbCircle
 10
3.559221513440539
 20
4.821972196278641
 30
0.0
 40
0.006556
100
AcDbArc
 50
17.44926
 51
38.045383
  0
ARC
  5
32E
330
18
100
AcDbEntity
  8
0
100
AcDbCircle
 10
3.560034513440539
 20
4.822609196278641
 30
0.0
 40
0.005524
100
AcDbArc
 50
38.045383
 51
61.891313
  0
ARC
  5
32F
330
18
100
AcDbEntity
  8
0
100
AcDbCircle
 10
3.560567513440538
 20
4.82360619627864
 30
0.0
 40
0.004393
100
AcDbArc
 50
61.891313
 51
88.68125400000001
  0
ARC
  5
330
330
18
100
AcDbEntity
  8
0
100
AcDbCircle
 10
3.560567513440538
 20
4.82360619627864
 30
0.0
 40
0.004393
100
AcDbArc
 50
88.68125400000001
 51
115.471194
  0
ARC
  5
331
330
18
100
AcDbEntity
  8
0
100
AcDbCircle
 10
3.561053513440538
 20
4.822585196278641
 30
0.0
 40
0.005524
100
AcDbArc
 50
115.471194
 51
139.317124
  0
ARC
  5
332
330
18
100
AcDbEntity
  8
0
100
AcDbCircle
 10
3.561836513440539
 20
4.821912196278641
 30
0.0
 40
0.006556
100
AcDbArc
 50
139.317124
 51
159.913247
  0
ARC
  5
333
330
18
100
AcDbEntity
  8
0
100
AcDbCircle
 10
3.563080513440538
 20
4.821457196278641
 30
0.0
 40
0.007882
100
AcDbArc
 50
159.913247
 51
178.681254
  0
ARC
  5
334
330
18
100
AcDbEntity
  8
0
100
AcDbCircle
 10
3.563080513440538
 20
4.821457196278641
 30
0.0
 40
0.007882
100
AcDbArc
 50
178.681254
 51
197.44926
  0
ARC
  5
335
330
18
100
AcDbEntity
  8
0
100
AcDbCircle
 10
3.561816513440538
 20
4.821060196278641
 30
0.0
 40
0.006556
100
AcDbArc
 50
197.44926
 51
218.045383
  0
ARC
  5
336
330
18
100
AcDbEntity
  8
0
100
AcDbCircle
 10
3.561003513440538
 20
4.820424196278641
 30
0.0
 40
0.005524
100
AcDbArc
 50
218.045383
 51
241.891313
  0
ARC
  5
337
330
18
100
AcDbEntity
  8
0
100
AcDbCircle
 10
3.560470513440539
 20
4.819426196278641
 30
0.0
 40
0.004393
100
AcDbArc
 50
241.891313
 51
268.681254
  0
ARC
  5
338
330
18
100
AcDbEntity
  8
0
100
AcDbCircle
 10
3.560470513440539
 20
4.753369196278641
 30
0.0
 40
0.004393
100
AcDbArc
 50
268.681254
 51
295.471194
  0
ARC
  5
339
330
18
100
AcDbEntity
  8
0
100
AcDbCircle
 10
3.559984513440539
 20
4.754390196278641
 30
0.0
 40
0.005524
100
AcDbArc
 50
295.471194
 51
319.317124
  0
ARC
  5
33A
330
18
100
AcDbEntity
  8
0
100
AcDbCircle
 10
3.559201513440538
 20
4.75506319627864
 30
0.0
 40
0.006556
100
AcDbArc
 50
319.317124
 51
339.913247
  0
ARC
  5
33B
330
18
100
AcDbEntity
  8
0
100
AcDbCircle
 10
3.557957513440539
 20
4.755518196278641
 30
0.0
 40
0.007882
100
AcDbArc
 50
339.913247
 51
358.681254
  0
ARC
  5
33C
330
18
100
AcDbEntity
  8
0
100
AcDbCircle
 10
3.557957513440539
 20
4.755518196278641
 30
0.0
 40
0.007882
100
AcDbArc
 50
358.681254
 51
17.44926
  0
ARC
  5
33D
330
18
100
AcDbEntity
  8
0
100
AcDbCircle
 10
3.559221513440539
 20
4.755915196278641
 30
0.0
 40
0.006556
100
AcDbArc
 50
17.44926
 51
38.045383
  0
ARC
  5
33E
330
18
100
AcDbEntity
  8
0
100
AcDbCircle
 10
3.560034513440539
 20
4.756552196278642
 30
0.0
 40
0.005524
100
AcDbArc
 50
38.045383
 51
61.891313
  0
ARC
  5
33F
330
18
100
AcDbEntity
  8
0
100
AcDbCircle
 10
3.560567513440538
 20
4.757549196278641
 30
0.0
 40
0.004393
100
AcDbArc
 50
61.891313
 51
88.68125400000001
  0
ARC
  5
340
330
18
100
AcDbEntity
  8
0
100
AcDbCircle
 10
3.560567513440538
 20
4.757549196278641
 30
0.0
 40
0.004393
100
AcDbArc
 50
88.68125400000001
 51
115.471194
  0
ARC
  5
341
330
18
100
AcDbEntity
  8
0
100
AcDbCircle
 10
3.561053513440538
 20
4.756528196278641
 30
0.0
 40
0.005524
100
AcDbArc
 50
115.471194
 51
139.317124
  0
ARC
  5
342
330
18
100
AcDbEntity
  8
0
100
AcDbCircle
 10
3.561836513440539
 20
4.755855196278641
 30
0.0
 40
0.006556
100
AcDbArc
 50
139.317124
 51
159.913247
  0
ARC
  5
343
330
18
100
AcDbEntity
  8
0
100
AcDbCircle
 10
3.563080513440538
 20
4.75540019627864
 30
0.0
 40
0.007882
100
AcDbArc
 50
159.913247
 51
178.681254
  0
ARC
  5
344
330
18
100
AcDbEntity
  8
0
100
AcDbCircle
 10
3.563080513440538
 20
4.75540019627864
 30
0.0
 40
0.007882
100
AcDbArc
 50
178.681254
 51
197.44926
  0
ARC
  5
345
330
18
100
AcDbEntity
  8
0
100
AcDbCircle
 10
3.561816513440538
 20
4.755003196278641
 30
0.0
 40
0.006556
100
AcDbArc
 50
197.44926
 51
218.045383
  0
ARC
  5
346
330
18
100
AcDbEntity
  8
0
100
AcDbCircle
 10
3.561003513440538
 20
4.754367196278641
 30
0.0
 40
0.005524
100
AcDbArc
 50
218.045383
 51
241.891313
  0
ARC
  5
347
330
18
100
AcDbEntity
  8
0
100
AcDbCircle
 10
3.560470513440539
 20
4.753369196278641
 30
0.0
 40
0.004393
100
AcDbArc
 50
241.891313
 51
268.681254
  0
ARC
  5
348
330
18
100
AcDbEntity
  8
0
100
AcDbCircle
 10
3.560470513440539
 20
4.67031119627864
 30
0.0
 40
0.004393
100
AcDbArc
 50
268.681254
 51
295.471194
  0
ARC
  5
349
330
18
100
AcDbEntity
  8
0
100
AcDbCircle
 10
3.559984513440539
 20
4.671332196278641
 30
0.0
 40
0.005524
100
AcDbArc
 50
295.471194
 51
319.317124
  0
ARC
  5
34A
330
18
100
AcDbEntity
  8
0
100
AcDbCircle
 10
3.559201513440538
 20
4.672005196278641
 30
0.0
 40
0.006556
100
AcDbArc
 50
319.317124
 51
339.913247
  0
ARC
  5
34B
330
18
100
AcDbEntity
  8
0
100
AcDbCircle
 10
3.557957513440539
 20
4.672460196278641
 30
0.0
 40
0.007882
100
AcDbArc
 50
339.913247
 51
358.681254
  0
ARC
  5
34C
330
18
100
AcDbEntity
  8
0
100
AcDbCircle
 10
3.557957513440539
 20
4.672460196278641
 30
0.0
 40
0.007882
100
AcDbArc
 50
358.681254
 51
17.44926
  0
ARC
  5
34D
330
18
100
AcDbEntity
  8
0
100
AcDbCircle
 10
3.559221513440539
 20
4.672858196278641
 30
0.0
 40
0.006556
100
AcDbArc
 50
17.44926
 51
38.045383
  0
ARC
  5
34E
330
18
100
AcDbEntity
  8
0
100
AcDbCircle
 10
3.560034513440539
 20
4.673494196278641
 30
0.0
 40
0.005524
100
AcDbArc
 50
38.045383
 51
61.891313
  0
ARC
  5
34F
330
18
100
AcDbEntity
  8
0
100
AcDbCircle
 10
3.560567513440538
 20
4.674491196278641
 30
0.0
 40
0.004393
100
AcDbArc
 50
61.891313
 51
88.68125400000001
  0
ARC
  5
350
330
18
100
AcDbEntity
  8
0
100
AcDbCircle
 10
3.560567513440538
 20
4.674491196278641
 30
0.0
 40
0.004393
100
AcDbArc
 50
88.68125400000001
 51
115.471194
  0
ARC
  5
351
330
18
100
AcDbEntity
  8
0
100
AcDbCircle
 10
3.561053513440538
 20
4.673471196278641
 30
0.0
 40
0.005524
100
AcDbArc
 50
115.471194
 51
139.317124
  0
ARC
  5
352
330
18
100
AcDbEntity
  8
0
100
AcDbCircle
 10
3.561836513440539
 20
4.672798196278641
 30
0.0
 40
0.006556
100
AcDbArc
 50
139.317124
 51
159.913247
  0
ARC
  5
353
330
18
100
AcDbEntity
  8
0
100
AcDbCircle
 10
3.563080513440538
 20
4.672342196278641
 30
0.0
 40
0.007882
100
AcDbArc
 50
159.913247
 51
178.681254
  0
ARC
  5
354
330
18
100
AcDbEntity
  8
0
100
AcDbCircle
 10
3.563080513440538
 20
4.672342196278641
 30
0.0
 40
0.007882
100
AcDbArc
 50
178.681254
 51
197.44926
  0
ARC
  5
355
330
18
100
AcDbEntity
  8
0
100
AcDbCircle
 10
3.561816513440538
 20
4.671945196278641
 30
0.0
 40
0.006556
100
AcDbArc
 50
197.44926
 51
218.045383
  0
ARC
  5
356
330
18
100
AcDbEntity
  8
0
100
AcDbCircle
 10
3.561003513440538
 20
4.671309196278641
 30
0.0
 40
0.005524
100
AcDbArc
 50
218.045383
 51
241.891313
  0
ARC
  5
357
330
18
100
AcDbEntity
  8
0
100
AcDbCircle
 10
3.560470513440539
 20
4.67031119627864
 30
0.0
 40
0.004393
100
AcDbArc
 50
241.891313
 51
268.681254
  0
ARC
  5
358
330
18
100
AcDbEntity
  8
0
100
AcDbCircle
 10
3.560470513440539
 20
4.587234196278641
 30
0.0
 40
0.004393
100
AcDbArc
 50
268.681254
 51
295.471194
  0
ARC
  5
359
330
18
100
AcDbEntity
  8
0
100
AcDbCircle
 10
3.559984513440539
 20
4.588255196278641
 30
0.0
 40
0.005524
100
AcDbArc
 50
295.471194
 51
319.317124
  0
ARC
  5
35A
330
18
100
AcDbEntity
  8
0
100
AcDbCircle
 10
3.559201513440538
 20
4.588928196278641
 30
0.0
 40
0.006556
100
AcDbArc
 50
319.317124
 51
339.913247
  0
ARC
  5
35B
330
18
100
AcDbEntity
  8
0
100
AcDbCircle
 10
3.557957513440539
 20
4.589383196278641
 30
0.0
 40
0.007882
100
AcDbArc
 50
339.913247
 51
358.681254
  0
ARC
  5
35C
330
18
100
AcDbEntity
  8
0
100
AcDbCircle
 10
3.557957513440539
 20
4.589383196278641
 30
0.0
 40
0.007882
100
AcDbArc
 50
358.681254
 51
17.44926
  0
ARC
  5
35D
330
18
100
AcDbEntity
  8
0
100
AcDbCircle
 10
3.559221513440539
 20
4.589780196278641
 30
0.0
 40
0.006556
100
AcDbArc
 50
17.44926
 51
38.045383
  0
ARC
  5
35E
330
18
100
AcDbEntity
  8
0
100
AcDbCircle
 10
3.560034513440539
 20
4.590416196278641
 30
0.0
 40
0.005524
100
AcDbArc
 50
38.045383
 51
61.891313
  0
ARC
  5
35F
330
18
100
AcDbEntity
  8
0
100
AcDbCircle
 10
3.560567513440538
 20
4.591414196278641
 30
0.0
 40
0.004393
100
AcDbArc
 50
61.891313
 51
88.68125400000001
  0
ARC
  5
360
330
18
100
AcDbEntity
  8
0
100
AcDbCircle
 10
3.560567513440538
 20
4.591414196278641
 30
0.0
 40
0.004393
100
AcDbArc
 50
88.68125400000001
 51
115.471194
  0
ARC
  5
361
330
18
100
AcDbEntity
  8
0
100
AcDbCircle
 10
3.561053513440538
 20
4.590393196278641
 30
0.0
 40
0.005524
100
AcDbArc
 50
115.471194
 51
139.317124
  0
ARC
  5
362
330
18
100
AcDbEntity
  8
0
100
AcDbCircle
 10
3.561836513440539
 20
4.58972019627864
 30
0.0
 40
0.006556
100
AcDbArc
 50
139.317124
 51
159.913247
  0
ARC
  5
363
330
18
100
AcDbEntity
  8
0
100
AcDbCircle
 10
3.563080513440538
 20
4.589265196278641
 30
0.0
 40
0.007882
100
AcDbArc
 50
159.913247
 51
178.681254
  0
ARC
  5
364
330
18
100
AcDbEntity
  8
0
100
AcDbCircle
 10
3.563080513440538
 20
4.589265196278641
 30
0.0
 40
0.007882
100
AcDbArc
 50
178.681254
 51
197.44926
  0
ARC
  5
365
330
18
100
AcDbEntity
  8
0
100
AcDbCircle
 10
3.561816513440538
 20
4.588867196278641
 30
0.0
 40
0.006556
100
AcDbArc
 50
197.44926
 51
218.045383
  0
ARC
  5
366
330
18
100
AcDbEntity
  8
0
100
AcDbCircle
 10
3.561003513440538
 20
4.588231196278641
 30
0.0
 40
0.005524
100
AcDbArc
 50
218.045383
 51
241.891313
  0
ARC
  5
367
330
18
100
AcDbEntity
  8
0
100
AcDbCircle
 10
3.560470513440539
 20
4.587234196278641
 30
0.0
 40
0.004393
100
AcDbArc
 50
241.891313
 51
268.681254
  0
ARC
  5
368
330
18
100
AcDbEntity
  8
0
100
AcDbCircle
 10
3.560470513440539
 20
4.50114919627864
 30
0.0
 40
0.004393
100
AcDbArc
 50
268.681254
 51
295.471194
  0
ARC
  5
369
330
18
100
AcDbEntity
  8
0
100
AcDbCircle
 10
3.559984513440539
 20
4.50217019627864
 30
0.0
 40
0.005524
100
AcDbArc
 50
295.471194
 51
319.317124
  0
ARC
  5
36A
330
18
100
AcDbEntity
  8
0
100
AcDbCircle
 10
3.559201513440538
 20
4.502843196278641
 30
0.0
 40
0.006556
100
AcDbArc
 50
319.317124
 51
339.913247
  0
ARC
  5
36B
330
18
100
AcDbEntity
  8
0
100
AcDbCircle
 10
3.557957513440539
 20
4.503298196278641
 30
0.0
 40
0.007882
100
AcDbArc
 50
339.913247
 51
358.681254
  0
ARC
  5
36C
330
18
100
AcDbEntity
  8
0
100
AcDbCircle
 10
3.557957513440539
 20
4.503298196278641
 30
0.0
 40
0.007882
100
AcDbArc
 50
358.681254
 51
17.44926
  0
ARC
  5
36D
330
18
100
AcDbEntity
  8
0
100
AcDbCircle
 10
3.559221513440539
 20
4.50369519627864
 30
0.0
 40
0.006556
100
AcDbArc
 50
17.44926
 51
38.045383
  0
ARC
  5
36E
330
18
100
AcDbEntity
  8
0
100
AcDbCircle
 10
3.560034513440539
 20
4.504332196278641
 30
0.0
 40
0.005524
100
AcDbArc
 50
38.045383
 51
61.891313
  0
ARC
  5
36F
330
18
100
AcDbEntity
  8
0
100
AcDbCircle
 10
3.560567513440538
 20
4.505329196278641
 30
0.0
 40
0.004393
100
AcDbArc
 50
61.891313
 51
88.68125400000001
  0
ARC
  5
370
330
18
100
AcDbEntity
  8
0
100
AcDbCircle
 10
3.560567513440538
 20
4.505329196278641
 30
0.0
 40
0.004393
100
AcDbArc
 50
88.68125400000001
 51
115.471194
  0
ARC
  5
371
330
18
100
AcDbEntity
  8
0
100
AcDbCircle
 10
3.561053513440538
 20
4.504308196278641
 30
0.0
 40
0.005524
100
AcDbArc
 50
115.471194
 51
139.317124
  0
ARC
  5
372
330
18
100
AcDbEntity
  8
0
100
AcDbCircle
 10
3.561836513440539
 20
4.503635196278641
 30
0.0
 40
0.006556
100
AcDbArc
 50
139.317124
 51
159.913247
  0
ARC
  5
373
330
18
100
AcDbEntity
  8
0
100
AcDbCircle
 10
3.563080513440538
 20
4.503180196278641
 30
0.0
 40
0.007882
100
AcDbArc
 50
159.913247
 51
178.681254
  0
ARC
  5
374
330
18
100
AcDbEntity
  8
0
100
AcDbCircle
 10
3.563080513440538
 20
4.503180196278641
 30
0.0
 40
0.007882
100
AcDbArc
 50
178.681254
 51
197.44926
  0
ARC
  5
375
330
18
100
AcDbEntity
  8
0
100
AcDbCircle
 10
3.561816513440538
 20
4.502783196278641
 30
0.0
 40
0.006556
100
AcDbArc
 50
197.44926
 51
218.045383
  0
ARC
  5
376
330
18
100
AcDbEntity
  8
0
100
AcDbCircle
 10
3.561003513440538
 20
4.50214619627864
 30
0.0
 40
0.005524
100
AcDbArc
 50
218.045383
 51
241.891313
  0
ARC
  5
377
330
18
100
AcDbEntity
  8
0
100
AcDbCircle
 10
3.560470513440539
 20
4.50114919627864
 30
0.0
 40
0.004393
100
AcDbArc
 50
241.891313
 51
268.681254
  0
ARC
  5
378
330
18
100
AcDbEntity
  8
0
100
AcDbCircle
 10
3.496479513440539
 20
4.811238196278641
 30
0.0
 40
0.004393
100
AcDbArc
 50
268.681254
 51
295.471194
  0
ARC
  5
379
330
18
100
AcDbEntity
  8
0
100
AcDbCircle
 10
3.495993513440538
 20
4.812259196278641
 30
0.0
 40
0.005524
100
AcDbArc
 50
295.471194
 51
319.317124
  0
ARC
  5
37A
330
18
100
AcDbEntity
  8
0
100
AcDbCircle
 10
3.495210513440538
 20
4.81293219627864
 30
0.0
 40
0.006556
100
AcDbArc
 50
319.317124
 51
339.913247
  0
ARC
  5
37B
330
18
100
AcDbEntity
  8
0
100
AcDbCircle
 10
3.493966513440538
 20
4.813387196278641
 30
0.0
 40
0.007882
100
AcDbArc
 50
339.913247
 51
358.681254
  0
ARC
  5
37C
330
18
100
AcDbEntity
  8
0
100
AcDbCircle
 10
3.493966513440538
 20
4.813387196278641
 30
0.0
 40
0.007882
100
AcDbArc
 50
358.681254
 51
17.44926
  0
ARC
  5
37D
330
18
100
AcDbEntity
  8
0
100
AcDbCircle
 10
3.495230513440538
 20
4.813784196278641
 30
0.0
 40
0.006556
100
AcDbArc
 50
17.44926
 51
38.045383
  0
ARC
  5
37E
330
18
100
AcDbEntity
  8
0
100
AcDbCircle
 10
3.496043513440538
 20
4.814420196278641
 30
0.0
 40
0.005524
100
AcDbArc
 50
38.045383
 51
61.891313
  0
ARC
  5
37F
330
18
100
AcDbEntity
  8
0
100
AcDbCircle
 10
3.496576513440538
 20
4.815418196278641
 30
0.0
 40
0.004393
100
AcDbArc
 50
61.891313
 51
88.68125400000001
  0
ARC
  5
380
330
18
100
AcDbEntity
  8
0
100
AcDbCircle
 10
3.496576513440538
 20
4.815418196278641
 30
0.0
 40
0.004393
100
AcDbArc
 50
88.68125400000001
 51
115.471194
  0
ARC
  5
381
330
18
100
AcDbEntity
  8
0
100
AcDbCircle
 10
3.497062513440539
 20
4.814397196278641
 30
0.0
 40
0.005524
100
AcDbArc
 50
115.471194
 51
139.317124
  0
ARC
  5
382
330
18
100
AcDbEntity
  8
0
100
AcDbCircle
 10
3.497845513440539
 20
4.81372419627864
 30
0.0
 40
0.006556
100
AcDbArc
 50
139.317124
 51
159.913247
  0
ARC
  5
383
330
18
100
AcDbEntity
  8
0
100
AcDbCircle
 10
3.499089513440539
 20
4.813269196278641
 30
0.0
 40
0.007882
100
AcDbArc
 50
159.913247
 51
178.681254
  0
ARC
  5
384
330
18
100
AcDbEntity
  8
0
100
AcDbCircle
 10
3.499089513440539
 20
4.813269196278641
 30
0.0
 40
0.007882
100
AcDbArc
 50
178.681254
 51
197.44926
  0
ARC
  5
385
330
18
100
AcDbEntity
  8
0
100
AcDbCircle
 10
3.497825513440539
 20
4.812872196278641
 30
0.0
 40
0.006556
100
AcDbArc
 50
197.44926
 51
218.045383
  0
ARC
  5
386
330
18
100
AcDbEntity
  8
0
100
AcDbCircle
 10
3.497012513440538
 20
4.812235196278641
 30
0.0
 40
0.005524
100
AcDbArc
 50
218.045383
 51
241.891313
  0
ARC
  5
387
330
18
100
AcDbEntity
  8
0
100
AcDbCircle
 10
3.496479513440539
 20
4.811238196278641
 30
0.0
 40
0.004393
100
AcDbArc
 50
241.891313
 51
268.681254
  0
ARC
  5
388
330
18
100
AcDbEntity
  8
0
100
AcDbCircle
 10
3.496479513440539
 20
4.727151196278641
 30
0.0
 40
0.004393
100
AcDbArc
 50
268.681254
 51
295.471194
  0
ARC
  5
389
330
18
100
AcDbEntity
  8
0
100
AcDbCircle
 10
3.495993513440538
 20
4.728172196278641
 30
0.0
 40
0.005524
100
AcDbArc
 50
295.471194
 51
319.317124
  0
ARC
  5
38A
330
18
100
AcDbEntity
  8
0
100
AcDbCircle
 10
3.495210513440538
 20
4.72884519627864
 30
0.0
 40
0.006556
100
AcDbArc
 50
319.317124
 51
339.913247
  0
ARC
  5
38B
330
18
100
AcDbEntity
  8
0
100
AcDbCircle
 10
3.493966513440538
 20
4.729300196278641
 30
0.0
 40
0.007882
100
AcDbArc
 50
339.913247
 51
358.681254
  0
ARC
  5
38C
330
18
100
AcDbEntity
  8
0
100
AcDbCircle
 10
3.493966513440538
 20
4.729300196278641
 30
0.0
 40
0.007882
100
AcDbArc
 50
358.681254
 51
17.44926
  0
ARC
  5
38D
330
18
100
AcDbEntity
  8
0
100
AcDbCircle
 10
3.495230513440538
 20
4.729697196278641
 30
0.0
 40
0.006556
100
AcDbArc
 50
17.44926
 51
38.045383
  0
ARC
  5
38E
330
18
100
AcDbEntity
  8
0
100
AcDbCircle
 10
3.496043513440538
 20
4.730334196278641
 30
0.0
 40
0.005524
100
AcDbArc
 50
38.045383
 51
61.891313
  0
ARC
  5
38F
330
18
100
AcDbEntity
  8
0
100
AcDbCircle
 10
3.496576513440538
 20
4.73133119627864
 30
0.0
 40
0.004393
100
AcDbArc
 50
61.891313
 51
88.68125400000001
  0
ARC
  5
390
330
18
100
AcDbEntity
  8
0
100
AcDbCircle
 10
3.496576513440538
 20
4.73133119627864
 30
0.0
 40
0.004393
100
AcDbArc
 50
88.68125400000001
 51
115.471194
  0
ARC
  5
391
330
18
100
AcDbEntity
  8
0
100
AcDbCircle
 10
3.497062513440539
 20
4.730310196278641
 30
0.0
 40
0.005524
100
AcDbArc
 50
115.471194
 51
139.317124
  0
ARC
  5
392
330
18
100
AcDbEntity
  8
0
100
AcDbCircle
 10
3.497845513440539
 20
4.729637196278641
 30
0.0
 40
0.006556
100
AcDbArc
 50
139.317124
 51
159.913247
  0
ARC
  5
393
330
18
100
AcDbEntity
  8
0
100
AcDbCircle
 10
3.499089513440539
 20
4.729182196278641
 30
0.0
 40
0.007882
100
AcDbArc
 50
159.913247
 51
178.681254
  0
ARC
  5
394
330
18
100
AcDbEntity
  8
0
100
AcDbCircle
 10
3.499089513440539
 20
4.729182196278641
 30
0.0
 40
0.007882
100
AcDbArc
 50
178.681254
 51
197.44926
  0
ARC
  5
395
330
18
100
AcDbEntity
  8
0
100
AcDbCircle
 10
3.497825513440539
 20
4.728785196278641
 30
0.0
 40
0.006556
100
AcDbArc
 50
197.44926
 51
218.045383
  0
ARC
  5
396
330
18
100
AcDbEntity
  8
0
100
AcDbCircle
 10
3.497012513440538
 20
4.728149196278641
 30
0.0
 40
0.005524
100
AcDbArc
 50
218.045383
 51
241.891313
  0
ARC
  5
397
330
18
100
AcDbEntity
  8
0
100
AcDbCircle
 10
3.496479513440539
 20
4.727151196278641
 30
0.0
 40
0.004393
100
AcDbArc
 50
241.891313
 51
268.681254
  0
ARC
  5
398
330
18
100
AcDbEntity
  8
0
100
AcDbCircle
 10
3.496479513440539
 20
4.657062196278641
 30
0.0
 40
0.004393
100
AcDbArc
 50
268.681254
 51
295.471194
  0
ARC
  5
399
330
18
100
AcDbEntity
  8
0
100
AcDbCircle
 10
3.495993513440538
 20
4.658083196278641
 30
0.0
 40
0.005524
100
AcDbArc
 50
295.471194
 51
319.317124
  0
ARC
  5
39A
330
18
100
AcDbEntity
  8
0
100
AcDbCircle
 10
3.495210513440538
 20
4.658756196278641
 30
0.0
 40
0.006556
100
AcDbArc
 50
319.317124
 51
339.913247
  0
ARC
  5
39B
330
18
100
AcDbEntity
  8
0
100
AcDbCircle
 10
3.493966513440538
 20
4.65921119627864
 30
0.0
 40
0.007882
100
AcDbArc
 50
339.913247
 51
358.681254
  0
ARC
  5
39C
330
18
100
AcDbEntity
  8
0
100
AcDbCircle
 10
3.493966513440538
 20
4.65921119627864
 30
0.0
 40
0.007882
100
AcDbArc
 50
358.681254
 51
17.44926
  0
ARC
  5
39D
330
18
100
AcDbEntity
  8
0
100
AcDbCircle
 10
3.495230513440538
 20
4.659608196278641
 30
0.0
 40
0.006556
100
AcDbArc
 50
17.44926
 51
38.045383
  0
ARC
  5
39E
330
18
100
AcDbEntity
  8
0
100
AcDbCircle
 10
3.496043513440538
 20
4.66024519627864
 30
0.0
 40
0.005524
100
AcDbArc
 50
38.045383
 51
61.891313
  0
ARC
  5
39F
330
18
100
AcDbEntity
  8
0
100
AcDbCircle
 10
3.496576513440538
 20
4.66124219627864
 30
0.0
 40
0.004393
100
AcDbArc
 50
61.891313
 51
88.68125400000001
  0
ARC
  5
3A0
330
18
100
AcDbEntity
  8
0
100
AcDbCircle
 10
3.496576513440538
 20
4.66124219627864
 30
0.0
 40
0.004393
100
AcDbArc
 50
88.68125400000001
 51
115.471194
  0
ARC
  5
3A1
330
18
100
AcDbEntity
  8
0
100
AcDbCircle
 10
3.497062513440539
 20
4.66022119627864
 30
0.0
 40
0.005524
100
AcDbArc
 50
115.471194
 51
139.317124
  0
ARC
  5
3A2
330
18
100
AcDbEntity
  8
0
100
AcDbCircle
 10
3.497845513440539
 20
4.659548196278641
 30
0.0
 40
0.006556
100
AcDbArc
 50
139.317124
 51
159.913247
  0
ARC
  5
3A3
330
18
100
AcDbEntity
  8
0
100
AcDbCircle
 10
3.499089513440539
 20
4.659093196278641
 30
0.0
 40
0.007882
100
AcDbArc
 50
159.913247
 51
178.681254
  0
ARC
  5
3A4
330
18
100
AcDbEntity
  8
0
100
AcDbCircle
 10
3.499089513440539
 20
4.659093196278641
 30
0.0
 40
0.007882
100
AcDbArc
 50
178.681254
 51
197.44926
  0
ARC
  5
3A5
330
18
100
AcDbEntity
  8
0
100
AcDbCircle
 10
3.497825513440539
 20
4.65869619627864
 30
0.0
 40
0.006556
100
AcDbArc
 50
197.44926
 51
218.045383
  0
ARC
  5
3A6
330
18
100
AcDbEntity
  8
0
100
AcDbCircle
 10
3.497012513440538
 20
4.65806019627864
 30
0.0
 40
0.005524
100
AcDbArc
 50
218.045383
 51
241.891313
  0
ARC
  5
3A7
330
18
100
AcDbEntity
  8
0
100
AcDbCircle
 10
3.496479513440539
 20
4.657062196278641
 30
0.0
 40
0.004393
100
AcDbArc
 50
241.891313
 51
268.681254
  0
ARC
  5
3A8
330
18
100
AcDbEntity
  8
0
100
AcDbCircle
 10
3.496479513440539
 20
4.550958196278641
 30
0.0
 40
0.004393
100
AcDbArc
 50
268.681254
 51
295.471194
  0
ARC
  5
3A9
330
18
100
AcDbEntity
  8
0
100
AcDbCircle
 10
3.495993513440538
 20
4.551979196278641
 30
0.0
 40
0.005524
100
AcDbArc
 50
295.471194
 51
319.317124
  0
ARC
  5
3AA
330
18
100
AcDbEntity
  8
0
100
AcDbCircle
 10
3.495210513440538
 20
4.552652196278642
 30
0.0
 40
0.006556
100
AcDbArc
 50
319.317124
 51
339.913247
  0
ARC
  5
3AB
330
18
100
AcDbEntity
  8
0
100
AcDbCircle
 10
3.493966513440538
 20
4.55310719627864
 30
0.0
 40
0.007882
100
AcDbArc
 50
339.913247
 51
358.681254
  0
ARC
  5
3AC
330
18
100
AcDbEntity
  8
0
100
AcDbCircle
 10
3.493966513440538
 20
4.55310719627864
 30
0.0
 40
0.007882
100
AcDbArc
 50
358.681254
 51
17.44926
  0
ARC
  5
3AD
330
18
100
AcDbEntity
  8
0
100
AcDbCircle
 10
3.495230513440538
 20
4.553504196278641
 30
0.0
 40
0.006556
100
AcDbArc
 50
17.44926
 51
38.045383
  0
ARC
  5
3AE
330
18
100
AcDbEntity
  8
0
100
AcDbCircle
 10
3.496043513440538
 20
4.554140196278641
 30
0.0
 40
0.005524
100
AcDbArc
 50
38.045383
 51
61.891313
  0
ARC
  5
3AF
330
18
100
AcDbEntity
  8
0
100
AcDbCircle
 10
3.496576513440538
 20
4.555138196278641
 30
0.0
 40
0.004393
100
AcDbArc
 50
61.891313
 51
88.68125400000001
  0
ARC
  5
3B0
330
18
100
AcDbEntity
  8
0
100
AcDbCircle
 10
3.496576513440538
 20
4.555138196278641
 30
0.0
 40
0.004393
100
AcDbArc
 50
88.68125400000001
 51
115.471194
  0
ARC
  5
3B1
330
18
100
AcDbEntity
  8
0
100
AcDbCircle
 10
3.497062513440539
 20
4.55411719627864
 30
0.0
 40
0.005524
100
AcDbArc
 50
115.471194
 51
139.317124
  0
ARC
  5
3B2
330
18
100
AcDbEntity
  8
0
100
AcDbCircle
 10
3.497845513440539
 20
4.553444196278641
 30
0.0
 40
0.006556
100
AcDbArc
 50
139.317124
 51
159.913247
  0
ARC
  5
3B3
330
18
100
AcDbEntity
  8
0
100
AcDbCircle
 10
3.499089513440539
 20
4.552989196278641
 30
0.0
 40
0.007882
100
AcDbArc
 50
159.913247
 51
178.681254
  0
ARC
  5
3B4
330
18
100
AcDbEntity
  8
0
100
AcDbCircle
 10
3.499089513440539
 20
4.552989196278641
 30
0.0
 40
0.007882
100
AcDbArc
 50
178.681254
 51
197.44926
  0
ARC
  5
3B5
330
18
100
AcDbEntity
  8
0
100
AcDbCircle
 10
3.497825513440539
 20
4.552591196278641
 30
0.0
 40
0.006556
100
AcDbArc
 50
197.44926
 51
218.045383
  0
ARC
  5
3B6
330
18
100
AcDbEntity
  8
0
100
AcDbCircle
 10
3.497012513440538
 20
4.551955196278641
 30
0.0
 40
0.005524
100
AcDbArc
 50
218.045383
 51
241.891313
  0
ARC
  5
3B7
330
18
100
AcDbEntity
  8
0
100
AcDbCircle
 10
3.496479513440539
 20
4.550958196278641
 30
0.0
 40
0.004393
100
AcDbArc
 50
241.891313
 51
268.681254
  0
ARC
  5
3B8
330
18
100
AcDbEntity
  8
0
100
AcDbCircle
 10
3.496479513440539
 20
4.472881196278641
 30
0.0
 40
0.004393
100
AcDbArc
 50
268.681254
 51
295.471194
  0
ARC
  5
3B9
330
18
100
AcDbEntity
  8
0
100
AcDbCircle
 10
3.495993513440538
 20
4.473902196278641
 30
0.0
 40
0.005524
100
AcDbArc
 50
295.471194
 51
319.317124
  0
ARC
  5
3BA
330
18
100
AcDbEntity
  8
0
100
AcDbCircle
 10
3.495210513440538
 20
4.474575196278641
 30
0.0
 40
0.006556
100
AcDbArc
 50
319.317124
 51
339.913247
  0
ARC
  5
3BB
330
18
100
AcDbEntity
  8
0
100
AcDbCircle
 10
3.493966513440538
 20
4.475030196278641
 30
0.0
 40
0.007882
100
AcDbArc
 50
339.913247
 51
358.681254
  0
ARC
  5
3BC
330
18
100
AcDbEntity
  8
0
100
AcDbCircle
 10
3.493966513440538
 20
4.475030196278641
 30
0.0
 40
0.007882
100
AcDbArc
 50
358.681254
 51
17.44926
  0
ARC
  5
3BD
330
18
100
AcDbEntity
  8
0
100
AcDbCircle
 10
3.495230513440538
 20
4.475427196278641
 30
0.0
 40
0.006556
100
AcDbArc
 50
17.44926
 51
38.045383
  0
ARC
  5
3BE
330
18
100
AcDbEntity
  8
0
100
AcDbCircle
 10
3.496043513440538
 20
4.476064196278641
 30
0.0
 40
0.005524
100
AcDbArc
 50
38.045383
 51
61.891313
  0
ARC
  5
3BF
330
18
100
AcDbEntity
  8
0
100
AcDbCircle
 10
3.496576513440538
 20
4.47706119627864
 30
0.0
 40
0.004393
100
AcDbArc
 50
61.891313
 51
88.68125400000001
  0
ARC
  5
3C0
330
18
100
AcDbEntity
  8
0
100
AcDbCircle
 10
3.496576513440538
 20
4.47706119627864
 30
0.0
 40
0.004393
100
AcDbArc
 50
88.68125400000001
 51
115.471194
  0
ARC
  5
3C1
330
18
100
AcDbEntity
  8
0
100
AcDbCircle
 10
3.497062513440539
 20
4.476040196278641
 30
0.0
 40
0.005524
100
AcDbArc
 50
115.471194
 51
139.317124
  0
ARC
  5
3C2
330
18
100
AcDbEntity
  8
0
100
AcDbCircle
 10
3.497845513440539
 20
4.475367196278641
 30
0.0
 40
0.006556
100
AcDbArc
 50
139.317124
 51
159.913247
  0
ARC
  5
3C3
330
18
100
AcDbEntity
  8
0
100
AcDbCircle
 10
3.499089513440539
 20
4.474912196278641
 30
0.0
 40
0.007882
100
AcDbArc
 50
159.913247
 51
178.681254
  0
ARC
  5
3C4
330
18
100
AcDbEntity
  8
0
100
AcDbCircle
 10
3.499089513440539
 20
4.474912196278641
 30
0.0
 40
0.007882
100
AcDbArc
 50
178.681254
 51
197.44926
  0
ARC
  5
3C5
330
18
100
AcDbEntity
  8
0
100
AcDbCircle
 10
3.497825513440539
 20
4.474515196278641
 30
0.0
 40
0.006556
100
AcDbArc
 50
197.44926
 51
218.045383
  0
ARC
  5
3C6
330
18
100
AcDbEntity
  8
0
100
AcDbCircle
 10
3.497012513440538
 20
4.473878196278641
 30
0.0
 40
0.005524
100
AcDbArc
 50
218.045383
 51
241.891313
  0
ARC
  5
3C7
330
18
100
AcDbEntity
  8
0
100
AcDbCircle
 10
3.496479513440539
 20
4.472881196278641
 30
0.0
 40
0.004393
100
AcDbArc
 50
241.891313
 51
268.681254
  0
ARC
  5
3C8
330
18
100
AcDbEntity
  8
0
100
AcDbCircle
 10
3.496479513440539
 20
4.41381119627864
 30
0.0
 40
0.004393
100
AcDbArc
 50
268.681254
 51
295.471194
  0
ARC
  5
3C9
330
18
100
AcDbEntity
  8
0
100
AcDbCircle
 10
3.495993513440538
 20
4.414832196278641
 30
0.0
 40
0.005524
100
AcDbArc
 50
295.471194
 51
319.317124
  0
ARC
  5
3CA
330
18
100
AcDbEntity
  8
0
100
AcDbCircle
 10
3.495210513440538
 20
4.415505196278641
 30
0.0
 40
0.006556
100
AcDbArc
 50
319.317124
 51
339.913247
  0
ARC
  5
3CB
330
18
100
AcDbEntity
  8
0
100
AcDbCircle
 10
3.493966513440538
 20
4.415960196278641
 30
0.0
 40
0.007882
100
AcDbArc
 50
339.913247
 51
358.681254
  0
ARC
  5
3CC
330
18
100
AcDbEntity
  8
0
100
AcDbCircle
 10
3.493966513440538
 20
4.415960196278641
 30
0.0
 40
0.007882
100
AcDbArc
 50
358.681254
 51
17.44926
  0
ARC
  5
3CD
330
18
100
AcDbEntity
  8
0
100
AcDbCircle
 10
3.495230513440538
 20
4.416357196278641
 30
0.0
 40
0.006556
100
AcDbArc
 50
17.44926
 51
38.045383
  0
ARC
  5
3CE
330
18
100
AcDbEntity
  8
0
100
AcDbCircle
 10
3.496043513440538
 20
4.416993196278641
 30
0.0
 40
0.005524
100
AcDbArc
 50
38.045383
 51
61.891313
  0
ARC
  5
3CF
330
18
100
AcDbEntity
  8
0
100
AcDbCircle
 10
3.496576513440538
 20
4.417991196278641
 30
0.0
 40
0.004393
100
AcDbArc
 50
61.891313
 51
88.68125400000001
  0
ARC
  5
3D0
330
18
100
AcDbEntity
  8
0
100
AcDbCircle
 10
3.496576513440538
 20
4.417991196278641
 30
0.0
 40
0.004393
100
AcDbArc
 50
88.68125400000001
 51
115.471194
  0
ARC
  5
3D1
330
18
100
AcDbEntity
  8
0
100
AcDbCircle
 10
3.497062513440539
 20
4.416970196278641
 30
0.0
 40
0.005524
100
AcDbArc
 50
115.471194
 51
139.317124
  0
ARC
  5
3D2
330
18
100
AcDbEntity
  8
0
100
AcDbCircle
 10
3.497845513440539
 20
4.416297196278641
 30
0.0
 40
0.006556
100
AcDbArc
 50
139.317124
 51
159.913247
  0
ARC
  5
3D3
330
18
100
AcDbEntity
  8
0
100
AcDbCircle
 10
3.499089513440539
 20
4.415842196278641
 30
0.0
 40
0.007882
100
AcDbArc
 50
159.913247
 51
178.681254
  0
ARC
  5
3D4
330
18
100
AcDbEntity
  8
0
100
AcDbCircle
 10
3.499089513440539
 20
4.415842196278641
 30
0.0
 40
0.007882
100
AcDbArc
 50
178.681254
 51
197.44926
  0
ARC
  5
3D5
330
18
100
AcDbEntity
  8
0
100
AcDbCircle
 10
3.497825513440539
 20
4.415445196278641
 30
0.0
 40
0.006556
100
AcDbArc
 50
197.44926
 51
218.045383
  0
ARC
  5
3D6
330
18
100
AcDbEntity
  8
0
100
AcDbCircle
 10
3.497012513440538
 20
4.414808196278641
 30
0.0
 40
0.005524
100
AcDbArc
 50
218.045383
 51
241.891313
  0
ARC
  5
3D7
330
18
100
AcDbEntity
  8
0
100
AcDbCircle
 10
3.496479513440539
 20
4.41381119627864
 30
0.0
 40
0.004393
100
AcDbArc
 50
241.891313
 51
268.681254
  0
ARC
  5
3D8
330
18
100
AcDbEntity
  8
0
100
AcDbCircle
 10
3.560470513440539
 20
4.43208519627864
 30
0.0
 40
0.004393
100
AcDbArc
 50
268.681254
 51
295.471194
  0
ARC
  5
3D9
330
18
100
AcDbEntity
  8
0
100
AcDbCircle
 10
3.559984513440539
 20
4.433106196278641
 30
0.0
 40
0.005524
100
AcDbArc
 50
295.471194
 51
319.317124
  0
ARC
  5
3DA
330
18
100
AcDbEntity
  8
0
100
AcDbCircle
 10
3.559201513440538
 20
4.433779196278641
 30
0.0
 40
0.006556
100
AcDbArc
 50
319.317124
 51
339.913247
  0
ARC
  5
3DB
330
18
100
AcDbEntity
  8
0
100
AcDbCircle
 10
3.557957513440539
 20
4.434234196278641
 30
0.0
 40
0.007882
100
AcDbArc
 50
339.913247
 51
358.681254
  0
ARC
  5
3DC
330
18
100
AcDbEntity
  8
0
100
AcDbCircle
 10
3.557957513440539
 20
4.434234196278641
 30
0.0
 40
0.007882
100
AcDbArc
 50
358.681254
 51
17.44926
  0
ARC
  5
3DD
330
18
100
AcDbEntity
  8
0
100
AcDbCircle
 10
3.559221513440539
 20
4.434631196278641
 30
0.0
 40
0.006556
100
AcDbArc
 50
17.44926
 51
38.045383
  0
ARC
  5
3DE
330
18
100
AcDbEntity
  8
0
100
AcDbCircle
 10
3.560034513440539
 20
4.435268196278641
 30
0.0
 40
0.005524
100
AcDbArc
 50
38.045383
 51
61.891313
  0
ARC
  5
3DF
330
18
100
AcDbEntity
  8
0
100
AcDbCircle
 10
3.560567513440538
 20
4.436265196278641
 30
0.0
 40
0.004393
100
AcDbArc
 50
61.891313
 51
88.68125400000001
  0
ARC
  5
3E0
330
18
100
AcDbEntity
  8
0
100
AcDbCircle
 10
3.560567513440538
 20
4.436265196278641
 30
0.0
 40
0.004393
100
AcDbArc
 50
88.68125400000001
 51
115.471194
  0
ARC
  5
3E1
330
18
100
AcDbEntity
  8
0
100
AcDbCircle
 10
3.561053513440538
 20
4.435244196278641
 30
0.0
 40
0.005524
100
AcDbArc
 50
115.471194
 51
139.317124
  0
ARC
  5
3E2
330
18
100
AcDbEntity
  8
0
100
AcDbCircle
 10
3.561836513440539
 20
4.434571196278641
 30
0.0
 40
0.006556
100
AcDbArc
 50
139.317124
 51
159.913247
  0
ARC
  5
3E3
330
18
100
AcDbEntity
  8
0
100
AcDbCircle
 10
3.563080513440538
 20
4.434116196278641
 30
0.0
 40
0.007882
100
AcDbArc
 50
159.913247
 51
178.681254
  0
ARC
  5
3E4
330
18
100
AcDbEntity
  8
0
100
AcDbCircle
 10
3.563080513440538
 20
4.434116196278641
 30
0.0
 40
0.007882
100
AcDbArc
 50
178.681254
 51
197.44926
  0
ARC
  5
3E5
330
18
100
AcDbEntity
  8
0
100
AcDbCircle
 10
3.561816513440538
 20
4.433719196278641
 30
0.0
 40
0.006556
100
AcDbArc
 50
197.44926
 51
218.045383
  0
ARC
  5
3E6
330
18
100
AcDbEntity
  8
0
100
AcDbCircle
 10
3.561003513440538
 20
4.433082196278641
 30
0.0
 40
0.005524
100
AcDbArc
 50
218.045383
 51
241.891313
  0
ARC
  5
3E7
330
18
100
AcDbEntity
  8
0
100
AcDbCircle
 10
3.560470513440539
 20
4.43208519627864
 30
0.0
 40
0.004393
100
AcDbArc
 50
241.891313
 51
268.681254
  0
ARC
  5
3E8
330
18
100
AcDbEntity
  8
0
100
AcDbCircle
 10
3.555790513440538
 20
4.350985196278641
 30
0.0
 40
0.004393
100
AcDbArc
 50
268.681254
 51
295.471194
  0
ARC
  5
3E9
330
18
100
AcDbEntity
  8
0
100
AcDbCircle
 10
3.555304513440539
 20
4.352006196278641
 30
0.0
 40
0.005524
100
AcDbArc
 50
295.471194
 51
319.317124
  0
ARC
  5
3EA
330
18
100
AcDbEntity
  8
0
100
AcDbCircle
 10
3.554521513440538
 20
4.352679196278641
 30
0.0
 40
0.006556
100
AcDbArc
 50
319.317124
 51
339.913247
  0
ARC
  5
3EB
330
18
100
AcDbEntity
  8
0
100
AcDbCircle
 10
3.553276513440538
 20
4.353134196278641
 30
0.0
 40
0.007882
100
AcDbArc
 50
339.913247
 51
358.681254
  0
ARC
  5
3EC
330
18
100
AcDbEntity
  8
0
100
AcDbCircle
 10
3.553276513440538
 20
4.353134196278641
 30
0.0
 40
0.007882
100
AcDbArc
 50
358.681254
 51
17.44926
  0
ARC
  5
3ED
330
18
100
AcDbEntity
  8
0
100
AcDbCircle
 10
3.554540513440538
 20
4.353532196278641
 30
0.0
 40
0.006556
100
AcDbArc
 50
17.44926
 51
38.045383
  0
ARC
  5
3EE
330
18
100
AcDbEntity
  8
0
100
AcDbCircle
 10
3.555353513440538
 20
4.354168196278641
 30
0.0
 40
0.005524
100
AcDbArc
 50
38.045383
 51
61.891313
  0
ARC
  5
3EF
330
18
100
AcDbEntity
  8
0
100
AcDbCircle
 10
3.555886513440539
 20
4.355165196278641
 30
0.0
 40
0.004393
100
AcDbArc
 50
61.891313
 51
88.68125400000001
  0
ARC
  5
3F0
330
18
100
AcDbEntity
  8
0
100
AcDbCircle
 10
3.555886513440539
 20
4.355165196278641
 30
0.0
 40
0.004393
100
AcDbArc
 50
88.68125400000001
 51
115.471194
  0
ARC
  5
3F1
330
18
100
AcDbEntity
  8
0
100
AcDbCircle
 10
3.556373513440539
 20
4.354144196278641
 30
0.0
 40
0.005524
100
AcDbArc
 50
115.471194
 51
139.317124
  0
ARC
  5
3F2
330
18
100
AcDbEntity
  8
0
100
AcDbCircle
 10
3.557155513440538
 20
4.35347119627864
 30
0.0
 40
0.006556
100
AcDbArc
 50
139.317124
 51
159.913247
  0
ARC
  5
3F3
330
18
100
AcDbEntity
  8
0
100
AcDbCircle
 10
3.558400513440539
 20
4.353016196278641
 30
0.0
 40
0.007882
100
AcDbArc
 50
159.913247
 51
178.681254
  0
ARC
  5
3F4
330
18
100
AcDbEntity
  8
0
100
AcDbCircle
 10
3.558400513440539
 20
4.353016196278641
 30
0.0
 40
0.007882
100
AcDbArc
 50
178.681254
 51
197.44926
  0
ARC
  5
3F5
330
18
100
AcDbEntity
  8
0
100
AcDbCircle
 10
3.557136513440539
 20
4.352619196278641
 30
0.0
 40
0.006556
100
AcDbArc
 50
197.44926
 51
218.045383
  0
ARC
  5
3F6
330
18
100
AcDbEntity
  8
0
100
AcDbCircle
 10
3.556323513440538
 20
4.351983196278641
 30
0.0
 40
0.005524
100
AcDbArc
 50
218.045383
 51
241.891313
  0
ARC
  5
3F7
330
18
100
AcDbEntity
  8
0
100
AcDbCircle
 10
3.555790513440538
 20
4.350985196278641
 30
0.0
 40
0.004393
100
AcDbArc
 50
241.891313
 51
268.681254
  0
ARC
  5
3F8
330
18
100
AcDbEntity
  8
0
100
AcDbCircle
 10
3.527674513440538
 20
4.378048196278641
 30
0.0
 40
0.012552
100
AcDbArc
 50
268.681254
 51
295.471194
  0
ARC
  5
3F9
330
18
100
AcDbEntity
  8
0
100
AcDbCircle
 10
3.526284513440539
 20
4.380964196278641
 30
0.0
 40
0.015783
100
AcDbArc
 50
295.471194
 51
319.317124
  0
ARC
  5
3FA
330
18
100
AcDbEntity
  8
0
100
AcDbCircle
 10
3.524048513440539
 20
4.382887196278641
 30
0.0
 40
0.018733
100
AcDbArc
 50
319.317124
 51
339.913247
  0
ARC
  5
3FB
330
18
100
AcDbEntity
  8
0
100
AcDbCircle
 10
3.520492513440538
 20
4.38418819627864
 30
0.0
 40
0.022519
100
AcDbArc
 50
339.913247
 51
358.681254
  0
ARC
  5
3FC
330
18
100
AcDbEntity
  8
0
100
AcDbCircle
 10
3.520492513440538
 20
4.38418819627864
 30
0.0
 40
0.022519
100
AcDbArc
 50
358.681254
 51
17.44926
  0
ARC
  5
3FD
330
18
100
AcDbEntity
  8
0
100
AcDbCircle
 10
3.524104513440538
 20
4.385323196278641
 30
0.0
 40
0.018733
100
AcDbArc
 50
17.44926
 51
38.045383
  0
ARC
  5
3FE
330
18
100
AcDbEntity
  8
0
100
AcDbCircle
 10
3.526427513440539
 20
4.387141196278641
 30
0.0
 40
0.015783
100
AcDbArc
 50
38.045383
 51
61.891313
  0
ARC
  5
3FF
330
18
100
AcDbEntity
  8
0
100
AcDbCircle
 10
3.527949513440539
 20
4.389990196278641
 30
0.0
 40
0.012552
100
AcDbArc
 50
61.891313
 51
88.68125400000001
  0
ARC
  5
400
330
18
100
AcDbEntity
  8
0
100
AcDbCircle
 10
3.527949513440539
 20
4.389990196278641
 30
0.0
 40
0.012552
100
AcDbArc
 50
88.68125400000001
 51
115.471194
  0
ARC
  5
401
330
18
100
AcDbEntity
  8
0
100
AcDbCircle
 10
3.529338513440538
 20
4.387074196278641
 30
0.0
 40
0.015783
100
AcDbArc
 50
115.471194
 51
139.317124
  0
ARC
  5
402
330
18
100
AcDbEntity
  8
0
100
AcDbCircle
 10
3.531575513440538
 20
4.385151196278641
 30
0.0
 40
0.018733
100
AcDbArc
 50
139.317124
 51
159.913247
  0
ARC
  5
403
330
18
100
AcDbEntity
  8
0
100
AcDbCircle
 10
3.535131513440538
 20
4.383851196278641
 30
0.0
 40
0.022519
100
AcDbArc
 50
159.913247
 51
178.681254
  0
ARC
  5
404
330
18
100
AcDbEntity
  8
0
100
AcDbCircle
 10
3.535131513440538
 20
4.383851196278641
 30
0.0
 40
0.022519
100
AcDbArc
 50
178.681254
 51
197.44926
  0
ARC
  5
405
330
18
100
AcDbEntity
  8
0
100
AcDbCircle
 10
3.531519513440538
 20
4.382715196278641
 30
0.0
 40
0.018733
100
AcDbArc
 50
197.44926
 51
218.045383
  0
ARC
  5
406
330
18
100
AcDbEntity
  8
0
100
AcDbCircle
 10
3.529196513440539
 20
4.380897196278641
 30
0.0
 40
0.015783
100
AcDbArc
 50
218.045383
 51
241.891313
  0
ARC
  5
407
330
18
100
AcDbEntity
  8
0
100
AcDbCircle
 10
3.527674513440538
 20
4.378048196278641
 30
0.0
 40
0.012552
100
AcDbArc
 50
241.891313
 51
268.681254
  0
ARC
  5
408
330
18
100
AcDbEntity
  8
0
100
AcDbCircle
 10
3.524935513440538
 20
5.298290196278641
 30
0.0
 40
0.009374
100
AcDbArc
 50
251.203805
 51
279.246955
  0
ARC
  5
409
330
18
100
AcDbEntity
  8
0
100
AcDbCircle
 10
3.524411513440539
 20
5.301512196278641
 30
0.0
 40
0.012638
100
AcDbArc
 50
279.246955
 51
303.334845
  0
ARC
  5
40A
330
18
100
AcDbEntity
  8
0
100
AcDbCircle
 10
3.522732513440539
 20
5.304064196278641
 30
0.0
 40
0.015693
100
AcDbArc
 50
303.334845
 51
323.350251
  0
ARC
  5
40B
330
18
100
AcDbEntity
  8
0
100
AcDbCircle
 10
3.519531513440538
 20
5.306445196278641
 30
0.0
 40
0.019682
100
AcDbArc
 50
323.350251
 51
341.203805
  0
ARC
  5
40C
330
18
100
AcDbEntity
  8
0
100
AcDbCircle
 10
3.519531513440538
 20
5.306445196278641
 30
0.0
 40
0.019682
100
AcDbArc
 50
341.203805
 51
359.057359
  0
ARC
  5
40D
330
18
100
AcDbEntity
  8
0
100
AcDbCircle
 10
3.523520513440539
 20
5.306380196278641
 30
0.0
 40
0.015693
100
AcDbArc
 50
359.057359
 51
19.072766
  0
ARC
  5
40E
330
18
100
AcDbEntity
  8
0
100
AcDbCircle
 10
3.526407513440538
 20
5.30737819627864
 30
0.0
 40
0.012638
100
AcDbArc
 50
19.072766
 51
43.160656
  0
ARC
  5
40F
330
18
100
AcDbEntity
  8
0
100
AcDbCircle
 10
3.528789513440539
 20
5.309611196278641
 30
0.0
 40
0.009374
100
AcDbArc
 50
43.160656
 51
71.203805
  0
ARC
  5
410
330
18
100
AcDbEntity
  8
0
100
AcDbCircle
 10
3.528789513440539
 20
5.309611196278641
 30
0.0
 40
0.009374
100
AcDbArc
 50
71.203805
 51
99.246955
  0
ARC
  5
411
330
18
100
AcDbEntity
  8
0
100
AcDbCircle
 10
3.529313513440538
 20
5.306389196278641
 30
0.0
 40
0.012638
100
AcDbArc
 50
99.246955
 51
123.334845
  0
ARC
  5
412
330
18
100
AcDbEntity
  8
0
100
AcDbCircle
 10
3.530992513440538
 20
5.303837196278641
 30
0.0
 40
0.015693
100
AcDbArc
 50
123.334845
 51
143.350251
  0
ARC
  5
413
330
18
100
AcDbEntity
  8
0
100
AcDbCircle
 10
3.534193513440538
 20
5.301455196278641
 30
0.0
 40
0.019682
100
AcDbArc
 50
143.350251
 51
161.203805
  0
ARC
  5
414
330
18
100
AcDbEntity
  8
0
100
AcDbCircle
 10
3.534193513440538
 20
5.301455196278641
 30
0.0
 40
0.019682
100
AcDbArc
 50
161.203805
 51
179.057359
  0
ARC
  5
415
330
18
100
AcDbEntity
  8
0
100
AcDbCircle
 10
3.530204513440538
 20
5.301521196278641
 30
0.0
 40
0.015693
100
AcDbArc
 50
179.057359
 51
199.072766
  0
ARC
  5
416
330
18
100
AcDbEntity
  8
0
100
AcDbCircle
 10
3.527317513440538
 20
5.300523196278641
 30
0.0
 40
0.012638
100
AcDbArc
 50
199.072766
 51
223.160656
  0
ARC
  5
417
330
18
100
AcDbEntity
  8
0
100
AcDbCircle
 10
3.524935513440538
 20
5.298290196278641
 30
0.0
 40
0.009374
100
AcDbArc
 50
223.160656
 51
251.203805
  0
ARC
  5
418
330
18
100
AcDbEntity
  8
0
100
AcDbCircle
 10
3.524935513440538
 20
5.392390196278641
 30
0.0
 40
0.009374
100
AcDbArc
 50
251.203805
 51
279.246955
  0
ARC
  5
419
330
18
100
AcDbEntity
  8
0
100
AcDbCircle
 10
3.524411513440539
 20
5.395612196278641
 30
0.0
 40
0.012638
100
AcDbArc
 50
279.246955
 51
303.334845
  0
ARC
  5
41A
330
18
100
AcDbEntity
  8
0
100
AcDbCircle
 10
3.522732513440539
 20
5.398164196278641
 30
0.0
 40
0.015693
100
AcDbArc
 50
303.334845
 51
323.350251
  0
ARC
  5
41B
330
18
100
AcDbEntity
  8
0
100
AcDbCircle
 10
3.519531513440538
 20
5.400546196278641
 30
0.0
 40
0.019682
100
AcDbArc
 50
323.350251
 51
341.203805
  0
ARC
  5
41C
330
18
100
AcDbEntity
  8
0
100
AcDbCircle
 10
3.519531513440538
 20
5.400546196278641
 30
0.0
 40
0.019682
100
AcDbArc
 50
341.203805
 51
359.057359
  0
ARC
  5
41D
330
18
100
AcDbEntity
  8
0
100
AcDbCircle
 10
3.523520513440539
 20
5.400480196278641
 30
0.0
 40
0.015693
100
AcDbArc
 50
359.057359
 51
19.072766
  0
ARC
  5
41E
330
18
100
AcDbEntity
  8
0
100
AcDbCircle
 10
3.526407513440538
 20
5.401478196278641
 30
0.0
 40
0.012638
100
AcDbArc
 50
19.072766
 51
43.160656
  0
ARC
  5
41F
330
18
100
AcDbEntity
  8
0
100
AcDbCircle
 10
3.528789513440539
 20
5.403712196278641
 30
0.0
 40
0.009374
100
AcDbArc
 50
43.160656
 51
71.203805
  0
ARC
  5
420
330
18
100
AcDbEntity
  8
0
100
AcDbCircle
 10
3.528789513440539
 20
5.403712196278641
 30
0.0
 40
0.009374
100
AcDbArc
 50
71.203805
 51
99.246955
  0
ARC
  5
421
330
18
100
AcDbEntity
  8
0
100
AcDbCircle
 10
3.529313513440538
 20
5.400489196278641
 30
0.0
 40
0.012638
100
AcDbArc
 50
99.246955
 51
123.334845
  0
ARC
  5
422
330
18
100
AcDbEntity
  8
0
100
AcDbCircle
 10
3.530992513440538
 20
5.397937196278641
 30
0.0
 40
0.015693
100
AcDbArc
 50
123.334845
 51
143.350251
  0
ARC
  5
423
330
18
100
AcDbEntity
  8
0
100
AcDbCircle
 10
3.534193513440538
 20
5.395556196278641
 30
0.0
 40
0.019682
100
AcDbArc
 50
143.350251
 51
161.203805
  0
ARC
  5
424
330
18
100
AcDbEntity
  8
0
100
AcDbCircle
 10
3.534193513440538
 20
5.395556196278641
 30
0.0
 40
0.019682
100
AcDbArc
 50
161.203805
 51
179.057359
  0
ARC
  5
425
330
18
100
AcDbEntity
  8
0
100
AcDbCircle
 10
3.530204513440538
 20
5.395622196278641
 30
0.0
 40
0.015693
100
AcDbArc
 50
179.057359
 51
199.072766
  0
ARC
  5
426
330
18
100
AcDbEntity
  8
0
100
AcDbCircle
 10
3.527317513440538
 20
5.394623196278641
 30
0.0
 40
0.012638
100
AcDbArc
 50
199.072766
 51
223.160656
  0
ARC
  5
427
330
18
100
AcDbEntity
  8
0
100
AcDbCircle
 10
3.524935513440538
 20
5.392390196278641
 30
0.0
 40
0.009374
100
AcDbArc
 50
223.160656
 51
251.203805
  0
ARC
  5
428
330
18
100
AcDbEntity
  8
0
100
AcDbCircle
 10
3.524935513440538
 20
5.49046719627864
 30
0.0
 40
0.009374
100
AcDbArc
 50
251.203805
 51
279.246955
  0
ARC
  5
429
330
18
100
AcDbEntity
  8
0
100
AcDbCircle
 10
3.524411513440539
 20
5.49368919627864
 30
0.0
 40
0.012638
100
AcDbArc
 50
279.246955
 51
303.334845
  0
ARC
  5
42A
330
18
100
AcDbEntity
  8
0
100
AcDbCircle
 10
3.522732513440539
 20
5.496241196278641
 30
0.0
 40
0.015693
100
AcDbArc
 50
303.334845
 51
323.350251
  0
ARC
  5
42B
330
18
100
AcDbEntity
  8
0
100
AcDbCircle
 10
3.519531513440538
 20
5.498622196278641
 30
0.0
 40
0.019682
100
AcDbArc
 50
323.350251
 51
341.203805
  0
ARC
  5
42C
330
18
100
AcDbEntity
  8
0
100
AcDbCircle
 10
3.519531513440538
 20
5.498622196278641
 30
0.0
 40
0.019682
100
AcDbArc
 50
341.203805
 51
359.057359
  0
ARC
  5
42D
330
18
100
AcDbEntity
  8
0
100
AcDbCircle
 10
3.523520513440539
 20
5.49855719627864
 30
0.0
 40
0.015693
100
AcDbArc
 50
359.057359
 51
19.072766
  0
ARC
  5
42E
330
18
100
AcDbEntity
  8
0
100
AcDbCircle
 10
3.526407513440538
 20
5.499555196278641
 30
0.0
 40
0.012638
100
AcDbArc
 50
19.072766
 51
43.160656
  0
ARC
  5
42F
330
18
100
AcDbEntity
  8
0
100
AcDbCircle
 10
3.528789513440539
 20
5.501788196278641
 30
0.0
 40
0.009374
100
AcDbArc
 50
43.160656
 51
71.203805
  0
ARC
  5
430
330
18
100
AcDbEntity
  8
0
100
AcDbCircle
 10
3.528789513440539
 20
5.501788196278641
 30
0.0
 40
0.009374
100
AcDbArc
 50
71.203805
 51
99.246955
  0
ARC
  5
431
330
18
100
AcDbEntity
  8
0
100
AcDbCircle
 10
3.529313513440538
 20
5.498566196278641
 30
0.0
 40
0.012638
100
AcDbArc
 50
99.246955
 51
123.334845
  0
ARC
  5
432
330
18
100
AcDbEntity
  8
0
100
AcDbCircle
 10
3.530992513440538
 20
5.496014196278641
 30
0.0
 40
0.015693
100
AcDbArc
 50
123.334845
 51
143.350251
  0
ARC
  5
433
330
18
100
AcDbEntity
  8
0
100
AcDbCircle
 10
3.534193513440538
 20
5.49363219627864
 30
0.0
 40
0.019682
100
AcDbArc
 50
143.350251
 51
161.203805
  0
ARC
  5
434
330
18
100
AcDbEntity
  8
0
100
AcDbCircle
 10
3.534193513440538
 20
5.49363219627864
 30
0.0
 40
0.019682
100
AcDbArc
 50
161.203805
 51
179.057359
  0
ARC
  5
435
330
18
100
AcDbEntity
  8
0
100
AcDbCircle
 10
3.530204513440538
 20
5.493698196278641
 30
0.0
 40
0.015693
100
AcDbArc
 50
179.057359
 51
199.072766
  0
ARC
  5
436
330
18
100
AcDbEntity
  8
0
100
AcDbCircle
 10
3.527317513440538
 20
5.492700196278641
 30
0.0
 40
0.012638
100
AcDbArc
 50
199.072766
 51
223.160656
  0
ARC
  5
437
330
18
100
AcDbEntity
  8
0
100
AcDbCircle
 10
3.524935513440538
 20
5.49046719627864
 30
0.0
 40
0.009374
100
AcDbArc
 50
223.160656
 51
251.203805
  0
ARC
  5
438
330
18
100
AcDbEntity
  8
0
100
AcDbCircle
 10
3.472829513440539
 20
5.429210196278641
 30
0.0
 40
0.009374
100
AcDbArc
 50
251.203805
 51
279.246955
  0
ARC
  5
439
330
18
100
AcDbEntity
  8
0
100
AcDbCircle
 10
3.472304513440538
 20
5.432432196278641
 30
0.0
 40
0.012638
100
AcDbArc
 50
279.246955
 51
303.334845
  0
ARC
  5
43A
330
18
100
AcDbEntity
  8
0
100
AcDbCircle
 10
3.470626513440538
 20
5.434984196278641
 30
0.0
 40
0.015693
100
AcDbArc
 50
303.334845
 51
323.350251
  0
ARC
  5
43B
330
18
100
AcDbEntity
  8
0
100
AcDbCircle
 10
3.467425513440539
 20
5.437366196278641
 30
0.0
 40
0.019682
100
AcDbArc
 50
323.350251
 51
341.203805
  0
ARC
  5
43C
330
18
100
AcDbEntity
  8
0
100
AcDbCircle
 10
3.467425513440539
 20
5.437366196278641
 30
0.0
 40
0.019682
100
AcDbArc
 50
341.203805
 51
359.057359
  0
ARC
  5
43D
330
18
100
AcDbEntity
  8
0
100
AcDbCircle
 10
3.471414513440538
 20
5.437300196278641
 30
0.0
 40
0.015693
100
AcDbArc
 50
359.057359
 51
19.072766
  0
ARC
  5
43E
330
18
100
AcDbEntity
  8
0
100
AcDbCircle
 10
3.474301513440539
 20
5.438298196278641
 30
0.0
 40
0.012638
100
AcDbArc
 50
19.072766
 51
43.160656
  0
ARC
  5
43F
330
18
100
AcDbEntity
  8
0
100
AcDbCircle
 10
3.476682513440538
 20
5.440532196278641
 30
0.0
 40
0.009374
100
AcDbArc
 50
43.160656
 51
71.203805
  0
ARC
  5
440
330
18
100
AcDbEntity
  8
0
100
AcDbCircle
 10
3.476682513440538
 20
5.440532196278641
 30
0.0
 40
0.009374
100
AcDbArc
 50
71.203805
 51
99.246955
  0
ARC
  5
441
330
18
100
AcDbEntity
  8
0
100
AcDbCircle
 10
3.477207513440539
 20
5.437309196278641
 30
0.0
 40
0.012638
100
AcDbArc
 50
99.246955
 51
123.334845
  0
ARC
  5
442
330
18
100
AcDbEntity
  8
0
100
AcDbCircle
 10
3.478885513440538
 20
5.434757196278641
 30
0.0
 40
0.015693
100
AcDbArc
 50
123.334845
 51
143.350251
  0
ARC
  5
443
330
18
100
AcDbEntity
  8
0
100
AcDbCircle
 10
3.482086513440539
 20
5.432376196278641
 30
0.0
 40
0.019682
100
AcDbArc
 50
143.350251
 51
161.203805
  0
ARC
  5
444
330
18
100
AcDbEntity
  8
0
100
AcDbCircle
 10
3.482086513440539
 20
5.432376196278641
 30
0.0
 40
0.019682
100
AcDbArc
 50
161.203805
 51
179.057359
  0
ARC
  5
445
330
18
100
AcDbEntity
  8
0
100
AcDbCircle
 10
3.478097513440538
 20
5.43244219627864
 30
0.0
 40
0.015693
100
AcDbArc
 50
179.057359
 51
199.072766
  0
ARC
  5
446
330
18
100
AcDbEntity
  8
0
100
AcDbCircle
 10
3.475210513440539
 20
5.431443196278641
 30
0.0
 40
0.012638
100
AcDbArc
 50
199.072766
 51
223.160656
  0
ARC
  5
447
330
18
100
AcDbEntity
  8
0
100
AcDbCircle
 10
3.472829513440539
 20
5.429210196278641
 30
0.0
 40
0.009374
100
AcDbArc
 50
223.160656
 51
251.203805
  0
ARC
  5
448
330
18
100
AcDbEntity
  8
0
100
AcDbCircle
 10
3.472829513440539
 20
5.338117196278641
 30
0.0
 40
0.009374
100
AcDbArc
 50
251.203805
 51
279.246955
  0
ARC
  5
449
330
18
100
AcDbEntity
  8
0
100
AcDbCircle
 10
3.472304513440538
 20
5.341339196278641
 30
0.0
 40
0.012638
100
AcDbArc
 50
279.246955
 51
303.334845
  0
ARC
  5
44A
330
18
100
AcDbEntity
  8
0
100
AcDbCircle
 10
3.470626513440538
 20
5.343891196278641
 30
0.0
 40
0.015693
100
AcDbArc
 50
303.334845
 51
323.350251
  0
ARC
  5
44B
330
18
100
AcDbEntity
  8
0
100
AcDbCircle
 10
3.467425513440539
 20
5.346272196278641
 30
0.0
 40
0.019682
100
AcDbArc
 50
323.350251
 51
341.203805
  0
ARC
  5
44C
330
18
100
AcDbEntity
  8
0
100
AcDbCircle
 10
3.467425513440539
 20
5.346272196278641
 30
0.0
 40
0.019682
100
AcDbArc
 50
341.203805
 51
359.057359
  0
ARC
  5
44D
330
18
100
AcDbEntity
  8
0
100
AcDbCircle
 10
3.471414513440538
 20
5.346207196278641
 30
0.0
 40
0.015693
100
AcDbArc
 50
359.057359
 51
19.072766
  0
ARC
  5
44E
330
18
100
AcDbEntity
  8
0
100
AcDbCircle
 10
3.474301513440539
 20
5.347205196278641
 30
0.0
 40
0.012638
100
AcDbArc
 50
19.072766
 51
43.160656
  0
ARC
  5
44F
330
18
100
AcDbEntity
  8
0
100
AcDbCircle
 10
3.476682513440538
 20
5.349438196278641
 30
0.0
 40
0.009374
100
AcDbArc
 50
43.160656
 51
71.203805
  0
ARC
  5
450
330
18
100
AcDbEntity
  8
0
100
AcDbCircle
 10
3.476682513440538
 20
5.349438196278641
 30
0.0
 40
0.009374
100
AcDbArc
 50
71.203805
 51
99.246955
  0
ARC
  5
451
330
18
100
AcDbEntity
  8
0
100
AcDbCircle
 10
3.477207513440539
 20
5.346216196278641
 30
0.0
 40
0.012638
100
AcDbArc
 50
99.246955
 51
123.334845
  0
ARC
  5
452
330
18
100
AcDbEntity
  8
0
100
AcDbCircle
 10
3.478885513440538
 20
5.343664196278641
 30
0.0
 40
0.015693
100
AcDbArc
 50
123.334845
 51
143.350251
  0
ARC
  5
453
330
18
100
AcDbEntity
  8
0
100
AcDbCircle
 10
3.482086513440539
 20
5.341282196278641
 30
0.0
 40
0.019682
100
AcDbArc
 50
143.350251
 51
161.203805
  0
ARC
  5
454
330
18
100
AcDbEntity
  8
0
100
AcDbCircle
 10
3.482086513440539
 20
5.341282196278641
 30
0.0
 40
0.019682
100
AcDbArc
 50
161.203805
 51
179.057359
  0
ARC
  5
455
330
18
100
AcDbEntity
  8
0
100
AcDbCircle
 10
3.478097513440538
 20
5.341348196278641
 30
0.0
 40
0.015693
100
AcDbArc
 50
179.057359
 51
199.072766
  0
ARC
  5
456
330
18
100
AcDbEntity
  8
0
100
AcDbCircle
 10
3.475210513440539
 20
5.34035019627864
 30
0.0
 40
0.012638
100
AcDbArc
 50
199.072766
 51
223.160656
  0
ARC
  5
457
330
18
100
AcDbEntity
  8
0
100
AcDbCircle
 10
3.472829513440539
 20
5.338117196278641
 30
0.0
 40
0.009374
100
AcDbArc
 50
223.160656
 51
251.203805
  0
ARC
  5
458
330
18
100
AcDbEntity
  8
0
100
AcDbCircle
 10
3.472829513440539
 20
5.25402219627864
 30
0.0
 40
0.009374
100
AcDbArc
 50
251.203805
 51
279.246955
  0
ARC
  5
459
330
18
100
AcDbEntity
  8
0
100
AcDbCircle
 10
3.472304513440538
 20
5.257244196278641
 30
0.0
 40
0.012638
100
AcDbArc
 50
279.246955
 51
303.334845
  0
ARC
  5
45A
330
18
100
AcDbEntity
  8
0
100
AcDbCircle
 10
3.470626513440538
 20
5.259796196278641
 30
0.0
 40
0.015693
100
AcDbArc
 50
303.334845
 51
323.350251
  0
ARC
  5
45B
330
18
100
AcDbEntity
  8
0
100
AcDbCircle
 10
3.467425513440539
 20
5.262178196278641
 30
0.0
 40
0.019682
100
AcDbArc
 50
323.350251
 51
341.203805
  0
ARC
  5
45C
330
18
100
AcDbEntity
  8
0
100
AcDbCircle
 10
3.467425513440539
 20
5.262178196278641
 30
0.0
 40
0.019682
100
AcDbArc
 50
341.203805
 51
359.057359
  0
ARC
  5
45D
330
18
100
AcDbEntity
  8
0
100
AcDbCircle
 10
3.471414513440538
 20
5.262112196278641
 30
0.0
 40
0.015693
100
AcDbArc
 50
359.057359
 51
19.072766
  0
ARC
  5
45E
330
18
100
AcDbEntity
  8
0
100
AcDbCircle
 10
3.474301513440539
 20
5.263110196278641
 30
0.0
 40
0.012638
100
AcDbArc
 50
19.072766
 51
43.160656
  0
ARC
  5
45F
330
18
100
AcDbEntity
  8
0
100
AcDbCircle
 10
3.476682513440538
 20
5.265343196278641
 30
0.0
 40
0.009374
100
AcDbArc
 50
43.160656
 51
71.203805
  0
ARC
  5
460
330
18
100
AcDbEntity
  8
0
100
AcDbCircle
 10
3.476682513440538
 20
5.265343196278641
 30
0.0
 40
0.009374
100
AcDbArc
 50
71.203805
 51
99.246955
  0
ARC
  5
461
330
18
100
AcDbEntity
  8
0
100
AcDbCircle
 10
3.477207513440539
 20
5.262121196278641
 30
0.0
 40
0.012638
100
AcDbArc
 50
99.246955
 51
123.334845
  0
ARC
  5
462
330
18
100
AcDbEntity
  8
0
100
AcDbCircle
 10
3.478885513440538
 20
5.259569196278641
 30
0.0
 40
0.015693
100
AcDbArc
 50
123.334845
 51
143.350251
  0
ARC
  5
463
330
18
100
AcDbEntity
  8
0
100
AcDbCircle
 10
3.482086513440539
 20
5.257187196278641
 30
0.0
 40
0.019682
100
AcDbArc
 50
143.350251
 51
161.203805
  0
ARC
  5
464
330
18
100
AcDbEntity
  8
0
100
AcDbCircle
 10
3.482086513440539
 20
5.257187196278641
 30
0.0
 40
0.019682
100
AcDbArc
 50
161.203805
 51
179.057359
  0
ARC
  5
465
330
18
100
AcDbEntity
  8
0
100
AcDbCircle
 10
3.478097513440538
 20
5.257253196278641
 30
0.0
 40
0.015693
100
AcDbArc
 50
179.057359
 51
199.072766
  0
ARC
  5
466
330
18
100
AcDbEntity
  8
0
100
AcDbCircle
 10
3.475210513440539
 20
5.256255196278641
 30
0.0
 40
0.012638
100
AcDbArc
 50
199.072766
 51
223.160656
  0
ARC
  5
467
330
18
100
AcDbEntity
  8
0
100
AcDbCircle
 10
3.472829513440539
 20
5.25402219627864
 30
0.0
 40
0.009374
100
AcDbArc
 50
223.160656
 51
251.203805
  0
ARC
  5
468
330
18
100
AcDbEntity
  8
0
100
AcDbCircle
 10
3.390555513440539
 20
5.598851196278641
 30
0.0
 40
0.010555
100
AcDbArc
 50
226.865988
 51
251.060336
  0
ARC
  5
469
330
18
100
AcDbEntity
  8
0
100
AcDbCircle
 10
3.390872513440538
 20
5.599774196278641
 30
0.0
 40
0.011531
100
AcDbArc
 50
251.060336
 51
274.192713
  0
ARC
  5
46A
330
18
100
AcDbEntity
  8
0
100
AcDbCircle
 10
3.390810513440538
 20
5.600619196278641
 30
0.0
 40
0.012378
100
AcDbArc
 50
274.192713
 51
295.965746
  0
ARC
  5
46B
330
18
100
AcDbEntity
  8
0
100
AcDbCircle
 10
3.390353513440538
 20
5.601557196278641
 30
0.0
 40
0.013421
100
AcDbArc
 50
295.965746
 51
316.865988
  0
ARC
  5
46C
330
18
100
AcDbEntity
  8
0
100
AcDbCircle
 10
3.390353513440538
 20
5.601557196278641
 30
0.0
 40
0.013421
100
AcDbArc
 50
316.865988
 51
337.766231
  0
ARC
  5
46D
330
18
100
AcDbEntity
  8
0
100
AcDbCircle
 10
3.391318513440539
 20
5.601162196278641
 30
0.0
 40
0.012378
100
AcDbArc
 50
337.766231
 51
359.539264
  0
ARC
  5
46E
330
18
100
AcDbEntity
  8
0
100
AcDbCircle
 10
3.392165513440538
 20
5.601155196278641
 30
0.0
 40
0.011531
100
AcDbArc
 50
359.539264
 51
22.671641
  0
ARC
  5
46F
330
18
100
AcDbEntity
  8
0
100
AcDbCircle
 10
3.393067513440538
 20
5.601532196278641
 30
0.0
 40
0.010555
100
AcDbArc
 50
22.671641
 51
46.865988
  0
ARC
  5
470
330
18
100
AcDbEntity
  8
0
100
AcDbCircle
 10
3.393067513440538
 20
5.601532196278641
 30
0.0
 40
0.010555
100
AcDbArc
 50
46.865988
 51
71.06033599999999
  0
ARC
  5
471
330
18
100
AcDbEntity
  8
0
100
AcDbCircle
 10
3.392750513440539
 20
5.600608196278641
 30
0.0
 40
0.011531
100
AcDbArc
 50
71.06033599999999
 51
94.19271300000001
  0
ARC
  5
472
330
18
100
AcDbEntity
  8
0
100
AcDbCircle
 10
3.392811513440539
 20
5.599763196278641
 30
0.0
 40
0.012378
100
AcDbArc
 50
94.19271300000001
 51
115.965746
  0
ARC
  5
473
330
18
100
AcDbEntity
  8
0
100
AcDbCircle
 10
3.393268513440539
 20
5.598826196278641
 30
0.0
 40
0.013421
100
AcDbArc
 50
115.965746
 51
136.865988
  0
ARC
  5
474
330
18
100
AcDbEntity
  8
0
100
AcDbCircle
 10
3.393268513440539
 20
5.598826196278641
 30
0.0
 40
0.013421
100
AcDbArc
 50
136.865988
 51
157.766231
  0
ARC
  5
475
330
18
100
AcDbEntity
  8
0
100
AcDbCircle
 10
3.392303513440538
 20
5.59922019627864
 30
0.0
 40
0.012378
100
AcDbArc
 50
157.766231
 51
179.539264
  0
ARC
  5
476
330
18
100
AcDbEntity
  8
0
100
AcDbCircle
 10
3.391456513440538
 20
5.599227196278641
 30
0.0
 40
0.011531
100
AcDbArc
 50
179.539264
 51
202.671641
  0
ARC
  5
477
330
18
100
AcDbEntity
  8
0
100
AcDbCircle
 10
3.390555513440539
 20
5.598851196278641
 30
0.0
 40
0.010555
100
AcDbArc
 50
202.671641
 51
226.865988
  0
ARC
  5
478
330
18
100
AcDbEntity
  8
0
100
AcDbCircle
 10
3.439407513440538
 20
5.64809519627864
 30
0.0
 40
0.010555
100
AcDbArc
 50
226.865988
 51
251.060336
  0
ARC
  5
479
330
18
100
AcDbEntity
  8
0
100
AcDbCircle
 10
3.439724513440538
 20
5.649019196278641
 30
0.0
 40
0.011531
100
AcDbArc
 50
251.060336
 51
274.192713
  0
ARC
  5
47A
330
18
100
AcDbEntity
  8
0
100
AcDbCircle
 10
3.439662513440538
 20
5.64986419627864
 30
0.0
 40
0.012378
100
AcDbArc
 50
274.192713
 51
295.965746
  0
ARC
  5
47B
330
18
100
AcDbEntity
  8
0
100
AcDbCircle
 10
3.439205513440538
 20
5.650801196278641
 30
0.0
 40
0.013421
100
AcDbArc
 50
295.965746
 51
316.865988
  0
ARC
  5
47C
330
18
100
AcDbEntity
  8
0
100
AcDbCircle
 10
3.439205513440538
 20
5.650801196278641
 30
0.0
 40
0.013421
100
AcDbArc
 50
316.865988
 51
337.766231
  0
ARC
  5
47D
330
18
100
AcDbEntity
  8
0
100
AcDbCircle
 10
3.440170513440538
 20
5.650407196278641
 30
0.0
 40
0.012378
100
AcDbArc
 50
337.766231
 51
359.539264
  0
ARC
  5
47E
330
18
100
AcDbEntity
  8
0
100
AcDbCircle
 10
3.441017513440539
 20
5.650400196278641
 30
0.0
 40
0.011531
100
AcDbArc
 50
359.539264
 51
22.671641
  0
ARC
  5
47F
330
18
100
AcDbEntity
  8
0
100
AcDbCircle
 10
3.441918513440538
 20
5.650776196278641
 30
0.0
 40
0.010555
100
AcDbArc
 50
22.671641
 51
46.865988
  0
ARC
  5
480
330
18
100
AcDbEntity
  8
0
100
AcDbCircle
 10
3.441918513440538
 20
5.650776196278641
 30
0.0
 40
0.010555
100
AcDbArc
 50
46.865988
 51
71.06033599999999
  0
ARC
  5
481
330
18
100
AcDbEntity
  8
0
100
AcDbCircle
 10
3.441601513440538
 20
5.649853196278641
 30
0.0
 40
0.011531
100
AcDbArc
 50
71.06033599999999
 51
94.19271300000001
  0
ARC
  5
482
330
18
100
AcDbEntity
  8
0
100
AcDbCircle
 10
3.441663513440538
 20
5.649008196278641
 30
0.0
 40
0.012378
100
AcDbArc
 50
94.19271300000001
 51
115.965746
  0
ARC
  5
483
330
18
100
AcDbEntity
  8
0
100
AcDbCircle
 10
3.442120513440539
 20
5.64807019627864
 30
0.0
 40
0.013421
100
AcDbArc
 50
115.965746
 51
136.865988
  0
ARC
  5
484
330
18
100
AcDbEntity
  8
0
100
AcDbCircle
 10
3.442120513440539
 20
5.64807019627864
 30
0.0
 40
0.013421
100
AcDbArc
 50
136.865988
 51
157.766231
  0
ARC
  5
485
330
18
100
AcDbEntity
  8
0
100
AcDbCircle
 10
3.441155513440538
 20
5.648465196278641
 30
0.0
 40
0.012378
100
AcDbArc
 50
157.766231
 51
179.539264
  0
ARC
  5
486
330
18
100
AcDbEntity
  8
0
100
AcDbCircle
 10
3.440308513440538
 20
5.64847219627864
 30
0.0
 40
0.011531
100
AcDbArc
 50
179.539264
 51
202.671641
  0
ARC
  5
487
330
18
100
AcDbEntity
  8
0
100
AcDbCircle
 10
3.439407513440538
 20
5.64809519627864
 30
0.0
 40
0.010555
100
AcDbArc
 50
202.671641
 51
226.865988
  0
ARC
  5
488
330
18
100
AcDbEntity
  8
0
100
AcDbCircle
 10
3.480643513440539
 20
5.599211196278641
 30
0.0
 40
0.010555
100
AcDbArc
 50
226.865988
 51
251.060336
  0
ARC
  5
489
330
18
100
AcDbEntity
  8
0
100
AcDbCircle
 10
3.480960513440539
 20
5.60013519627864
 30
0.0
 40
0.011531
100
AcDbArc
 50
251.060336
 51
274.192713
  0
ARC
  5
48A
330
18
100
AcDbEntity
  8
0
100
AcDbCircle
 10
3.480898513440539
 20
5.600980196278641
 30
0.0
 40
0.012378
100
AcDbArc
 50
274.192713
 51
295.965746
  0
ARC
  5
48B
330
18
100
AcDbEntity
  8
0
100
AcDbCircle
 10
3.480442513440538
 20
5.601917196278641
 30
0.0
 40
0.013421
100
AcDbArc
 50
295.965746
 51
316.865988
  0
ARC
  5
48C
330
18
100
AcDbEntity
  8
0
100
AcDbCircle
 10
3.480442513440538
 20
5.601917196278641
 30
0.0
 40
0.013421
100
AcDbArc
 50
316.865988
 51
337.766231
  0
ARC
  5
48D
330
18
100
AcDbEntity
  8
0
100
AcDbCircle
 10
3.481407513440538
 20
5.601523196278641
 30
0.0
 40
0.012378
100
AcDbArc
 50
337.766231
 51
359.539264
  0
ARC
  5
48E
330
18
100
AcDbEntity
  8
0
100
AcDbCircle
 10
3.482254513440539
 20
5.601516196278642
 30
0.0
 40
0.011531
100
AcDbArc
 50
359.539264
 51
22.671641
  0
ARC
  5
48F
330
18
100
AcDbEntity
  8
0
100
AcDbCircle
 10
3.483155513440539
 20
5.601892196278641
 30
0.0
 40
0.010555
100
AcDbArc
 50
22.671641
 51
46.865988
  0
ARC
  5
490
330
18
100
AcDbEntity
  8
0
100
AcDbCircle
 10
3.483155513440539
 20
5.601892196278641
 30
0.0
 40
0.010555
100
AcDbArc
 50
46.865988
 51
71.06033599999999
  0
ARC
  5
491
330
18
100
AcDbEntity
  8
0
100
AcDbCircle
 10
3.482838513440538
 20
5.600969196278641
 30
0.0
 40
0.011531
100
AcDbArc
 50
71.06033599999999
 51
94.19271300000001
  0
ARC
  5
492
330
18
100
AcDbEntity
  8
0
100
AcDbCircle
 10
3.482900513440538
 20
5.600124196278641
 30
0.0
 40
0.012378
100
AcDbArc
 50
94.19271300000001
 51
115.965746
  0
ARC
  5
493
330
18
100
AcDbEntity
  8
0
100
AcDbCircle
 10
3.483357513440539
 20
5.599187196278641
 30
0.0
 40
0.013421
100
AcDbArc
 50
115.965746
 51
136.865988
  0
ARC
  5
494
330
18
100
AcDbEntity
  8
0
100
AcDbCircle
 10
3.483357513440539
 20
5.599187196278641
 30
0.0
 40
0.013421
100
AcDbArc
 50
136.865988
 51
157.766231
  0
ARC
  5
495
330
18
100
AcDbEntity
  8
0
100
AcDbCircle
 10
3.482391513440539
 20
5.59958119627864
 30
0.0
 40
0.012378
100
AcDbArc
 50
157.766231
 51
179.539264
  0
ARC
  5
496
330
18
100
AcDbEntity
  8
0
100
AcDbCircle
 10
3.481545513440539
 20
5.59958819627864
 30
0.0
 40
0.011531
100
AcDbArc
 50
179.539264
 51
202.671641
  0
ARC
  5
497
330
18
100
AcDbEntity
  8
0
100
AcDbCircle
 10
3.480643513440539
 20
5.599211196278641
 30
0.0
 40
0.010555
100
AcDbArc
 50
202.671641
 51
226.865988
  0
ARC
  5
498
330
18
100
AcDbEntity
  8
0
100
AcDbCircle
 10
3.427876513440539
 20
5.527929196278641
 30
0.0
 40
0.010555
100
AcDbArc
 50
226.865988
 51
251.060336
  0
ARC
  5
499
330
18
100
AcDbEntity
  8
0
100
AcDbCircle
 10
3.428193513440538
 20
5.52885319627864
 30
0.0
 40
0.011531
100
AcDbArc
 50
251.060336
 51
274.192713
  0
ARC
  5
49A
330
18
100
AcDbEntity
  8
0
100
AcDbCircle
 10
3.428131513440539
 20
5.529698196278641
 30
0.0
 40
0.012378
100
AcDbArc
 50
274.192713
 51
295.965746
  0
ARC
  5
49B
330
18
100
AcDbEntity
  8
0
100
AcDbCircle
 10
3.427674513440539
 20
5.530635196278641
 30
0.0
 40
0.013421
100
AcDbArc
 50
295.965746
 51
316.865988
  0
ARC
  5
49C
330
18
100
AcDbEntity
  8
0
100
AcDbCircle
 10
3.427674513440539
 20
5.530635196278641
 30
0.0
 40
0.013421
100
AcDbArc
 50
316.865988
 51
337.766231
  0
ARC
  5
49D
330
18
100
AcDbEntity
  8
0
100
AcDbCircle
 10
3.428639513440539
 20
5.530240196278641
 30
0.0
 40
0.012378
100
AcDbArc
 50
337.766231
 51
359.539264
  0
ARC
  5
49E
330
18
100
AcDbEntity
  8
0
100
AcDbCircle
 10
3.429486513440539
 20
5.530234196278641
 30
0.0
 40
0.011531
100
AcDbArc
 50
359.539264
 51
22.671641
  0
ARC
  5
49F
330
18
100
AcDbEntity
  8
0
100
AcDbCircle
 10
3.430388513440538
 20
5.530610196278641
 30
0.0
 40
0.010555
100
AcDbArc
 50
22.671641
 51
46.865988
  0
ARC
  5
4A0
330
18
100
AcDbEntity
  8
0
100
AcDbCircle
 10
3.430388513440538
 20
5.530610196278641
 30
0.0
 40
0.010555
100
AcDbArc
 50
46.865988
 51
71.06033599999999
  0
ARC
  5
4A1
330
18
100
AcDbEntity
  8
0
100
AcDbCircle
 10
3.430071513440538
 20
5.52968619627864
 30
0.0
 40
0.011531
100
AcDbArc
 50
71.06033599999999
 51
94.19271300000001
  0
ARC
  5
4A2
330
18
100
AcDbEntity
  8
0
100
AcDbCircle
 10
3.430132513440539
 20
5.528842196278641
 30
0.0
 40
0.012378
100
AcDbArc
 50
94.19271300000001
 51
115.965746
  0
ARC
  5
4A3
330
18
100
AcDbEntity
  8
0
100
AcDbCircle
 10
3.430589513440538
 20
5.527904196278641
 30
0.0
 40
0.013421
100
AcDbArc
 50
115.965746
 51
136.865988
  0
ARC
  5
4A4
330
18
100
AcDbEntity
  8
0
100
AcDbCircle
 10
3.430589513440538
 20
5.527904196278641
 30
0.0
 40
0.013421
100
AcDbArc
 50
136.865988
 51
157.766231
  0
ARC
  5
4A5
330
18
100
AcDbEntity
  8
0
100
AcDbCircle
 10
3.429624513440539
 20
5.52829919627864
 30
0.0
 40
0.012378
100
AcDbArc
 50
157.766231
 51
179.539264
  0
ARC
  5
4A6
330
18
100
AcDbEntity
  8
0
100
AcDbCircle
 10
3.428777513440538
 20
5.52830619627864
 30
0.0
 40
0.011531
100
AcDbArc
 50
179.539264
 51
202.671641
  0
ARC
  5
4A7
330
18
100
AcDbEntity
  8
0
100
AcDbCircle
 10
3.427876513440539
 20
5.527929196278641
 30
0.0
 40
0.010555
100
AcDbArc
 50
202.671641
 51
226.865988
  0
LINE
  5
4A8
330
18
100
AcDbEntity
  8
0
100
AcDbLine
 10
6.210193
 20
1.843756
 30
0.0
 11
6.259025
 21
1.898005
 31
0.0
  0
LINE
  5
4A9
330
18
100
AcDbEntity
  8
0
100
AcDbLine
 10
6.259025
 20
1.898005
 30
0.0
 11
6.293018
 21
1.908151
 31
0.0
  0
LINE
  5
4AA
330
18
100
AcDbEntity
  8
0
100
AcDbLine
 10
6.293018
 20
1.908151
 30
0.0
 11
6.337058
 21
1.909329
 31
0.0
  0
LINE
  5
4AB
330
18
100
AcDbEntity
  8
0
100
AcDbLine
 10
6.337058
 20
1.909329
 30
0.0
 11
6.383843
 21
1.974581
 31
0.0
  0
LINE
  5
4AC
330
18
100
AcDbEntity
  8
0
100
AcDbLine
 10
6.383843
 20
1.974581
 30
0.0
 11
6.395847
 21
1.976631
 31
0.0
  0
LINE
  5
4AD
330
18
100
AcDbEntity
  8
0
100
AcDbLine
 10
6.395847
 20
1.976631
 30
0.0
 11
6.46395
 21
1.967895
 31
0.0
  0
LINE
  5
4AE
330
18
100
AcDbEntity
  8
0
100
AcDbLine
 10
6.46395
 20
1.967895
 30
0.0
 11
6.597585000000001
 21
2.092554
 31
0.0
  0
LINE
  5
4AF
330
18
100
AcDbEntity
  8
0
100
AcDbLine
 10
6.597585000000001
 20
2.092554
 30
0.0
 11
6.782836
 21
2.076279
 31
0.0
  0
LINE
  5
4B0
330
18
100
AcDbEntity
  8
0
100
AcDbLine
 10
6.782836
 20
2.076279
 30
0.0
 11
6.893897
 21
2.088735
 31
0.0
  0
LINE
  5
4B1
330
18
100
AcDbEntity
  8
0
100
AcDbLine
 10
6.893897
 20
2.088735
 30
0.0
 11
6.990511
 21
2.107098
 31
0.0
  0
LINE
  5
4B2
330
18
100
AcDbEntity
  8
0
 62
     0
100
AcDbLine
 10
4.213789
 20
4.824255
 30
0.0
 11
4.237894
 21
4.852982
 31
0.0
  0
LINE
  5
4B3
330
18
100
AcDbEntity
  8
0
 62
     0
100
AcDbLine
 10
4.572419
 20
4.792879
 30
0.0
 11
4.596524
 21
4.821606
 31
0.0
  0
LINE
  5
4B4
330
18
100
AcDbEntity
  8
0
 62
     0
100
AcDbLine
 10
4.931049
 20
4.761503
 30
0.0
 11
4.95257
 21
4.787151000000001
 31
0.0
  0
LINE
  5
4B5
330
18
100
AcDbEntity
  8
0
 62
     0
100
AcDbLine
 10
4.213789
 20
4.824255
 30
0.0
 11
4.243675
 21
4.821641000000001
 31
0.0
  0
LINE
  5
4B6
330
18
100
AcDbEntity
  8
0
 62
     0
100
AcDbLine
 10
4.572419
 20
4.792879
 30
0.0
 11
4.602305
 21
4.790265
 31
0.0
  0
LINE
  5
4B7
330
18
100
AcDbEntity
  8
0
 62
     0
100
AcDbLine
 10
4.931049
 20
4.761503
 30
0.0
 11
4.960935
 21
4.758889
 31
0.0
  0
LINE
  5
4B8
330
18
100
AcDbEntity
  8
0
 62
     0
100
AcDbLine
 10
4.243678
 20
4.821637
 30
0.0
 11
4.237896
 21
4.852978
 31
0.0
  0
LINE
  5
4B9
330
18
100
AcDbEntity
  8
0
 62
     0
100
AcDbLine
 10
4.602308
 20
4.79026
 30
0.0
 11
4.596526
 21
4.821602
 31
0.0
  0
LINE
  5
4BA
330
18
100
AcDbEntity
  8
0
 62
     0
100
AcDbLine
 10
4.960938
 20
4.758883999999999
 30
0.0
 11
4.95591
 21
4.786143
 31
0.0
  0
LINE
  5
4BB
330
18
100
AcDbEntity
  8
0
 62
     0
100
AcDbLine
 10
4.044729
 20
5.020171
 30
0.0
 11
4.075309
 21
5.052042
 31
0.0
  0
LINE
  5
4BC
330
18
100
AcDbEntity
  8
0
 62
     0
100
AcDbLine
 10
4.0892
 20
5.013271
 30
0.0
 11
4.085031
 21
5.049107
 31
0.0
  0
LINE
  5
4BD
330
18
100
AcDbEntity
  8
0
 62
     0
100
AcDbLine
 10
4.044729
 20
5.020171
 30
0.0
 11
4.089197
 21
5.013274
 31
0.0
  0
LINE
  5
4BE
330
18
100
AcDbEntity
  8
0
 62
     0
100
AcDbLine
 10
4.816805
 20
4.649703
 30
0.0
 11
4.851814
 21
4.663142
 31
0.0
  0
LINE
  5
4BF
330
18
100
AcDbEntity
  8
0
 62
     0
100
AcDbLine
 10
4.518351
 20
4.851012
 30
0.0
 11
4.553361
 21
4.864451
 31
0.0
  0
LINE
  5
4C0
330
18
100
AcDbEntity
  8
0
 62
     0
100
AcDbLine
 10
4.518351
 20
4.851012
 30
0.0
 11
4.543222
 21
4.834236
 31
0.0
  0
LINE
  5
4C1
330
18
100
AcDbEntity
  8
0
 62
     0
100
AcDbLine
 10
4.816805
 20
4.649703
 30
0.0
 11
4.841676000000001
 21
4.632927
 31
0.0
  0
LINE
  5
4C2
330
18
100
AcDbEntity
  8
0
 62
     0
100
AcDbLine
 10
4.543225
 20
4.834232
 30
0.0
 11
4.553363
 21
4.864447
 31
0.0
  0
LINE
  5
4C3
330
18
100
AcDbEntity
  8
0
 62
     0
100
AcDbLine
 10
4.841679
 20
4.632923
 30
0.0
 11
4.851817
 21
4.663137
 31
0.0
  0
LINE
  5
4C4
330
18
100
AcDbEntity
  8
0
 62
     0
100
AcDbLine
 10
4.474316
 20
4.882974
 30
0.0
 11
4.474316
 21
4.882974
 31
0.0
  0
LINE
  5
4C5
330
18
100
AcDbEntity
  8
0
 62
     0
100
AcDbLine
 10
4.214622
 20
4.845486
 30
0.0
 11
4.214622
 21
4.845486
 31
0.0
  0
LINE
  5
4C6
330
18
100
AcDbEntity
  8
0
 62
     0
100
AcDbLine
 10
3.962069
 20
4.813477
 30
0.0
 11
3.962069
 21
4.813477
 31
0.0
  0
LINE
  5
4C7
330
18
100
AcDbEntity
  8
0
 62
     0
100
AcDbLine
 10
3.968149
 20
4.979924
 30
0.0
 11
3.968149
 21
4.979924
 31
0.0
  0
LINE
  5
4C8
330
18
100
AcDbEntity
  8
0
 62
     0
100
AcDbLine
 10
4.468236
 20
4.716526999999999
 30
0.0
 11
4.468236
 21
4.716526999999999
 31
0.0
  0
LINE
  5
4C9
330
18
100
AcDbEntity
  8
0
 62
     0
100
AcDbLine
 10
4.724954
 20
4.751733
 30
0.0
 11
4.724954
 21
4.751733
 31
0.0
  0
LINE
  5
4CA
330
18
100
AcDbEntity
  8
0
 62
     0
100
AcDbLine
 10
4.718874
 20
4.585286
 30
0.0
 11
4.718874
 21
4.585286
 31
0.0
  0
LINE
  5
4CB
330
18
100
AcDbEntity
  8
0
 62
     0
100
AcDbLine
 10
4.971426999999999
 20
4.617295
 30
0.0
 11
4.971426999999999
 21
4.617295
 31
0.0
  0
LINE
  5
4CC
330
18
100
AcDbEntity
  8
0
 62
     0
100
AcDbLine
 10
4.369782
 20
4.742941
 30
0.0
 11
4.369782
 21
4.742941
 31
0.0
  0
LINE
  5
4CD
330
18
100
AcDbEntity
  8
0
 62
     0
100
AcDbLine
 10
4.494952
 20
4.75942
 30
0.0
 11
4.494952
 21
4.75942
 31
0.0
  0
LINE
  5
4CE
330
18
100
AcDbEntity
  8
0
 62
     0
100
AcDbLine
 10
4.684318
 20
4.78435
 30
0.0
 11
4.684318
 21
4.78435
 31
0.0
  0
LINE
  5
4CF
330
18
100
AcDbEntity
  8
0
 62
     0
100
AcDbLine
 10
3.996175
 20
4.873643
 30
0.0
 11
3.996175
 21
4.873643
 31
0.0
  0
LINE
  5
4D0
330
18
100
AcDbEntity
  8
0
 62
     0
100
AcDbLine
 10
4.185541000000001
 20
4.898574
 30
0.0
 11
4.185541000000001
 21
4.898574
 31
0.0
  0
LINE
  5
4D1
330
18
100
AcDbEntity
  8
0
 62
     0
100
AcDbLine
 10
4.00254
 20
5.05437
 30
0.0
 11
4.00254
 21
5.05437
 31
0.0
  0
LINE
  5
4D2
330
18
100
AcDbEntity
  8
0
 62
     0
100
AcDbLine
 10
4.868558
 20
4.628717
 30
0.0
 11
4.868558
 21
4.628717
 31
0.0
  0
LINE
  5
4D3
330
18
100
AcDbEntity
  8
0
 62
     0
100
AcDbLine
 10
4.993728
 20
4.645196
 30
0.0
 11
4.993728
 21
4.645196
 31
0.0
  0
LINE
  5
4D4
330
18
100
AcDbEntity
  8
0
 62
     0
100
AcDbLine
 10
4.072456
 20
4.865671
 30
0.0
 11
4.072456
 21
4.865671
 31
0.0
  0
LINE
  5
4D5
330
18
100
AcDbEntity
  8
0
 62
     0
100
AcDbLine
 10
4.010444000000001
 20
5.063941000000001
 30
0.0
 11
4.010444000000001
 21
5.063941000000001
 31
0.0
  0
LINE
  5
4D6
330
18
100
AcDbEntity
  8
0
 62
     0
100
AcDbLine
 10
4.339367
 20
4.854394
 30
0.0
 11
4.339367
 21
4.854394
 31
0.0
  0
LINE
  5
4D7
330
18
100
AcDbEntity
  8
0
 62
     0
100
AcDbLine
 10
4.775822
 20
4.576341
 30
0.0
 11
4.775822
 21
4.576341
 31
0.0
  0
LINE
  5
4D8
330
18
100
AcDbEntity
  8
0
 62
     0
100
AcDbLine
 10
4.606278
 20
4.843117
 30
0.0
 11
4.606278
 21
4.843117
 31
0.0
  0
LINE
  5
4D9
330
18
100
AcDbEntity
  8
0
 62
     0
100
AcDbLine
 10
5.042733
 20
4.565064
 30
0.0
 11
5.042733
 21
4.565064
 31
0.0
  0
LINE
  5
4DA
330
18
100
AcDbEntity
  8
0
 62
     0
100
AcDbLine
 10
4.060963
 20
4.871023
 30
0.0
 11
4.060963
 21
4.871023
 31
0.0
  0
LINE
  5
4DB
330
18
100
AcDbEntity
  8
0
 62
     0
100
AcDbLine
 10
4.352556
 20
4.921075
 30
0.0
 11
4.352556
 21
4.921075
 31
0.0
  0
LINE
  5
4DC
330
18
100
AcDbEntity
  8
0
 62
     0
100
AcDbLine
 10
4.623506
 20
4.672796
 30
0.0
 11
4.623506
 21
4.672796
 31
0.0
  0
LINE
  5
4DD
330
18
100
AcDbEntity
  8
0
 62
     0
100
AcDbLine
 10
4.743313
 20
4.563012000000001
 30
0.0
 11
4.743313
 21
4.563012000000001
 31
0.0
  0
LINE
  5
4DE
330
18
100
AcDbEntity
  8
0
 62
     0
100
AcDbLine
 10
4.915099
 20
4.722848
 30
0.0
 11
4.915099
 21
4.722848
 31
0.0
  0
LINE
  5
4DF
330
18
100
AcDbEntity
  8
0
 62
     0
100
AcDbLine
 10
5.034907
 20
4.613065
 30
0.0
 11
5.034907
 21
4.613065
 31
0.0
  0
LINE
  5
4E0
330
18
100
AcDbEntity
  8
0
 62
     0
100
AcDbLine
 10
2.709893
 20
5.325856
 30
0.0
 11
2.733998
 21
5.354582
 31
0.0
  0
LINE
  5
4E1
330
18
100
AcDbEntity
  8
0
 62
     0
100
AcDbLine
 10
3.068523
 20
5.29448
 30
0.0
 11
3.092628
 21
5.323206
 31
0.0
  0
LINE
  5
4E2
330
18
100
AcDbEntity
  8
0
 62
     0
100
AcDbLine
 10
2.351263
 20
5.357232
 30
0.0
 11
2.375367
 21
5.385958000000001
 31
0.0
  0
LINE
  5
4E3
330
18
100
AcDbEntity
  8
0
 62
     0
100
AcDbLine
 10
3.661859513440539
 20
4.922093196278641
 30
0.0
 11
3.666308513440538
 21
4.92739619627864
 31
0.0
  0
LINE
  5
4E4
330
18
100
AcDbEntity
  8
0
 62
     0
100
AcDbLine
 10
2.351263
 20
5.357232
 30
0.0
 11
2.381149
 21
5.354617
 31
0.0
  0
LINE
  5
4E5
330
18
100
AcDbEntity
  8
0
 62
     0
100
AcDbLine
 10
2.709893
 20
5.325856
 30
0.0
 11
2.739779
 21
5.323241
 31
0.0
  0
LINE
  5
4E6
330
18
100
AcDbEntity
  8
0
 62
     0
100
AcDbLine
 10
3.068523
 20
5.29448
 30
0.0
 11
3.098409
 21
5.291865000000001
 31
0.0
  0
LINE
  5
4E7
330
18
100
AcDbEntity
  8
0
 62
     0
100
AcDbLine
 10
2.381152
 20
5.354615
 30
0.0
 11
2.375371
 21
5.385956
 31
0.0
  0
LINE
  5
4E8
330
18
100
AcDbEntity
  8
0
 62
     0
100
AcDbLine
 10
2.739782
 20
5.323238
 30
0.0
 11
2.734001
 21
5.35458
 31
0.0
  0
LINE
  5
4E9
330
18
100
AcDbEntity
  8
0
 62
     0
100
AcDbLine
 10
3.098412
 20
5.291862
 30
0.0
 11
3.092631
 21
5.323203
 31
0.0
  0
LINE
  5
4EA
330
18
100
AcDbEntity
  8
0
 62
     0
100
AcDbLine
 10
3.667623513440538
 20
4.92028619627864
 30
0.0
 11
3.666312513440539
 21
4.927393196278641
 31
0.0
  0
LINE
  5
4EB
330
18
100
AcDbEntity
  8
0
 62
     0
100
AcDbLine
 10
2.449957
 20
5.274797
 30
0.0
 11
2.482811
 21
5.309038
 31
0.0
  0
LINE
  5
4EC
330
18
100
AcDbEntity
  8
0
 62
     0
100
AcDbLine
 10
2.977488
 20
5.18569
 30
0.0
 11
3.016432
 21
5.226278
 31
0.0
  0
LINE
  5
4ED
330
18
100
AcDbEntity
  8
0
 62
     0
100
AcDbLine
 10
2.488192
 20
5.262807
 30
0.0
 11
2.482815
 21
5.309035
 31
0.0
  0
LINE
  5
4EE
330
18
100
AcDbEntity
  8
0
 62
     0
100
AcDbLine
 10
3.021959
 20
5.178791
 30
0.0
 11
3.016435
 21
5.226275
 31
0.0
  0
LINE
  5
4EF
330
18
100
AcDbEntity
  8
0
 62
     0
100
AcDbLine
 10
2.977488
 20
5.18569
 30
0.0
 11
3.021956
 21
5.178793
 31
0.0
  0
LINE
  5
4F0
330
18
100
AcDbEntity
  8
0
 62
     0
100
AcDbLine
 10
2.484315
 20
5.333719
 30
0.0
 11
2.519324
 21
5.347158
 31
0.0
  0
LINE
  5
4F1
330
18
100
AcDbEntity
  8
0
 62
     0
100
AcDbLine
 10
3.835432513440539
 20
5.04508919627864
 30
0.0
 11
3.870442513440538
 21
5.05852819627864
 31
0.0
  0
LINE
  5
4F2
330
18
100
AcDbEntity
  8
0
 62
     0
100
AcDbLine
 10
3.835432513440539
 20
5.04508919627864
 30
0.0
 11
3.860303513440539
 21
5.02831319627864
 31
0.0
  0
LINE
  5
4F3
330
18
100
AcDbEntity
  8
0
 62
     0
100
AcDbLine
 10
2.484315
 20
5.333719
 30
0.0
 11
2.509186
 21
5.316943
 31
0.0
  0
LINE
  5
4F4
330
18
100
AcDbEntity
  8
0
 62
     0
100
AcDbLine
 10
3.860307513440539
 20
5.028311196278641
 30
0.0
 11
3.870445513440539
 21
5.058526196278641
 31
0.0
  0
LINE
  5
4F5
330
18
100
AcDbEntity
  8
0
 62
     0
100
AcDbLine
 10
2.509189
 20
5.31694
 30
0.0
 11
2.519327
 21
5.347155
 31
0.0
  0
LINE
  5
4F6
330
18
100
AcDbEntity
  8
0
 62
     0
100
AcDbLine
 10
2.454538
 20
5.436306
 30
0.0
 11
2.454538
 21
5.436306
 31
0.0
  0
LINE
  5
4F7
330
18
100
AcDbEntity
  8
0
 62
     0
100
AcDbLine
 10
3.847391513440539
 20
4.911162196278641
 30
0.0
 11
3.847391513440539
 21
4.911162196278641
 31
0.0
  0
LINE
  5
4F8
330
18
100
AcDbEntity
  8
0
 62
     0
100
AcDbLine
 10
3.853471513440538
 20
5.077609196278641
 30
0.0
 11
3.853471513440538
 21
5.077609196278641
 31
0.0
  0
LINE
  5
4F9
330
18
100
AcDbEntity
  8
0
 62
     0
100
AcDbLine
 10
2.701012
 20
5.301868
 30
0.0
 11
2.701012
 21
5.301868
 31
0.0
  0
LINE
  5
4FA
330
18
100
AcDbEntity
  8
0
 62
     0
100
AcDbLine
 10
2.960705
 20
5.339357
 30
0.0
 11
2.960705
 21
5.339357
 31
0.0
  0
LINE
  5
4FB
330
18
100
AcDbEntity
  8
0
 62
     0
100
AcDbLine
 10
2.954625
 20
5.17291
 30
0.0
 11
2.954625
 21
5.17291
 31
0.0
  0
LINE
  5
4FC
330
18
100
AcDbEntity
  8
0
 62
     0
100
AcDbLine
 10
2.689212
 20
5.241244999999999
 30
0.0
 11
2.689212
 21
5.241244999999999
 31
0.0
  0
LINE
  5
4FD
330
18
100
AcDbEntity
  8
0
 62
     0
100
AcDbLine
 10
3.004987
 20
5.282818
 30
0.0
 11
3.004987
 21
5.282818
 31
0.0
  0
LINE
  5
4FE
330
18
100
AcDbEntity
  8
0
 62
     0
100
AcDbLine
 10
2.506211
 20
5.397042
 30
0.0
 11
2.506211
 21
5.397042
 31
0.0
  0
LINE
  5
4FF
330
18
100
AcDbEntity
  8
0
 62
     0
100
AcDbLine
 10
2.631381
 20
5.413521
 30
0.0
 11
2.631381
 21
5.413521
 31
0.0
  0
LINE
  5
500
330
18
100
AcDbEntity
  8
0
 62
     0
100
AcDbLine
 10
3.782176513440538
 20
5.03780619627864
 30
0.0
 11
3.782176513440538
 21
5.03780619627864
 31
0.0
  0
LINE
  5
501
330
18
100
AcDbEntity
  8
0
 62
     0
100
AcDbLine
 10
2.321971
 20
5.552675
 30
0.0
 11
2.321971
 21
5.552675
 31
0.0
  0
LINE
  5
502
330
18
100
AcDbEntity
  8
0
 62
     0
100
AcDbLine
 10
3.783580513440538
 20
4.975604196278641
 30
0.0
 11
3.783580513440538
 21
4.975604196278641
 31
0.0
  0
LINE
  5
503
330
18
100
AcDbEntity
  8
0
 62
     0
100
AcDbLine
 10
2.40092
 20
5.454266000000001
 30
0.0
 11
2.40092
 21
5.454266000000001
 31
0.0
  0
LINE
  5
504
330
18
100
AcDbEntity
  8
0
 62
     0
100
AcDbLine
 10
2.837375
 20
5.176213
 30
0.0
 11
2.837375
 21
5.176213
 31
0.0
  0
LINE
  5
505
330
18
100
AcDbEntity
  8
0
 62
     0
100
AcDbLine
 10
2.667831
 20
5.442988
 30
0.0
 11
2.667831
 21
5.442988
 31
0.0
  0
LINE
  5
506
330
18
100
AcDbEntity
  8
0
 62
     0
100
AcDbLine
 10
2.29371
 20
5.538667
 30
0.0
 11
2.29371
 21
5.538667
 31
0.0
  0
LINE
  5
507
330
18
100
AcDbEntity
  8
0
 62
     0
100
AcDbLine
 10
2.413517
 20
5.428884
 30
0.0
 11
2.413517
 21
5.428884
 31
0.0
  0
LINE
  5
508
330
18
100
AcDbEntity
  8
0
 62
     0
100
AcDbLine
 10
2.604472
 20
5.253906
 30
0.0
 11
2.604472
 21
5.253906
 31
0.0
  0
LINE
  5
509
330
18
100
AcDbEntity
  8
0
 62
     0
100
AcDbLine
 10
2.896065
 20
5.303958000000001
 30
0.0
 11
2.896065
 21
5.303958000000001
 31
0.0
  0
LINE
  5
50A
330
18
100
AcDbEntity
  8
0
 62
     0
100
AcDbLine
 10
3.651688513440538
 20
4.998676196278641
 30
0.0
 11
3.651688513440538
 21
4.998676196278641
 31
0.0
  0
LINE
  5
50B
330
18
100
AcDbEntity
  8
0
 62
     0
100
AcDbLine
 10
3.771495513440539
 20
4.888892196278641
 30
0.0
 11
3.771495513440539
 21
4.888892196278641
 31
0.0
  0
LINE
  5
50C
330
18
100
AcDbEntity
  8
0
 62
     0
100
AcDbLine
 10
2.244544
 20
5.566578000000001
 30
0.0
 11
2.244544
 21
5.566578000000001
 31
0.0
  0
ARC
  5
50D
330
18
100
AcDbEntity
  8
0
100
AcDbCircle
 10
0.529492
 20
2.894232
 30
0.0
 40
6.551493
100
AcDbArc
 50
351.306666
 51
351.867176
  0
ARC
  5
50E
330
18
100
AcDbEntity
  8
0
100
AcDbCircle
 10
1.671741
 20
2.730998
 30
0.0
 40
5.397639
100
AcDbArc
 50
351.867176
 51
352.705344
  0
ARC
  5
50F
330
18
100
AcDbEntity
  8
0
100
AcDbCircle
 10
5.968589
 20
2.180966
 30
0.0
 40
1.06573
100
AcDbArc
 50
352.705344
 51
358.938859
  0
ARC
  5
510
330
18
100
AcDbEntity
  8
0
100
AcDbCircle
 10
6.692100999999999
 20
2.167565
 30
0.0
 40
0.342093
100
AcDbArc
 50
358.938859
 51
9.952703
  0
ARC
  5
511
330
18
100
AcDbEntity
  8
0
100
AcDbCircle
 10
6.838197
 20
2.193201
 30
0.0
 40
0.193765
100
AcDbArc
 50
9.952703
 51
17.305883
  0
ARC
  5
512
330
18
100
AcDbEntity
  8
0
100
AcDbCircle
 10
-3.724776
 20
-1.097988
 30
0.0
 40
11.257595
100
AcDbArc
 50
17.305883
 51
17.856515
  0
ARC
  5
513
330
18
100
AcDbEntity
  8
0
100
AcDbCircle
 10
5.608952
 20
2.094471
 30
0.0
 40
1.502549
100
AcDbArc
 50
351.400428
 51
354.191204
  0
ARC
  5
514
330
18
100
AcDbEntity
  8
0
100
AcDbCircle
 10
5.935082
 20
2.061293
 30
0.0
 40
1.174736
100
AcDbArc
 50
354.191204
 51
358.746323
  0
ARC
  5
515
330
18
100
AcDbEntity
  8
0
100
AcDbCircle
 10
4.784527
 20
2.086472
 30
0.0
 40
2.325566
100
AcDbArc
 50
358.746323
 51
3.946594
  0
ARC
  5
516
330
18
100
AcDbEntity
  8
0
100
AcDbCircle
 10
6.752909
 20
2.222271
 30
0.0
 40
0.352506
100
AcDbArc
 50
3.946594
 51
17.329352
  0
ARC
  5
517
330
18
100
AcDbEntity
  8
0
100
AcDbCircle
 10
6.900853999999999
 20
2.268434
 30
0.0
 40
0.197526
100
AcDbArc
 50
17.329352
 51
22.626538
  0
ARC
  5
518
330
18
100
AcDbEntity
  8
0
100
AcDbCircle
 10
0.155822
 20
-0.542918
 30
0.0
 40
7.504998
100
AcDbArc
 50
22.626538
 51
23.485613
  0
ARC
  5
519
330
18
100
AcDbEntity
  8
0
100
AcDbCircle
 10
5.880271
 20
1.944434
 30
0.0
 40
1.263505
100
AcDbArc
 50
23.485613
 51
28.514227
  0
ARC
  5
51A
330
18
100
AcDbEntity
  8
0
100
AcDbCircle
 10
4.463911
 20
1.049185
 30
0.0
 40
3.019999
100
AcDbArc
 50
32.87752
 51
33.214781
  0
ARC
  5
51B
330
18
100
AcDbEntity
  8
0
100
AcDbCircle
 10
5.693505
 20
1.843961
 30
0.0
 40
1.555906
100
AcDbArc
 50
28.882261
 51
32.87752
  0
ARC
  5
51C
330
18
100
AcDbEntity
  8
0
100
AcDbCircle
 10
-14.799693
 20
-9.460614999999999
 30
0.0
 40
24.960277
100
AcDbArc
 50
28.61779500000001
 51
28.882261
  0
ARC
  5
51D
330
18
100
AcDbEntity
  8
0
100
AcDbCircle
 10
6.917797
 20
2.388897
 30
0.0
 40
0.220424
100
AcDbArc
 50
25.803255
 51
28.61779500000001
  0
ARC
  5
51E
330
18
100
AcDbEntity
  8
0
100
AcDbCircle
 10
6.779102000000001
 20
2.321839
 30
0.0
 40
0.37448
100
AcDbArc
 50
20.778641
 51
25.803255
  0
ARC
  5
51F
330
18
100
AcDbEntity
  8
0
100
AcDbCircle
 10
5.482146
 20
1.829725
 30
0.0
 40
1.76166
100
AcDbArc
 50
18.462601
 51
20.778641
  0
ARC
  5
520
330
18
100
AcDbEntity
  8
0
100
AcDbCircle
 10
6.444205999999999
 20
2.150927
 30
0.0
 40
0.747397
100
AcDbArc
 50
11.538497
 51
18.462601
  0
ARC
  5
521
330
18
100
AcDbEntity
  8
0
100
AcDbCircle
 10
6.633121000000001
 20
2.189495
 30
0.0
 40
0.554585
100
AcDbArc
 50
3.498658000000001
 51
11.538497
  0
ARC
  5
522
330
18
100
AcDbEntity
  8
0
100
AcDbCircle
 10
6.28645
 20
2.1683
 30
0.0
 40
0.901903
100
AcDbArc
 50
356.921618
 51
3.498658000000001
  0
ARC
  5
523
330
18
100
AcDbEntity
  8
0
100
AcDbCircle
 10
3.511888
 20
2.317515
 30
0.0
 40
3.680476
100
AcDbArc
 50
353.667161
 51
356.921618
  0
ARC
  5
524
330
18
100
AcDbEntity
  8
0
100
AcDbCircle
 10
3.153106
 20
2.357333
 30
0.0
 40
4.04146
100
AcDbArc
 50
352.872473
 51
353.667161
  0
ARC
  5
525
330
18
100
AcDbEntity
  8
0
100
AcDbCircle
 10
6.363096
 20
1.955941
 30
0.0
 40
0.8064710000000001
100
AcDbArc
 50
352.018586
 51
352.872473
  0
ARC
  5
526
330
18
100
AcDbEntity
  8
0
100
AcDbCircle
 10
-5.548335
 20
-2.564448
 30
0.0
 40
13.718267
100
AcDbArc
 50
21.527205
 51
21.807753
  0
ARC
  5
527
330
18
100
AcDbEntity
  8
0
100
AcDbCircle
 10
7.1518
 20
2.517237
 30
0.0
 40
0.039196
100
AcDbArc
 50
21.807753
 51
27.166747
  0
ARC
  5
528
330
18
100
AcDbEntity
  8
0
100
AcDbCircle
 10
-3.426771
 20
-2.911651
 30
0.0
 40
11.929487
100
AcDbArc
 50
27.166747
 51
27.447633
  0
ARC
  5
529
330
18
100
AcDbEntity
  8
0
100
AcDbCircle
 10
30.054856
 20
14.440644
 30
0.0
 40
25.781546
100
AcDbArc
 50
207.242205
 51
207.372175
  0
ARC
  5
52A
330
18
100
AcDbEntity
  8
0
100
AcDbCircle
 10
25.097123
 20
11.888097
 30
0.0
 40
20.205292
100
AcDbArc
 50
207.157544
 51
207.242205
  0
ARC
  5
52B
330
18
100
AcDbEntity
  8
0
100
AcDbCircle
 10
283.681583
 20
144.540332
 30
0.0
 40
310.829686
100
AcDbArc
 50
207.155446
 51
207.157544
  0
ARC
  5
52C
330
18
100
AcDbEntity
  8
0
100
AcDbCircle
 10
-28.852257
 20
11.508112
 30
0.0
 40
34.576538
100
AcDbArc
 50
345.454339
 51
345.569579
  0
ARC
  5
52D
330
18
100
AcDbEntity
  8
0
100
AcDbCircle
 10
-1177.636254
 20
307.115944
 30
0.0
 40
1220.784219
100
AcDbArc
 50
345.569579
 51
345.57266
  0
ARC
  5
52E
330
18
100
AcDbEntity
  8
0
100
AcDbCircle
 10
3.938225
 20
3.138127
 30
0.0
 40
0.734727
100
AcDbArc
 50
345.57266
 51
345.698242
  0
ARC
  5
52F
330
18
100
AcDbEntity
  8
0
100
AcDbCircle
 10
4.49925
 20
2.995105
 30
0.0
 40
0.155758
100
AcDbArc
 50
345.698242
 51
349.318283
  0
ARC
  5
530
330
18
100
AcDbEntity
  8
0
100
AcDbCircle
 10
-4.188035
 20
4.633714
 30
0.0
 40
8.996232000000001
100
AcDbArc
 50
349.318283
 51
349.794536
  0
ARC
  5
531
330
18
100
AcDbEntity
  8
0
100
AcDbCircle
 10
1.991904
 20
3.521159
 30
0.0
 40
2.716946
100
AcDbArc
 50
349.794536
 51
351.476558
  0
ARC
  5
532
330
18
100
AcDbEntity
  8
0
100
AcDbCircle
 10
4.179930000000001
 20
2.912704
 30
0.0
 40
0.340294
100
AcDbArc
 50
351.867913
 51
0.229411
  0
LINE
  5
533
330
18
100
AcDbEntity
  8
0
100
AcDbLine
 10
4.520222
 20
2.914066
 30
0.0
 11
4.519817
 21
3.015166
 31
0.0
  0
LINE
  5
534
330
18
100
AcDbEntity
  8
0
100
AcDbLine
 10
4.519817
 20
3.015166
 30
0.0
 11
4.518859
 21
3.254401
 31
0.0
  0
ARC
  5
535
330
18
100
AcDbEntity
  8
0
100
AcDbCircle
 10
4.119184
 20
3.252801
 30
0.0
 40
0.399678
100
AcDbArc
 50
0.229411
 51
13.864912
  0
ARC
  5
536
330
18
100
AcDbEntity
  8
0
100
AcDbCircle
 10
5.558143
 20
3.607972
 30
0.0
 40
1.082465
100
AcDbArc
 50
189.776804
 51
193.864912
  0
ARC
  5
537
330
18
100
AcDbEntity
  8
0
100
AcDbCircle
 10
11.405629
 20
1.279581
 30
0.0
 40
7.038164
100
AcDbArc
 50
167.014211
 51
167.08325
  0
ARC
  5
538
330
18
100
AcDbEntity
  8
0
100
AcDbCircle
 10
15.564568
 20
0.3205
 30
0.0
 40
11.306255
100
AcDbArc
 50
166.564365
 51
167.014211
  0
ARC
  5
539
330
18
100
AcDbEntity
  8
0
100
AcDbCircle
 10
3.434012
 20
3.218381
 30
0.0
 40
1.165637
100
AcDbArc
 50
346.564365
 51
347.965406
  0
ARC
  5
53A
330
18
100
AcDbEntity
  8
0
100
AcDbCircle
 10
4.446774
 20
3.002472
 30
0.0
 40
0.130116
100
AcDbArc
 50
347.965406
 51
12.059095
  0
ARC
  5
53B
330
18
100
AcDbEntity
  8
0
100
AcDbCircle
 10
5.090509
 20
3.139996
 30
0.0
 40
0.528144
100
AcDbArc
 50
180.166749
 51
192.059095
  0
ARC
  5
53C
330
18
100
AcDbEntity
  8
0
100
AcDbCircle
 10
7.222633
 20
3.146201
 30
0.0
 40
2.660278
100
AcDbArc
 50
177.979536
 51
180.166749
  0
ARC
  5
53D
330
18
100
AcDbEntity
  8
0
100
AcDbCircle
 10
3.165383
 20
3.289334
 30
0.0
 40
1.399496
100
AcDbArc
 50
357.979536
 51
0.9952659999999999
  0
ARC
  5
53E
330
18
100
AcDbEntity
  8
0
100
AcDbCircle
 10
2.145426
 20
3.271615
 30
0.0
 40
2.419607
100
AcDbArc
 50
0.9952659999999999
 51
2.955722
  0
ARC
  5
53F
330
18
100
AcDbEntity
  8
0
100
AcDbCircle
 10
-1.185953
 20
3.099607
 30
0.0
 40
5.755424
100
AcDbArc
 50
2.955722
 51
4.226819
  0
ARC
  5
540
330
18
100
AcDbEntity
  8
0
100
AcDbCircle
 10
2.676393
 20
3.385057
 30
0.0
 40
1.882543
100
AcDbArc
 50
4.226819
 51
6.336219
  0
ARC
  5
541
330
18
100
AcDbEntity
  8
0
100
AcDbCircle
 10
3.595358
 20
3.093209
 30
0.0
 40
1.021746
100
AcDbArc
 50
345.478652
 51
345.955866
  0
ARC
  5
542
330
18
100
AcDbEntity
  8
0
100
AcDbCircle
 10
-11.384228
 20
6.840298
 30
0.0
 40
16.462882
100
AcDbArc
 50
345.955866
 51
346.193168
  0
ARC
  5
543
330
18
100
AcDbEntity
  8
0
100
AcDbCircle
 10
4.242830000000001
 20
2.999948
 30
0.0
 40
0.370858
100
AcDbArc
 50
346.193168
 51
347.774283
  0
ARC
  5
544
330
18
100
AcDbEntity
  8
0
100
AcDbCircle
 10
4.187566
 20
3.011922
 30
0.0
 40
0.427405
100
AcDbArc
 50
347.774283
 51
354.244459
  0
ARC
  5
545
330
18
100
AcDbEntity
  8
0
100
AcDbCircle
 10
3.538066
 20
3.077387
 30
0.0
 40
1.080196
100
AcDbArc
 50
354.244459
 51
358.313061
  0
ARC
  5
546
330
18
100
AcDbEntity
  8
0
100
AcDbCircle
 10
2.674135
 20
3.102831
 30
0.0
 40
1.944502
100
AcDbArc
 50
358.313061
 51
0.53745
  0
ARC
  5
547
330
18
100
AcDbEntity
  8
0
100
AcDbCircle
 10
0.43504
 20
3.081827
 30
0.0
 40
4.183694999999999
100
AcDbArc
 50
0.53745
 51
2.053873
  0
ARC
  5
548
330
18
100
AcDbEntity
  8
0
100
AcDbCircle
 10
2.85463
 20
3.168599
 30
0.0
 40
1.76255
100
AcDbArc
 50
2.053873
 51
4.725997
  0
ARC
  5
549
330
18
100
AcDbEntity
  8
0
100
AcDbCircle
 10
6.921653999999999
 20
3.504827
 30
0.0
 40
2.318349
100
AcDbArc
 50
182.396145
 51
184.725997
  0
ARC
  5
54A
330
18
100
AcDbEntity
  8
0
100
AcDbCircle
 10
5.166195
 20
3.43137
 30
0.0
 40
0.561354
100
AcDbArc
 50
169.503631
 51
182.396145
  0
ARC
  5
54B
330
18
100
AcDbEntity
  8
0
100
AcDbCircle
 10
4.366017
 20
3.579622
 30
0.0
 40
0.252441
100
AcDbArc
 50
349.503631
 51
357.312848
  0
ARC
  5
54C
330
18
100
AcDbEntity
  8
0
100
AcDbCircle
 10
-3.350114
 20
2.798412
 30
0.0
 40
8.045428999999999
100
AcDbArc
 50
3.667076000000001
 51
3.903569000000001
  0
ARC
  5
54D
330
18
100
AcDbEntity
  8
0
100
AcDbCircle
 10
-229.047233
 20
-12.602199
 30
0.0
 40
234.267374
100
AcDbArc
 50
3.903569000000001
 51
3.934038999999999
  0
ARC
  5
54E
330
18
100
AcDbEntity
  8
0
100
AcDbCircle
 10
1.348836
 20
3.242147
 30
0.0
 40
3.32714
100
AcDbArc
 50
3.934038999999999
 51
4.189714
  0
ARC
  5
54F
330
18
100
AcDbEntity
  8
0
100
AcDbCircle
 10
-1.267098
 20
3.050517
 30
0.0
 40
5.950083
100
AcDbArc
 50
4.189714
 51
4.388786
  0
ARC
  5
550
330
18
100
AcDbEntity
  8
0
100
AcDbCircle
 10
300.254907
 20
26.192006
 30
0.0
 40
296.45866
100
AcDbArc
 50
184.379782
 51
184.388786
  0
ARC
  5
551
330
18
100
AcDbEntity
  8
0
100
AcDbCircle
 10
2.144545
 20
3.739357
 30
0.0
 40
0.288204
100
AcDbArc
 50
346.589627
 51
355.653762
  0
ARC
  5
552
330
18
100
AcDbEntity
  8
0
100
AcDbCircle
 10
-15.094923
 20
5.049591
 30
0.0
 40
17.57739
100
AcDbArc
 50
355.653762
 51
355.886171
  0
ARC
  5
553
330
18
100
AcDbEntity
  8
0
100
AcDbCircle
 10
2.216001
 20
3.804529
 30
0.0
 40
0.221749
100
AcDbArc
 50
355.886171
 51
357.955474
  0
ARC
  5
554
330
18
100
AcDbEntity
  8
0
100
AcDbCircle
 10
-58.978074
 20
5.989089
 30
0.0
 40
61.45480500000001
100
AcDbArc
 50
357.955474
 51
357.998237
  0
ARC
  5
555
330
18
100
AcDbEntity
  8
0
100
AcDbCircle
 10
-340.61723
 20
15.832823
 30
0.0
 40
343.265935
100
AcDbArc
 50
357.998237
 51
358.016331
  0
ARC
  5
556
330
18
100
AcDbEntity
  8
0
100
AcDbCircle
 10
-82.41110400000001
 20
6.88975
 30
0.0
 40
84.90498199999999
100
AcDbArc
 50
358.016331
 51
358.127757
  0
ARC
  5
557
330
18
100
AcDbEntity
  8
0
100
AcDbCircle
 10
-6.375075
 20
4.404251
 30
0.0
 40
8.828341
100
AcDbArc
 50
358.127757
 51
358.473311
  0
ARC
  5
558
330
18
100
AcDbEntity
  8
0
100
AcDbCircle
 10
2.19716
 20
4.175783
 30
0.0
 40
0.253061
100
AcDbArc
 50
358.473311
 51
7.354428
  0
ARC
  5
559
330
18
100
AcDbEntity
  8
0
100
AcDbCircle
 10
0.603394
 20
3.970078
 30
0.0
 40
1.860048
100
AcDbArc
 50
7.354428
 51
10.627402
  0
ARC
  5
55A
330
18
100
AcDbEntity
  8
0
100
AcDbCircle
 10
0.96499
 20
4.037928
 30
0.0
 40
1.492141
100
AcDbArc
 50
10.627402
 51
11.747908
  0
ARC
  5
55B
330
18
100
AcDbEntity
  8
0
100
AcDbCircle
 10
80.799132
 20
-10.403411
 30
0.0
 40
79.601085
100
AcDbArc
 50
169.78032
 51
169.81971
  0
ARC
  5
55C
330
18
100
AcDbEntity
  8
0
100
AcDbCircle
 10
290.231867
 20
-48.160577
 30
0.0
 40
292.410093
100
AcDbArc
 50
169.762749
 51
169.78032
  0
ARC
  5
55D
330
18
100
AcDbEntity
  8
0
100
AcDbCircle
 10
-5.752342
 20
5.294078
 30
0.0
 40
8.362333
100
AcDbArc
 50
349.762749
 51
349.866655
  0
ARC
  5
55E
330
18
100
AcDbEntity
  8
0
100
AcDbCircle
 10
2.246716
 20
3.864425
 30
0.0
 40
0.23652
100
AcDbArc
 50
349.866655
 51
354.806193
  0
ARC
  5
55F
330
18
100
AcDbEntity
  8
0
100
AcDbCircle
 10
-8.392534
 20
4.831514
 30
0.0
 40
10.919633
100
AcDbArc
 50
354.806193
 51
355.532941
  0
ARC
  5
560
330
18
100
AcDbEntity
  8
0
100
AcDbCircle
 10
-4.853617
 20
4.555042
 30
0.0
 40
7.369933000000001
100
AcDbArc
 50
355.532941
 51
356.415336
  0
ARC
  5
561
330
18
100
AcDbEntity
  8
0
100
AcDbCircle
 10
1.720451
 20
4.143203
 30
0.0
 40
0.782977
100
AcDbArc
 50
356.415336
 51
359.122762
  0
ARC
  5
562
330
18
100
AcDbEntity
  8
0
100
AcDbCircle
 10
2.081955
 20
4.137668
 30
0.0
 40
0.42143
100
AcDbArc
 50
359.122762
 51
2.866169999999999
  0
ARC
  5
563
330
18
100
AcDbEntity
  8
0
100
AcDbCircle
 10
-6.147453
 20
3.725655
 30
0.0
 40
8.661147
100
AcDbArc
 50
2.866169999999999
 51
3.691768
  0
ARC
  5
564
330
18
100
AcDbEntity
  8
0
100
AcDbCircle
 10
0.9900760000000001
 20
4.186189
 30
0.0
 40
1.508776
100
AcDbArc
 50
3.691768
 51
5.063818
  0
ARC
  5
565
330
18
100
AcDbEntity
  8
0
100
AcDbCircle
 10
-29.153758
 20
1.51511
 30
0.0
 40
31.770721
100
AcDbArc
 50
5.063818
 51
5.074518
  0
ARC
  5
566
330
18
100
AcDbEntity
  8
0
100
AcDbCircle
 10
1.232065
 20
3.855544
 30
0.0
 40
1.280773
100
AcDbArc
 50
350.95087
 51
351.930098
  0
ARC
  5
567
330
18
100
AcDbEntity
  8
0
100
AcDbCircle
 10
-2.885715
 20
4.439384
 30
0.0
 40
5.439737
100
AcDbArc
 50
351.930098
 51
352.415998
  0
ARC
  5
568
330
18
100
AcDbEntity
  8
0
100
AcDbCircle
 10
4.045876
 20
3.516482
 30
0.0
 40
1.553024
100
AcDbArc
 50
171.506608
 51
172.415998
  0
ARC
  5
569
330
18
100
AcDbEntity
  8
0
100
AcDbCircle
 10
2.767374
 20
3.707405000000001
 30
0.0
 40
0.260345
100
AcDbArc
 50
156.41083
 51
171.506608
  0
ARC
  5
56A
330
18
100
AcDbEntity
  8
0
100
AcDbCircle
 10
2.327767
 20
3.899366000000001
 30
0.0
 40
0.219346
100
AcDbArc
 50
336.41083
 51
352.865995
  0
ARC
  5
56B
330
18
100
AcDbEntity
  8
0
100
AcDbCircle
 10
1.872125
 20
3.956393
 30
0.0
 40
0.678543
100
AcDbArc
 50
352.865995
 51
357.346448
  0
ARC
  5
56C
330
18
100
AcDbEntity
  8
0
100
AcDbCircle
 10
0.7546890000000001
 20
4.008183
 30
0.0
 40
1.797178
100
AcDbArc
 50
357.346448
 51
0.099066
  0
ARC
  5
56D
330
18
100
AcDbEntity
  8
0
100
AcDbCircle
 10
0.198412
 20
4.007221
 30
0.0
 40
2.353456
100
AcDbArc
 50
0.099066
 51
2.312729
  0
ARC
  5
56E
330
18
100
AcDbEntity
  8
0
100
AcDbCircle
 10
4.766883
 20
4.191726
 30
0.0
 40
2.218739
100
AcDbArc
 50
180.032844
 51
182.312729
  0
ARC
  5
56F
330
18
100
AcDbEntity
  8
0
100
AcDbCircle
 10
3.143412
 20
4.190795
 30
0.0
 40
0.595268
100
AcDbArc
 50
176.176029
 51
180.032844
  0
ARC
  5
570
330
18
100
AcDbEntity
  8
0
100
AcDbCircle
 10
-2.035239
 20
4.536937
 30
0.0
 40
4.594938
100
AcDbArc
 50
356.176029
 51
357.169352
  0
ARC
  5
571
330
18
100
AcDbEntity
  8
0
100
AcDbCircle
 10
3.103067
 20
3.522394
 30
0.0
 40
0.593947
100
AcDbArc
 50
163.317148
 51
167.833978
  0
ARC
  5
572
330
18
100
AcDbEntity
  8
0
100
AcDbCircle
 10
7.099253
 20
2.324784
 30
0.0
 40
4.765729
100
AcDbArc
 50
162.987952
 51
163.317148
  0
ARC
  5
573
330
18
100
AcDbEntity
  8
0
100
AcDbCircle
 10
2.597274
 20
3.702212
 30
0.0
 40
0.057745
100
AcDbArc
 50
159.996985
 51
162.987952
  0
ARC
  5
574
330
18
100
AcDbEntity
  8
0
100
AcDbCircle
 10
2.604692
 20
3.699512
 30
0.0
 40
0.065639
100
AcDbArc
 50
145.667528
 51
159.996985
  0
ARC
  5
575
330
18
100
AcDbEntity
  8
0
100
AcDbCircle
 10
2.014626
 20
4.102518
 30
0.0
 40
0.648918
100
AcDbArc
 50
325.667528
 51
329.14591
  0
LINE
  5
576
330
18
100
AcDbEntity
  8
0
100
AcDbLine
 10
8.870367
 20
3.00153
 30
0.0
 11
8.825353999999999
 21
2.95733
 31
0.0
  0
LINE
  5
577
330
18
100
AcDbEntity
  8
0
100
AcDbLine
 10
8.825353999999999
 20
2.95733
 30
0.0
 11
8.784346000000001
 21
2.949158
 31
0.0
  0
LINE
  5
578
330
18
100
AcDbEntity
  8
0
100
AcDbLine
 10
8.784346000000001
 20
2.949158
 30
0.0
 11
8.784346000000001
 21
2.949158
 31
0.0
  0
LINE
  5
579
330
18
100
AcDbEntity
  8
0
100
AcDbLine
 10
8.784346000000001
 20
2.949158
 30
0.0
 11
8.756615
 21
2.874973
 31
0.0
  0
LINE
  5
57A
330
18
100
AcDbEntity
  8
0
100
AcDbLine
 10
8.756615
 20
2.874973
 30
0.0
 11
8.720675
 21
2.850805
 31
0.0
  0
LINE
  5
57B
330
18
100
AcDbEntity
  8
0
100
AcDbLine
 10
8.720675
 20
2.850805
 30
0.0
 11
8.693789000000001
 21
2.815662
 31
0.0
  0
LINE
  5
57C
330
18
100
AcDbEntity
  8
0
100
AcDbLine
 10
8.693789000000001
 20
2.815662
 30
0.0
 11
8.673906000000001
 21
2.781548
 31
0.0
  0
LINE
  5
57D
330
18
100
AcDbEntity
  8
0
100
AcDbLine
 10
8.673906000000001
 20
2.781548
 30
0.0
 11
8.640060999999999
 21
2.734366
 31
0.0
  0
LINE
  5
57E
330
18
100
AcDbEntity
  8
0
100
AcDbLine
 10
8.640060999999999
 20
2.734366
 30
0.0
 11
8.602186999999999
 21
2.693173
 31
0.0
  0
LINE
  5
57F
330
18
100
AcDbEntity
  8
0
100
AcDbLine
 10
8.602186999999999
 20
2.693173
 30
0.0
 11
8.554260000000001
 21
2.662951
 31
0.0
  0
LINE
  5
580
330
18
100
AcDbEntity
  8
0
100
AcDbLine
 10
8.554260000000001
 20
2.662951
 30
0.0
 11
8.497256
 21
2.652029
 31
0.0
  0
LINE
  5
581
330
18
100
AcDbEntity
  8
0
100
AcDbLine
 10
7.39492
 20
2.273468
 30
0.0
 11
7.414673
 21
2.275005
 31
0.0
  0
LINE
  5
582
330
18
100
AcDbEntity
  8
0
100
AcDbLine
 10
7.414673
 20
2.275005
 30
0.0
 11
7.44343
 21
2.277943
 31
0.0
  0
LINE
  5
583
330
18
100
AcDbEntity
  8
0
100
AcDbLine
 10
7.44343
 20
2.277943
 30
0.0
 11
7.456697999999999
 21
2.279177
 31
0.0
  0
LINE
  5
584
330
18
100
AcDbEntity
  8
0
100
AcDbLine
 10
7.456697999999999
 20
2.279177
 30
0.0
 11
7.487975
 21
2.276482
 31
0.0
  0
LINE
  5
585
330
18
100
AcDbEntity
  8
0
100
AcDbLine
 10
7.487975
 20
2.276482
 30
0.0
 11
7.516777
 21
2.274413
 31
0.0
  0
LINE
  5
586
330
18
100
AcDbEntity
  8
0
100
AcDbLine
 10
7.516777
 20
2.274413
 30
0.0
 11
7.525834
 21
2.275445
 31
0.0
  0
LINE
  5
587
330
18
100
AcDbEntity
  8
0
100
AcDbLine
 10
7.525834
 20
2.275445
 30
0.0
 11
7.551794999999999
 21
2.278557
 31
0.0
  0
LINE
  5
588
330
18
100
AcDbEntity
  8
0
100
AcDbLine
 10
7.551794999999999
 20
2.278557
 30
0.0
 11
7.643238
 21
2.286874
 31
0.0
  0
LINE
  5
589
330
18
100
AcDbEntity
  8
0
100
AcDbLine
 10
7.643238
 20
2.286874
 30
0.0
 11
7.703889
 21
2.29318
 31
0.0
  0
LINE
  5
58A
330
18
100
AcDbEntity
  8
0
100
AcDbLine
 10
7.703889
 20
2.29318
 30
0.0
 11
7.723536999999999
 21
2.307255
 31
0.0
  0
LINE
  5
58B
330
18
100
AcDbEntity
  8
0
100
AcDbLine
 10
7.723536999999999
 20
2.307255
 30
0.0
 11
7.747783999999999
 21
2.330393
 31
0.0
  0
LINE
  5
58C
330
18
100
AcDbEntity
  8
0
100
AcDbLine
 10
7.747783999999999
 20
2.330393
 30
0.0
 11
7.799305
 21
2.32888
 31
0.0
  0
LINE
  5
58D
330
18
100
AcDbEntity
  8
0
100
AcDbLine
 10
7.799305
 20
2.32888
 30
0.0
 11
7.851903
 21
2.326806
 31
0.0
  0
LINE
  5
58E
330
18
100
AcDbEntity
  8
0
100
AcDbLine
 10
7.851903
 20
2.326806
 30
0.0
 11
7.876907000000001
 21
2.338806
 31
0.0
  0
LINE
  5
58F
330
18
100
AcDbEntity
  8
0
100
AcDbLine
 10
7.876907000000001
 20
2.338806
 30
0.0
 11
7.883866
 21
2.343951
 31
0.0
  0
LINE
  5
590
330
18
100
AcDbEntity
  8
0
100
AcDbLine
 10
7.883866
 20
2.343951
 30
0.0
 11
7.90194
 21
2.366534
 31
0.0
  0
LINE
  5
591
330
18
100
AcDbEntity
  8
0
100
AcDbLine
 10
7.90194
 20
2.366534
 30
0.0
 11
7.925691000000001
 21
2.398172
 31
0.0
  0
LINE
  5
592
330
18
100
AcDbEntity
  8
0
100
AcDbLine
 10
7.925691000000001
 20
2.398172
 30
0.0
 11
7.939479
 21
2.412835
 31
0.0
  0
LINE
  5
593
330
18
100
AcDbEntity
  8
0
100
AcDbLine
 10
7.939479
 20
2.412835
 30
0.0
 11
7.954603
 21
2.427317
 31
0.0
  0
LINE
  5
594
330
18
100
AcDbEntity
  8
0
100
AcDbLine
 10
7.954603
 20
2.427317
 30
0.0
 11
7.996507000000001
 21
2.438019
 31
0.0
  0
LINE
  5
595
330
18
100
AcDbEntity
  8
0
100
AcDbLine
 10
7.996507000000001
 20
2.438019
 30
0.0
 11
8.038602000000001
 21
2.448674
 31
0.0
  0
LINE
  5
596
330
18
100
AcDbEntity
  8
0
100
AcDbLine
 10
8.038602000000001
 20
2.448674
 30
0.0
 11
8.077463999999999
 21
2.489177
 31
0.0
  0
LINE
  5
597
330
18
100
AcDbEntity
  8
0
100
AcDbLine
 10
8.077463999999999
 20
2.489177
 30
0.0
 11
8.128310000000001
 21
2.544129
 31
0.0
  0
LINE
  5
598
330
18
100
AcDbEntity
  8
0
100
AcDbLine
 10
8.128310000000001
 20
2.544129
 30
0.0
 11
8.176986999999999
 21
2.590677
 31
0.0
  0
LINE
  5
599
330
18
100
AcDbEntity
  8
0
100
AcDbLine
 10
8.176986999999999
 20
2.590677
 30
0.0
 11
8.190138000000001
 21
2.602434
 31
0.0
  0
LINE
  5
59A
330
18
100
AcDbEntity
  8
0
100
AcDbLine
 10
8.190138000000001
 20
2.602434
 30
0.0
 11
8.214546
 21
2.619275
 31
0.0
  0
LINE
  5
59B
330
18
100
AcDbEntity
  8
0
100
AcDbLine
 10
8.214546
 20
2.619275
 30
0.0
 11
8.232087
 21
2.625625
 31
0.0
  0
LINE
  5
59C
330
18
100
AcDbEntity
  8
0
100
AcDbLine
 10
8.232087
 20
2.625625
 30
0.0
 11
8.244961999999999
 21
2.62749
 31
0.0
  0
LINE
  5
59D
330
18
100
AcDbEntity
  8
0
100
AcDbLine
 10
8.244961999999999
 20
2.62749
 30
0.0
 11
8.285119999999999
 21
2.630842
 31
0.0
  0
LINE
  5
59E
330
18
100
AcDbEntity
  8
0
100
AcDbLine
 10
8.285119999999999
 20
2.630842
 30
0.0
 11
8.337297999999999
 21
2.630845
 31
0.0
  0
LINE
  5
59F
330
18
100
AcDbEntity
  8
0
100
AcDbLine
 10
8.337297999999999
 20
2.630845
 30
0.0
 11
8.356182
 21
2.633129
 31
0.0
  0
LINE
  5
5A0
330
18
100
AcDbEntity
  8
0
100
AcDbLine
 10
8.356182
 20
2.633129
 30
0.0
 11
8.361545
 21
2.635133
 31
0.0
  0
LINE
  5
5A1
330
18
100
AcDbEntity
  8
0
100
AcDbLine
 10
8.361545
 20
2.635133
 30
0.0
 11
8.396153
 21
2.650306
 31
0.0
  0
LINE
  5
5A2
330
18
100
AcDbEntity
  8
0
100
AcDbLine
 10
8.396153
 20
2.650306
 30
0.0
 11
8.420474000000001
 21
2.662435
 31
0.0
  0
LINE
  5
5A3
330
18
100
AcDbEntity
  8
0
100
AcDbLine
 10
8.420474000000001
 20
2.662435
 30
0.0
 11
8.430122000000001
 21
2.666458
 31
0.0
  0
LINE
  5
5A4
330
18
100
AcDbEntity
  8
0
100
AcDbLine
 10
8.430122000000001
 20
2.666458
 30
0.0
 11
8.440277999999999
 21
2.665452
 31
0.0
  0
LINE
  5
5A5
330
18
100
AcDbEntity
  8
0
100
AcDbLine
 10
8.440277999999999
 20
2.665452
 30
0.0
 11
8.469208999999999
 21
2.654603
 31
0.0
  0
LINE
  5
5A6
330
18
100
AcDbEntity
  8
0
100
AcDbLine
 10
8.469208999999999
 20
2.654603
 30
0.0
 11
8.481667
 21
2.652029
 31
0.0
  0
LINE
  5
5A7
330
18
100
AcDbEntity
  8
0
100
AcDbLine
 10
8.481667
 20
2.652029
 30
0.0
 11
8.497256
 21
2.64971
 31
0.0
  0
ARC
  5
5A8
330
18
100
AcDbEntity
  8
0
100
AcDbCircle
 10
1.519021
 20
5.289767
 30
0.0
 40
0.280138
100
AcDbArc
 50
20.903836
 51
28.079873
  0
ARC
  5
5A9
330
18
100
AcDbEntity
  8
0
100
AcDbCircle
 10
1.679368
 20
5.351009
 30
0.0
 40
0.108494
100
AcDbArc
 50
9.360846
 51
20.903836
  0
ARC
  5
5AA
330
18
100
AcDbEntity
  8
0
100
AcDbCircle
 10
1.273373
 20
5.284082000000001
 30
0.0
 40
0.519968
100
AcDbArc
 50
6.132751
 51
9.360846
  0
ARC
  5
5AB
330
18
100
AcDbEntity
  8
0
100
AcDbCircle
 10
1.895074
 20
5.350882
 30
0.0
 40
0.105311
100
AcDbArc
 50
186.132751
 51
193.309428
  0
ARC
  5
5AC
330
18
100
AcDbEntity
  8
0
100
AcDbCircle
 10
2.269324
 20
5.439416000000001
 30
0.0
 40
0.489891
100
AcDbArc
 50
193.309428
 51
195.055891
  0
ARC
  5
5AD
330
18
100
AcDbEntity
  8
0
100
AcDbCircle
 10
2.668605
 20
5.546821
 30
0.0
 40
0.903365
100
AcDbArc
 50
195.055891
 51
196.341977
  0
ARC
  5
5AE
330
18
100
AcDbEntity
  8
0
100
AcDbCircle
 10
1.910892
 20
5.324648
 30
0.0
 40
0.113752
100
AcDbArc
 50
196.341977
 51
204.063581
  0
ARC
  5
5AF
330
18
100
AcDbEntity
  8
0
100
AcDbCircle
 10
1.684075
 20
5.22336
 30
0.0
 40
0.134653
100
AcDbArc
 50
16.967363
 51
24.063581
  0
ARC
  5
5B0
330
18
100
AcDbEntity
  8
0
100
AcDbCircle
 10
1.768454
 20
5.249105
 30
0.0
 40
0.046434
100
AcDbArc
 50
340.587078
 51
16.967363
  0
ARC
  5
5B1
330
18
100
AcDbEntity
  8
0
100
AcDbCircle
 10
1.880647
 20
5.209567000000001
 30
0.0
 40
0.072522
100
AcDbArc
 50
160.587078
 51
189.517543
  0
ARC
  5
5B2
330
18
100
AcDbEntity
  8
0
100
AcDbCircle
 10
2.76787
 20
5.358317
 30
0.0
 40
0.9721270000000001
100
AcDbArc
 50
189.517543
 51
192.08919
  0
ARC
  5
5B3
330
18
100
AcDbEntity
  8
0
100
AcDbCircle
 10
3.536423
 20
5.522928
 30
0.0
 40
1.758111
100
AcDbArc
 50
192.08919
 51
194.001391
  0
ARC
  5
5B4
330
18
100
AcDbEntity
  8
0
100
AcDbCircle
 10
3.492442
 20
5.511962
 30
0.0
 40
1.712783
100
AcDbArc
 50
194.001391
 51
195.055891
  0
ARC
  5
5B5
330
18
100
AcDbEntity
  8
0
100
AcDbCircle
 10
4.356178
 20
5.744302
 30
0.0
 40
2.607223
100
AcDbArc
 50
195.055891
 51
195.910577
  0
ARC
  5
5B6
330
18
100
AcDbEntity
  8
0
100
AcDbCircle
 10
1.920177
 20
5.049903000000001
 30
0.0
 40
0.074183
100
AcDbArc
 50
195.910577
 51
207.324964
  0
ARC
  5
5B7
330
18
100
AcDbEntity
  8
0
100
AcDbCircle
 10
2.198104
 20
5.193505
 30
0.0
 40
0.387017
100
AcDbArc
 50
207.324964
 51
225.053626
  0
TEXT
  5
5B8
330
18
100
AcDbEntity
  8
0
100
AcDbText
 10
2.047603391012461
 20
2.586379183164711
 30
0.0
 40
0.2
  1
MTS20
 72
     1
 11
2.528555771964842
 21
2.586379183164711
 31
0.0
100
AcDbText
  0
TEXT
  5
5B9
330
18
100
AcDbEntity
  8
0
100
AcDbText
 10
3.721129732705309
 20
1.804043327897527
 30
0.0
 40
0.2
  1
THA218
 72
     1
 11
4.263986875562452
 21
1.804043327897527
 31
0.0
100
AcDbText
  0
TEXT
  5
5BA
330
18
100
AcDbEntity
  8
0
100
AcDbText
 10
7.666962
 20
1.744591
 30
0.0
 40
0.2
  1
H10
 72
     1
 11
7.966962
 21
1.744591
 31
0.0
100
AcDbText
  0
TEXT
  5
5BB
330
18
100
AcDbEntity
  8
0
100
AcDbText
 10
0.9320950000000001
 20
1.268488
 30
0.0
 40
0.225
  1
Simpson Strong-Tie
100
AcDbText
  0
TEXT
  5
5BC
330
18
100
AcDbEntity
  8
0
100
AcDbText
 10
0.9320950000000001
 20
0.9042020000000001
 30
0.0
 40
0.225
  1
Truss and Rafter Connections
100
AcDbText
  0
LINE
  5
5BD
330
18
100
AcDbEntity
  8
0
  6
HIDDEN
100
AcDbLine
 10
7.792679
 20
3.255627
 30
0.0
 11
7.612742999999999
 21
3.306829
 31
0.0
  0
LINE
  5
5BE
330
18
100
AcDbEntity
  8
0
100
AcDbLine
 10
6.363122969980838
 20
5.203071714328926
 30
0.0
 11
5.848257902454377
 21
4.79231734912698
 31
0.0
  0
LINE
  5
5BF
330
18
100
AcDbEntity
  8
0
100
AcDbLine
 10
6.363122969980838
 20
5.703867187444653
 30
0.0
 11
5.848257902454377
 21
5.293112822242707
 31
0.0
  0
LINE
  5
5C0
330
18
100
AcDbEntity
  8
0
100
AcDbLine
 10
5.848257902454377
 20
5.293112822242707
 30
0.0
 11
5.848257902454377
 21
4.79231734912698
 31
0.0
  0
LINE
  5
5C1
330
18
100
AcDbEntity
  8
0
100
AcDbLine
 10
6.363122969980838
 20
5.703867187444653
 30
0.0
 11
6.363122969980838
 21
5.203071714328926
 31
0.0
  0
LINE
  5
5C2
330
18
100
AcDbEntity
  8
0
  6
HIDDEN
100
AcDbLine
 10
6.363122969980838
 20
5.633927404058439
 30
0.0
 11
5.910090403505353
 21
5.272502409442966
 31
0.0
  0
LINE
  5
5C3
330
18
100
AcDbEntity
  8
0
  6
HIDDEN
100
AcDbLine
 10
6.302550818198455
 20
5.515663744527707
 30
0.0
 11
5.848257902454377
 21
5.153233255470281
 31
0.0
  0
LINE
  5
5C4
330
18
100
AcDbEntity
  8
0
  6
HIDDEN
100
AcDbLine
 10
6.363122969980838
 20
5.363290783455097
 30
0.0
 11
5.910090403505353
 21
5.001865788839624
 31
0.0
  0
LINE
  5
5C5
330
18
100
AcDbEntity
  8
0
  6
HIDDEN
100
AcDbLine
 10
6.302550818198455
 20
5.38490669069679
 30
0.0
 11
5.848257902454377
 21
5.022476201639364
 31
0.0
  0
LINE
  5
5C6
330
18
100
AcDbEntity
  8
0
  6
HIDDEN
100
AcDbLine
 10
6.363122969980838
 20
5.503170350227523
 30
0.0
 11
5.910090403505353
 21
5.14174535561205
 31
0.0
  0
LINE
  5
5C7
330
18
100
AcDbEntity
  8
0
  6
HIDDEN
100
AcDbLine
 10
6.363122969980838
 20
5.244697141095368
 30
0.0
 11
5.910090403505353
 21
4.883272146479895
 31
0.0
  0
LINE
  5
5C8
330
18
100
AcDbEntity
  8
0
  6
HIDDEN
100
AcDbLine
 10
6.302550818198455
 20
5.257190535395552
 30
0.0
 11
5.848257902454377
 21
4.894760046338125
 31
0.0
  0
LINE
  5
5C9
330
18
100
AcDbEntity
  8
0
100
AcDbLine
 10
6.333570582461638
 20
5.680290578850932
 30
0.0
 11
6.775335000000001
 21
6.449622
 31
0.0
  0
LINE
  5
5CA
330
18
100
AcDbEntity
  8
0
  6
HIDDEN
100
AcDbLine
 10
8.479773008796324
 20
4.748826535315254
 30
0.0
 11
8.080107913127394
 21
4.329142911231463
 31
0.0
  0
LINE
  5
5CB
330
18
100
AcDbEntity
  8
0
  6
HIDDEN
100
AcDbLine
 10
8.485820327698125
 20
4.601687502699707
 30
0.0
 11
8.086155232029197
 21
4.182003878615916
 31
0.0
  0
LINE
  5
5CC
330
18
100
AcDbEntity
  8
0
  6
HIDDEN
100
AcDbLine
 10
8.46963436299154
 20
4.422048072465704
 30
0.0
 11
8.069969267322611
 21
4.002364448381913
 31
0.0
  0
LINE
  5
5CD
330
18
100
AcDbEntity
  8
0
  6
HIDDEN
100
AcDbLine
 10
8.491632876000184
 20
4.313354971071622
 30
0.0
 11
8.091967780331256
 21
3.893671346987831
 31
0.0
  0
LINE
  5
5CE
330
18
100
AcDbEntity
  8
0
  6
HIDDEN
100
AcDbLine
 10
8.468125636442002
 20
4.664483142457012
 30
0.0
 11
8.067348661300638
 21
4.243631946794936
 31
0.0
  0
LINE
  5
5CF
330
18
100
AcDbEntity
  8
0
  6
HIDDEN
100
AcDbLine
 10
8.480041480983424
 20
4.511478476119842
 30
0.0
 11
8.07926450584206
 21
4.090627280457766
 31
0.0
  0
LINE
  5
5D0
330
18
100
AcDbEntity
  8
0
  6
HIDDEN
100
AcDbLine
 10
8.465135426725889
 20
4.346822198690794
 30
0.0
 11
8.064358451584527
 21
3.925971003028717
 31
0.0
  0
LINE
  5
5D1
330
18
100
AcDbEntity
  8
0
100
AcDbLine
 10
8.497294373485323
 20
4.272116353251499
 30
0.0
 11
8.043080677391828
 21
3.795151884372984
 31
0.0
  0
LINE
  5
5D2
330
18
100
AcDbEntity
  8
0
100
AcDbLine
 10
8.497294373485323
 20
4.839783284698672
 30
0.0
 11
8.043080677391828
 21
4.362818815820155
 31
0.0
  0
LINE
  5
5D3
330
18
100
AcDbEntity
  8
0
100
AcDbLine
 10
8.043080677391828
 20
3.795151884372984
 30
0.0
 11
8.043080677391828
 21
4.362818815820155
 31
0.0
  0
LINE
  5
5D4
330
18
100
AcDbEntity
  8
0
100
AcDbLine
 10
8.497294373485323
 20
4.272116353251499
 30
0.0
 11
8.497294373485323
 21
4.839783284698672
 31
0.0
  0
LINE
  5
5D5
330
18
100
AcDbEntity
  8
0
100
AcDbLine
 10
8.387577096187952
 20
4.724570460111883
 30
0.0
 11
9.129857000000001
 21
6.557434
 31
0.0
  0
LINE
  5
5D6
330
18
100
AcDbEntity
  8
0
100
AcDbLine
 10
3.882583711838137
 20
4.735461549811117
 30
0.0
 11
3.592465513440538
 21
4.826944436871878
 31
0.0
  0
LINE
  5
5D7
330
18
100
AcDbEntity
  8
0
100
AcDbLine
 10
3.532727030255027
 20
4.953972229179451
 30
0.0
 11
3.648160053424246
 21
5.11240408202509
 31
0.0
  0
LINE
  5
5D8
330
18
100
AcDbEntity
  8
0
100
AcDbLine
 10
3.53415274416475
 20
5.604976726993433
 30
0.0
 11
4.174061662832192
 21
6.468861062481635
 31
0.0
  0
LINE
  5
5D9
330
18
100
AcDbEntity
  8
0
100
AcDbLine
 10
3.290530617595874
 20
6.646724626331741
 30
0.0
 11
4.140736552912961
 21
7.805338095287064
 31
0.0
  0
LINE
  5
5DA
330
18
100
AcDbEntity
  8
0
100
AcDbLine
 10
3.290530617595874
 20
6.646724626331741
 30
0.0
 11
3.290530617595874
 21
6.53360562633174
 31
0.0
  0
LWPOLYLINE
  5
5DB
330
18
100
AcDbEntity
  8
0
100
AcDbPolyline
 90
       16
 70
     0
 43
0.0
 10
1.924697909036985
 20
4.919586640423057
 10
1.937598908360492
 20
4.826743091921806
 10
1.922394385273559
 20
4.758355690674854
 10
1.914792108509466
 20
4.727961317179545
 10
1.907189831745372
 20
4.667172539747674
 10
1.914792108509466
 20
4.568390765005413
 10
1.914792108509466
 20
4.462010366448071
 10
1.876780785571506
 20
4.340432811584329
 10
1.853973985720479
 20
4.249249630215895
 10
1.838769462633546
 20
4.165665042221288
 10
1.846371708956386
 20
4.09727767141559
 10
1.831167185869453
 20
3.983298709925675
 10
1.861576262484572
 20
3.808530940562635
 10
1.869178508807413
 20
3.785735160441153
 10
1.869178508807413
 20
3.671756198951237
 10
1.886228384094031
 20
3.585155020829801
  0
LINE
  5
5EE
330
18
100
AcDbEntity
  8
0
  6
HIDDEN
100
AcDbLine
 10
4.155919310044475
 20
5.848652916824901
 30
0.0
 11
3.70848939051721
 21
5.537918056101137
 31
0.0
  0
LINE
  5
5EF
330
18
100
AcDbEntity
  8
0
  6
HIDDEN
100
AcDbLine
 10
4.155919310044475
 20
5.724206815300525
 30
0.0
 11
3.699816782552299
 21
5.407448929494004
 31
0.0
  0
LINE
  5
5F0
330
18
100
AcDbEntity
  8
0
  6
HIDDEN
100
AcDbLine
 10
4.155919310044475
 20
5.5910784963476
 30
0.0
 11
3.690539113704792
 21
5.267877377732201
 31
0.0
  0
LINE
  5
5F1
330
18
100
AcDbEntity
  8
0
  6
HIDDEN
100
AcDbLine
 10
4.158680163070303
 20
5.480126122898517
 30
0.0
 11
3.682673257621442
 21
5.149544878746405
 31
0.0
  0
LINE
  5
5F2
330
18
100
AcDbEntity
  8
0
  6
HIDDEN
100
AcDbLine
 10
4.116213554547674
 20
5.754513573245271
 30
0.0
 11
3.648160053424246
 21
5.42945587563639
 31
0.0
  0
LINE
  5
5F3
330
18
100
AcDbEntity
  8
0
  6
HIDDEN
100
AcDbLine
 10
4.107540946582763
 20
5.624044446638138
 30
0.0
 11
3.648160053424246
 21
5.305009774112014
 31
0.0
  0
LINE
  5
5F4
330
18
100
AcDbEntity
  8
0
  6
HIDDEN
100
AcDbLine
 10
4.099070029616817
 20
5.496609522497672
 30
0.0
 11
3.648160053424246
 21
5.183457803007851
 31
0.0
  0
LINE
  5
5F5
330
18
100
AcDbEntity
  8
0
100
AcDbLine
 10
4.155919310044475
 20
5.438592355382697
 30
0.0
 11
3.648160053424246
 21
5.085959473670648
 31
0.0
  0
LINE
  5
5F6
330
18
100
AcDbEntity
  8
0
100
AcDbLine
 10
4.155919310044475
 20
5.915217076301365
 30
0.0
 11
3.648160053424246
 21
5.562584194589316
 31
0.0
  0
LINE
  5
5F7
330
18
100
AcDbEntity
  8
0
100
AcDbLine
 10
4.155919310044475
 20
5.438592355382697
 30
0.0
 11
4.155919310044475
 21
5.915217076301365
 31
0.0
  0
LINE
  5
5F8
330
18
100
AcDbEntity
  8
0
100
AcDbLine
 10
3.648160053424246
 20
5.562584194589316
 30
0.0
 11
3.648160053424246
 21
5.085959473670648
 31
0.0
  0
LINE
  5
5F9
330
18
100
AcDbEntity
  8
0
100
AcDbLine
 10
4.155919310044475
 20
5.809303787302141
 30
0.0
 11
4.613033758614486
 21
6.436693481006112
 31
0.0
  0
TEXT
  5
5FA
330
18
100
AcDbEntity
  8
0
100
AcDbText
 10
0.9320950000000001
 20
0.5742201566244842
 30
0.0
 40
0.225
  1
to Masonry/Concrete
100
AcDbText
  0
ENDSEC
  0
SECTION
  2
OBJECTS
  0
DICTIONARY
  5
C
330
0
100
AcDbDictionary
281
     1
  3
ACAD_COLOR
350
600
  3
ACAD_GROUP
350
D
  3
ACAD_LAYOUT
350
15
  3
ACAD_MATERIAL
350
602
  3
ACAD_MLINESTYLE
350
12
  3
ACAD_PLOTSETTINGS
350
14
  3
ACAD_PLOTSTYLENAME
350
E
  3
ACDBHEADERROUNDTRIPXREC
350
5FF
  0
DICTIONARY
  5
600
102
{ACAD_REACTORS
330
C
102
}
330
C
100
AcDbDictionary
281
     1
  0
DICTIONARY
  5
D
102
{ACAD_REACTORS
330
C
102
}
330
C
100
AcDbDictionary
281
     1
  0
DICTIONARY
  5
15
102
{ACAD_REACTORS
330
C
102
}
330
C
100
AcDbDictionary
281
     1
  3
Layout1
350
17
  3
Model
350
19
  0
DICTIONARY
  5
602
102
{ACAD_REACTORS
330
C
102
}
330
C
100
AcDbDictionary
281
     1
  0
DICTIONARY
  5
12
102
{ACAD_REACTORS
330
C
102
}
330
C
100
AcDbDictionary
281
     1
  3
Standard
350
13
  0
DICTIONARY
  5
14
102
{ACAD_REACTORS
330
C
102
}
330
C
100
AcDbDictionary
281
     1
  0
ACDBDICTIONARYWDFLT
  5
E
102
{ACAD_REACTORS
330
C
102
}
330
C
100
AcDbDictionary
281
     1
  3
Normal
350
F
100
AcDbDictionaryWithDefault
340
F
  0
DICTIONARY
  5
5FF
102
{ACAD_REACTORS
330
C
102
}
330
C
100
AcDbDictionary
281
     1
  3
COLORDICT
350
601
  3
MATERIALDICT
350
603
  0
LAYOUT
  5
17
102
{ACAD_REACTORS
330
15
102
}
102
{ACAD_XDICTIONARY
360
604
102
}
330
15
100
AcDbPlotSettings
  1

  2

  4

  6

 40
0.0
 41
0.0
 42
0.0
 43
0.0
 44
0.0
 45
0.0
 46
0.0
 47
0.0
 48
0.0
 49
0.0
140
0.0
141
0.0
142
1.0
143
1.0
 70
   688
 72
     0
 73
     0
 74
     5
  7

 75
    16
147
1.0
148
0.0
149
0.0
100
AcDbLayout
  1
Layout1
 70
     1
 71
     1
 10
0.0
 20
0.0
 11
12.0
 21
9.0
 12
0.0
 22
0.0
 32
0.0
 14
1.000000000000000E+20
 24
1.000000000000000E+20
 34
1.000000000000000E+20
 15
-1.000000000000000E+20
 25
-1.000000000000000E+20
 35
-1.000000000000000E+20
146
0.0
 13
0.0
 23
0.0
 33
0.0
 16
1.0
 26
0.0
 36
0.0
 17
0.0
 27
1.0
 37
0.0
 76
     0
330
16
  0
LAYOUT
  5
19
102
{ACAD_REACTORS
330
15
102
}
102
{ACAD_XDICTIONARY
360
606
102
}
330
15
100
AcDbPlotSettings
  1

  2

  4

  6

 40
0.0
 41
0.0
 42
0.0
 43
0.0
 44
0.0
 45
0.0
 46
0.0
 47
0.0
 48
0.0
 49
0.0
140
0.0
141
0.0
142
1.0
143
1.0
 70
  1712
 72
     0
 73
     0
 74
     0
  7

 75
     0
147
1.0
148
0.0
149
0.0
100
AcDbLayout
  1
Model
 70
     1
 71
     0
 10
0.0
 20
0.0
 11
0.0
 21
0.0
 12
0.0
 22
0.0
 32
0.0
 14
0.0
 24
0.0
 34
0.0
 15
0.0
 25
0.0
 35
0.0
146
0.0
 13
0.0
 23
0.0
 33
0.0
 16
1.0
 26
0.0
 36
0.0
 17
0.0
 27
1.0
 37
0.0
 76
     0
330
18
  0
MLINESTYLE
  5
13
102
{ACAD_REACTORS
330
12
102
}
330
12
100
AcDbMlineStyle
  2
Standard
 70
     0
  3

 62
   256
 51
90.0
 52
90.0
 71
     2
 49
0.5
 62
   256
  6
BYLAYER
 49
-0.5
 62
   256
  6
BYLAYER
  0
ACDBPLACEHOLDER
  5
F
102
{ACAD_REACTORS
330
E
102
}
330
E
  0
XRECORD
  5
601
102
{ACAD_REACTORS
330
5FF
102
}
330
5FF
100
AcDbXrecord
340
600
  0
XRECORD
  5
603
102
{ACAD_REACTORS
330
5FF
102
}
330
5FF
100
AcDbXrecord
340
602
  0
DICTIONARY
  5
604
330
17
100
AcDbDictionary
280
     1
281
     1
  3
ACAD_XREC_ROUNDTRIP
360
605
  0
DICTIONARY
  5
606
330
19
100
AcDbDictionary
280
     1
281
     1
  3
ACAD_XREC_ROUNDTRIP
360
607
  0
XRECORD
  5
605
102
{ACAD_REACTORS
330
604
102
}
330
604
100
AcDbXrecord
102
SHADEPLOT
 70
     0
102
SHADEPLOTRESLEVEL
 70
     0
102
SHADEPLOTCUSTOMDPI
 70
     0
  0
XRECORD
  5
607
102
{ACAD_REACTORS
330
606
102
}
330
606
100
AcDbXrecord
102
SHADEPLOT
 70
     0
102
SHADEPLOTRESLEVEL
 70
     0
102
SHADEPLOTCUSTOMDPI
 70
     0
  0
ENDSEC
  0
EOF
