  0
SECTION
  2
HEADER
  9
$ACADVER
  1
AC1015
  9
$ACADMAINTVER
 70
     6
  9
$DWGCODEPAGE
  3
ASCII
  9
$INSBASE
 10
0.0
 20
0.0
 30
0.0
  9
$EXTMIN
 10
0.5165160003065717
 20
0.6379823924086508
 30
0.0
  9
$EXTMAX
 10
8.325555694352625
 20
8.969091000000001
 30
0.0
  9
$LIMMIN
 10
0.0
 20
0.0
  9
$LIMMAX
 10
8.5
 20
11.0
  9
$ORTHOMODE
 70
     1
  9
$REGENMODE
 70
     0
  9
$FILLMODE
 70
     1
  9
$QTEXTMODE
 70
     0
  9
$MIRRTEXT
 70
     1
  9
$LTSCALE
 40
0.2
  9
$ATTMODE
 70
     1
  9
$TEXTSIZE
 40
0.15
  9
$TRACEWID
 40
0.05
  9
$TEXTSTYLE
  7
STANDARD
  9
$CLAYER
  8
0
  9
$CELTYPE
  6
ByLayer
  9
$CECOLOR
 62
   256
  9
$CELTSCALE
 40
1.0
  9
$DISPSILH
 70
     0
  9
$DIMSCALE
 40
1.0
  9
$DIMASZ
 40
0.2
  9
$DIMEXO
 40
0.0625
  9
$DIMDLI
 40
0.38
  9
$DIMRND
 40
0.0
  9
$DIMDLE
 40
0.0
  9
$DIMEXE
 40
0.075
  9
$DIMTP
 40
0.0
  9
$DIMTM
 40
0.0
  9
$DIMTXT
 40
0.1
  9
$DIMCEN
 40
0.09
  9
$DIMTSZ
 40
0.0
  9
$DIMTOL
 70
     0
  9
$DIMLIM
 70
     0
  9
$DIMTIH
 70
     0
  9
$DIMTOH
 70
     0
  9
$DIMSE1
 70
     0
  9
$DIMSE2
 70
     0
  9
$DIMTAD
 70
     1
  9
$DIMZIN
 70
     0
  9
$DIMBLK
  1

  9
$DIMASO
 70
     0
  9
$DIMSHO
 70
     1
  9
$DIMPOST
  1

  9
$DIMAPOST
  1

  9
$DIMALT
 70
     0
  9
$DIMALTD
 70
     2
  9
$DIMALTF
 40
25.4
  9
$DIMLFAC
 40
1.0
  9
$DIMTOFL
 70
     0
  9
$DIMTVP
 40
0.0
  9
$DIMTIX
 70
     0
  9
$DIMSOXD
 70
     0
  9
$DIMSAH
 70
     0
  9
$DIMBLK1
  1

  9
$DIMBLK2
  1

  9
$DIMSTYLE
  2
Standard
  9
$DIMCLRD
 70
     0
  9
$DIMCLRE
 70
     0
  9
$DIMCLRT
 70
     0
  9
$DIMTFAC
 40
1.0
  9
$DIMGAP
 40
0.09
  9
$DIMJUST
 70
     0
  9
$DIMSD1
 70
     0
  9
$DIMSD2
 70
     0
  9
$DIMTOLJ
 70
     1
  9
$DIMTZIN
 70
     0
  9
$DIMALTZ
 70
     0
  9
$DIMALTTZ
 70
     0
  9
$DIMUPT
 70
     0
  9
$DIMDEC
 70
     4
  9
$DIMTDEC
 70
     4
  9
$DIMALTU
 70
     2
  9
$DIMALTTD
 70
     2
  9
$DIMTXSTY
  7
STANDARD
  9
$DIMAUNIT
 70
     0
  9
$DIMADEC
 70
     0
  9
$DIMALTRND
 40
0.0
  9
$DIMAZIN
 70
     0
  9
$DIMDSEP
 70
    46
  9
$DIMATFIT
 70
     3
  9
$DIMFRAC
 70
     0
  9
$DIMLDRBLK
  1

  9
$DIMLUNIT
 70
     2
  9
$DIMLWD
 70
    -2
  9
$DIMLWE
 70
    -2
  9
$DIMTMOVE
 70
     0
  9
$LUNITS
 70
     2
  9
$LUPREC
 70
     4
  9
$SKETCHINC
 40
0.1
  9
$FILLETRAD
 40
0.01
  9
$AUNITS
 70
     0
  9
$AUPREC
 70
     0
  9
$MENU
  1
acad
  9
$ELEVATION
 40
0.0
  9
$PELEVATION
 40
0.0
  9
$THICKNESS
 40
0.0
  9
$LIMCHECK
 70
     0
  9
$CHAMFERA
 40
0.0
  9
$CHAMFERB
 40
0.0
  9
$CHAMFERC
 40
1.0
  9
$CHAMFERD
 40
0.0
  9
$SKPOLY
 70
     0
  9
$TDCREATE
 40
2453955.560368877
  9
$TDUCREATE
 40
2453955.893702211
  9
$TDUPDATE
 40
2453955.602035556
  9
$TDUUPDATE
 40
2453955.893702222
  9
$TDINDWG
 40
0.0000000116
  9
$TDUSRTIMER
 40
0.0000000116
  9
$USRTIMER
 70
     1
  9
$ANGBASE
 50
0.0
  9
$ANGDIR
 70
     0
  9
$PDMODE
 70
     0
  9
$PDSIZE
 40
0.0
  9
$PLINEWID
 40
0.0
  9
$SPLFRAME
 70
     0
  9
$SPLINETYPE
 70
     6
  9
$SPLINESEGS
 70
     8
  9
$HANDSEED
  5
453
  9
$SURFTAB1
 70
     6
  9
$SURFTAB2
 70
     6
  9
$SURFTYPE
 70
     6
  9
$SURFU
 70
     6
  9
$SURFV
 70
     6
  9
$UCSBASE
  2

  9
$UCSNAME
  2

  9
$UCSORG
 10
0.0
 20
0.0
 30
0.0
  9
$UCSXDIR
 10
1.0
 20
0.0
 30
0.0
  9
$UCSYDIR
 10
0.0
 20
1.0
 30
0.0
  9
$UCSORTHOREF
  2

  9
$UCSORTHOVIEW
 70
     0
  9
$UCSORGTOP
 10
0.0
 20
0.0
 30
0.0
  9
$UCSORGBOTTOM
 10
0.0
 20
0.0
 30
0.0
  9
$UCSORGLEFT
 10
0.0
 20
0.0
 30
0.0
  9
$UCSORGRIGHT
 10
0.0
 20
0.0
 30
0.0
  9
$UCSORGFRONT
 10
0.0
 20
0.0
 30
0.0
  9
$UCSORGBACK
 10
0.0
 20
0.0
 30
0.0
  9
$PUCSBASE
  2

  9
$PUCSNAME
  2

  9
$PUCSORG
 10
0.0
 20
0.0
 30
0.0
  9
$PUCSXDIR
 10
1.0
 20
0.0
 30
0.0
  9
$PUCSYDIR
 10
0.0
 20
1.0
 30
0.0
  9
$PUCSORTHOREF
  2

  9
$PUCSORTHOVIEW
 70
     0
  9
$PUCSORGTOP
 10
0.0
 20
0.0
 30
0.0
  9
$PUCSORGBOTTOM
 10
0.0
 20
0.0
 30
0.0
  9
$PUCSORGLEFT
 10
0.0
 20
0.0
 30
0.0
  9
$PUCSORGRIGHT
 10
0.0
 20
0.0
 30
0.0
  9
$PUCSORGFRONT
 10
0.0
 20
0.0
 30
0.0
  9
$PUCSORGBACK
 10
0.0
 20
0.0
 30
0.0
  9
$USERI1
 70
     0
  9
$USERI2
 70
     0
  9
$USERI3
 70
     0
  9
$USERI4
 70
     0
  9
$USERI5
 70
     0
  9
$USERR1
 40
0.0
  9
$USERR2
 40
0.0
  9
$USERR3
 40
0.0
  9
$USERR4
 40
0.0
  9
$USERR5
 40
0.0
  9
$WORLDVIEW
 70
     1
  9
$SHADEDGE
 70
     3
  9
$SHADEDIF
 70
    70
  9
$TILEMODE
 70
     1
  9
$MAXACTVP
 70
    16
  9
$PINSBASE
 10
0.0
 20
0.0
 30
0.0
  9
$PLIMCHECK
 70
     0
  9
$PEXTMIN
 10
1.000000000000000E+20
 20
1.000000000000000E+20
 30
1.000000000000000E+20
  9
$PEXTMAX
 10
-1.000000000000000E+20
 20
-1.000000000000000E+20
 30
-1.000000000000000E+20
  9
$PLIMMIN
 10
0.0
 20
0.0
  9
$PLIMMAX
 10
12.0
 20
9.0
  9
$UNITMODE
 70
     0
  9
$VISRETAIN
 70
     0
  9
$PLINEGEN
 70
     0
  9
$PSLTSCALE
 70
     1
  9
$TREEDEPTH
 70
  3020
  9
$CMLSTYLE
  2
Standard
  9
$CMLJUST
 70
     0
  9
$CMLSCALE
 40
1.0
  9
$PROXYGRAPHICS
 70
     1
  9
$MEASUREMENT
 70
     0
  9
$CELWEIGHT
370
    -1
  9
$ENDCAPS
280
     0
  9
$JOINSTYLE
280
     0
  9
$LWDISPLAY
290
     0
  9
$INSUNITS
 70
     1
  9
$HYPERLINKBASE
  1

  9
$STYLESHEET
  1

  9
$XEDIT
290
     1
  9
$CEPSNTYPE
380
     0
  9
$PSTYLEMODE
290
     0
  9
$FINGERPRINTGUID
  2
{FAEB1C30-E019-11D5-929B-00C0DF256EC4}
  9
$VERSIONGUID
  2
{FAEB1C32-E019-11D5-929B-00C0DF256EC4}
  9
$EXTNAMES
290
     1
  9
$PSVPSCALE
 40
0.0
  9
$OLESTARTUP
290
     0
  0
ENDSEC
  0
SECTION
  2
CLASSES
  0
CLASS
  1
ACDBDICTIONARYWDFLT
  2
AcDbDictionaryWithDefault
  3
AutoCAD 2000
 90
        0
280
     0
281
     0
  0
CLASS
  1
ACDBPLACEHOLDER
  2
AcDbPlaceHolder
  3
ObjectDBX Classes
 90
        0
280
     0
281
     0
  0
CLASS
  1
LAYOUT
  2
AcDbLayout
  3
ObjectDBX Classes
 90
        0
280
     0
281
     0
  0
ENDSEC
  0
SECTION
  2
TABLES
  0
TABLE
  2
VPORT
  5
8
330
0
100
AcDbSymbolTable
 70
     2
  0
VPORT
  5
1F
330
8
100
AcDbSymbolTableRecord
100
AcDbViewportTableRecord
  2
*ACTIVE
 70
     0
 10
0.0
 20
0.0
 11
1.0
 21
1.0
 12
6.039284207391207
 22
4.897213622291011
 13
0.0
 23
0.0
 14
1.0
 24
1.0
 15
0.0
 25
0.0
 16
0.0
 26
0.0
 36
1.0
 17
0.0
 27
0.0
 37
0.0
 40
8.569825883089985
 41
0.6891025641025641
 42
50.0
 43
0.0
 44
0.0
 50
0.0
 51
0.0
 71
     0
 72
  2000
 73
     1
 74
     0
 75
     0
 76
     0
 77
     0
 78
     0
281
     0
 65
     1
110
0.0
120
0.0
130
0.0
111
1.0
121
0.0
131
0.0
112
0.0
122
1.0
132
0.0
 79
     0
146
0.0
  0
ENDTAB
  0
TABLE
  2
LTYPE
  5
5
330
0
100
AcDbSymbolTable
 70
     2
  0
LTYPE
  5
10
330
5
100
AcDbSymbolTableRecord
100
AcDbLinetypeTableRecord
  2
ByBlock
 70
     0
  3

 72
    65
 73
     0
 40
0.0
  0
LTYPE
  5
11
330
5
100
AcDbSymbolTableRecord
100
AcDbLinetypeTableRecord
  2
ByLayer
 70
     0
  3

 72
    65
 73
     0
 40
0.0
  0
LTYPE
  5
1B
330
5
100
AcDbSymbolTableRecord
100
AcDbLinetypeTableRecord
  2
CONTINUOUS
 70
     0
  3
Solid line
 72
    65
 73
     0
 40
0.0
  0
LTYPE
  5
1C
330
5
100
AcDbSymbolTableRecord
100
AcDbLinetypeTableRecord
  2
HIDDEN
 70
     0
  3
__ __ __ __ __ __ __ __ __ __ __ __ __ __ __ __
 72
    65
 73
     2
 40
0.375
 49
0.25
 74
     0
 49
-0.125
 74
     0
  0
ENDTAB
  0
TABLE
  2
LAYER
  5
2
330
0
100
AcDbSymbolTable
 70
     1
  0
LAYER
  5
1D
330
2
100
AcDbSymbolTableRecord
100
AcDbLayerTableRecord
  2
0
 70
     0
 62
     7
  6
CONTINUOUS
370
    -3
390
F
  0
ENDTAB
  0
TABLE
  2
STYLE
  5
3
330
0
100
AcDbSymbolTable
 70
     1
  0
STYLE
  5
22
330
3
100
AcDbSymbolTableRecord
100
AcDbTextStyleTableRecord
  2
STANDARD
 70
     0
 40
0.0
 41
1.0
 50
0.0
 71
     0
 42
0.15
  3
ROMANS.SHX
  4

  0
ENDTAB
  0
TABLE
  2
VIEW
  5
6
330
0
100
AcDbSymbolTable
 70
     1
  0
VIEW
  5
21
330
6
100
AcDbSymbolTableRecord
100
AcDbViewTableRecord
  2
1
 70
     0
 40
11.0
 10
7.225941000000001
 20
5.5
 41
14.451883
 11
0.0
 21
0.0
 31
1.0
 12
0.0
 22
0.0
 32
0.0
 42
50.0
 43
0.0
 44
0.0
 50
0.0
 71
     0
281
     0
 72
     0
  0
ENDTAB
  0
TABLE
  2
UCS
  5
7
330
0
100
AcDbSymbolTable
 70
     0
  0
ENDTAB
  0
TABLE
  2
APPID
  5
9
330
0
100
AcDbSymbolTable
 70
     1
  0
APPID
  5
20
330
9
100
AcDbSymbolTableRecord
100
AcDbRegAppTableRecord
  2
ACAD
 70
     0
  0
ENDTAB
  0
TABLE
  2
DIMSTYLE
  5
A
330
0
100
AcDbSymbolTable
 70
     1
100
AcDbDimStyleTable
  0
DIMSTYLE
105
23
330
A
100
AcDbSymbolTableRecord
100
AcDbDimStyleTableRecord
  2
Standard
 70
     0
  3

  4

340
22
  0
ENDTAB
  0
TABLE
  2
BLOCK_RECORD
  5
1
330
0
100
AcDbSymbolTable
 70
     0
  0
BLOCK_RECORD
  5
18
330
1
100
AcDbSymbolTableRecord
100
AcDbBlockTableRecord
  2
*Model_Space
340
19
  0
BLOCK_RECORD
  5
16
330
1
100
AcDbSymbolTableRecord
100
AcDbBlockTableRecord
  2
*Paper_Space
340
17
  0
ENDTAB
  0
ENDSEC
  0
SECTION
  2
BLOCKS
  0
BLOCK
  5
448
330
18
100
AcDbEntity
  8
0
100
AcDbBlockBegin
  2
*Model_Space
 70
     0
 10
0.0
 20
0.0
 30
0.0
  3
*Model_Space
  1

  4

  0
ENDBLK
  5
449
330
18
100
AcDbEntity
  8
0
100
AcDbBlockEnd
  0
BLOCK
  5
446
330
16
100
AcDbEntity
 67
     1
  8
0
100
AcDbBlockBegin
  2
*Paper_Space
 70
     0
 10
0.0
 20
0.0
 30
0.0
  3
*Paper_Space
  1

  4

  0
ENDBLK
  5
447
330
16
100
AcDbEntity
 67
     1
  8
0
100
AcDbBlockEnd
  0
ENDSEC
  0
SECTION
  2
ENTITIES
  0
LINE
  5
24
330
18
100
AcDbEntity
  8
0
100
AcDbLine
 10
1.948757263522616
 20
3.607534307697027
 30
0.0
 11
2.690861
 21
3.273047
 31
0.0
  0
LINE
  5
25
330
18
100
AcDbEntity
  8
0
100
AcDbLine
 10
2.777322
 20
3.830506
 30
0.0
 11
2.777322
 21
3.234076
 31
0.0
  0
LINE
  5
26
330
18
100
AcDbEntity
  8
0
100
AcDbLine
 10
2.690861
 20
3.867878
 30
0.0
 11
2.690861
 21
3.273047
 31
0.0
  0
LINE
  5
27
330
18
100
AcDbEntity
  8
0
100
AcDbLine
 10
3.877391
 20
3.355018
 30
0.0
 11
3.877391
 21
2.738243
 31
0.0
  0
LINE
  5
28
330
18
100
AcDbEntity
  8
0
100
AcDbLine
 10
3.79093
 20
3.392389
 30
0.0
 11
3.79093
 21
2.777214
 31
0.0
  0
LINE
  5
29
330
18
100
AcDbEntity
  8
0
100
AcDbLine
 10
5.056378
 20
2.845419
 30
0.0
 11
5.056378
 21
2.231511
 31
0.0
  0
LINE
  5
2A
330
18
100
AcDbEntity
  8
0
100
AcDbLine
 10
4.969917
 20
2.88279
 30
0.0
 11
4.969917
 21
2.24581
 31
0.0
  0
LINE
  5
2B
330
18
100
AcDbEntity
  8
0
100
AcDbLine
 10
1.970582010411792
 20
4.257435345475477
 30
0.0
 11
2.234435
 21
4.145178
 31
0.0
  0
LINE
  5
2C
330
18
100
AcDbEntity
  8
0
100
AcDbLine
 10
1.95283753951337
 20
4.81883097822451
 30
0.0
 11
2.234435
 21
4.706792
 31
0.0
  0
LINE
  5
2D
330
18
100
AcDbEntity
  8
0
100
AcDbLine
 10
2.234435
 20
4.706792
 30
0.0
 11
2.234435
 21
4.145178
 31
0.0
  0
LINE
  5
2E
330
18
100
AcDbEntity
  8
0
100
AcDbLine
 10
2.308919
 20
4.677157
 30
0.0
 11
2.308919
 21
4.113487999999999
 31
0.0
  0
LINE
  5
2F
330
18
100
AcDbEntity
  8
0
100
AcDbLine
 10
3.199687
 20
4.322747
 30
0.0
 11
3.199687
 21
3.734506
 31
0.0
  0
LINE
  5
30
330
18
100
AcDbEntity
  8
0
100
AcDbLine
 10
3.274327
 20
4.293049
 30
0.0
 11
3.274327
 21
3.70275
 31
0.0
  0
LINE
  5
31
330
18
100
AcDbEntity
  8
0
100
AcDbLine
 10
4.353145
 20
3.86382
 30
0.0
 11
4.353145
 21
3.243762
 31
0.0
  0
LINE
  5
32
330
18
100
AcDbEntity
  8
0
100
AcDbLine
 10
4.427917
 20
3.83407
 30
0.0
 11
4.427917
 21
3.21195
 31
0.0
  0
LINE
  5
33
330
18
100
AcDbEntity
  8
0
100
AcDbLine
 10
5.646818
 20
3.349106
 30
0.0
 11
5.646818
 21
2.693362
 31
0.0
  0
LINE
  5
34
330
18
100
AcDbEntity
  8
0
100
AcDbLine
 10
5.721793
 20
3.319276
 30
0.0
 11
5.721793
 21
2.661464
 31
0.0
  0
LINE
  5
35
330
18
100
AcDbEntity
  8
0
100
AcDbLine
 10
2.308919
 20
4.113487999999999
 30
0.0
 11
3.199687
 21
3.734506
 31
0.0
  0
LINE
  5
36
330
18
100
AcDbEntity
  8
0
100
AcDbLine
 10
2.308919
 20
4.677157
 30
0.0
 11
2.602845
 21
4.560212
 31
0.0
  0
LINE
  5
37
330
18
100
AcDbEntity
  8
0
100
AcDbLine
 10
3.274327
 20
4.293049
 30
0.0
 11
4.353145
 21
3.86382
 31
0.0
  0
LINE
  5
38
330
18
100
AcDbEntity
  8
0
100
AcDbLine
 10
3.274327
 20
3.70275
 30
0.0
 11
4.353145
 21
3.243762
 31
0.0
  0
LINE
  5
39
330
18
100
AcDbEntity
  8
0
100
AcDbLine
 10
4.427917
 20
3.21195
 30
0.0
 11
5.646818
 21
2.693362
 31
0.0
  0
LINE
  5
3A
330
18
100
AcDbEntity
  8
0
100
AcDbLine
 10
4.427917
 20
3.83407
 30
0.0
 11
4.725576
 21
3.715641
 31
0.0
  0
LINE
  5
3B
330
18
100
AcDbEntity
  8
0
100
AcDbLine
 10
5.721793
 20
2.661464
 30
0.0
 11
6.319313
 21
2.407246
 31
0.0
  0
LINE
  5
3C
330
18
100
AcDbEntity
  8
0
100
AcDbLine
 10
5.721793
 20
3.319276
 30
0.0
 11
7.268462
 21
2.703902
 31
0.0
  0
LINE
  5
3D
330
18
100
AcDbEntity
  8
0
100
AcDbLine
 10
2.777322
 20
3.234076
 30
0.0
 11
3.79093
 21
2.777214
 31
0.0
  0
LINE
  5
3E
330
18
100
AcDbEntity
  8
0
100
AcDbLine
 10
3.877391
 20
2.738243
 30
0.0
 11
4.969917
 21
2.24581
 31
0.0
  0
LINE
  5
3F
330
18
100
AcDbEntity
  8
0
100
AcDbLine
 10
1.958024457871755
 20
4.184634974587103
 30
0.0
 11
2.690861
 21
3.867878
 31
0.0
  0
LINE
  5
40
330
18
100
AcDbEntity
  8
0
100
AcDbLine
 10
2.777322
 20
3.830506
 30
0.0
 11
3.79093
 21
3.392389
 31
0.0
  0
LINE
  5
41
330
18
100
AcDbEntity
  8
0
100
AcDbLine
 10
3.877391
 20
3.355018
 30
0.0
 11
4.969917
 21
2.88279
 31
0.0
  0
LINE
  5
42
330
18
100
AcDbEntity
  8
0
100
AcDbLine
 10
5.056378
 20
2.845419
 30
0.0
 11
6.188856
 21
2.355922
 31
0.0
  0
LINE
  5
43
330
18
100
AcDbEntity
  8
0
100
AcDbLine
 10
2.770619
 20
5.158564
 30
0.0
 11
2.770619
 21
4.907857
 31
0.0
  0
LINE
  5
44
330
18
100
AcDbEntity
  8
0
100
AcDbLine
 10
2.695832
 20
5.186083
 30
0.0
 11
2.695832
 21
4.811247
 31
0.0
  0
LINE
  5
45
330
18
100
AcDbEntity
  8
0
100
AcDbLine
 10
3.856684
 20
4.758943
 30
0.0
 11
3.856684
 21
4.145611
 31
0.0
  0
LINE
  5
46
330
18
100
AcDbEntity
  8
0
100
AcDbLine
 10
3.78143
 20
4.786633
 30
0.0
 11
3.78143
 21
4.175477
 31
0.0
  0
LINE
  5
47
330
18
100
AcDbEntity
  8
0
100
AcDbLine
 10
6.403951
 20
3.821668
 30
0.0
 11
6.403951
 21
3.134691
 31
0.0
  0
LINE
  5
48
330
18
100
AcDbEntity
  8
0
100
AcDbLine
 10
6.328530000000001
 20
3.849419
 30
0.0
 11
6.328530000000001
 21
3.164622
 31
0.0
  0
LINE
  5
49
330
18
100
AcDbEntity
  8
0
100
AcDbLine
 10
3.133826
 20
4.432487999999999
 30
0.0
 11
3.78143
 21
4.175477
 31
0.0
  0
LINE
  5
4A
330
18
100
AcDbEntity
  8
0
100
AcDbLine
 10
3.856684
 20
4.145611
 30
0.0
 11
4.725576
 21
3.800778
 31
0.0
  0
LINE
  5
4B
330
18
100
AcDbEntity
  8
0
100
AcDbLine
 10
1.92611528586164
 20
4.911785120545736
 30
0.0
 11
2.602845
 21
4.643215000000001
 31
0.0
  0
LINE
  5
4C
330
18
100
AcDbEntity
  8
0
100
AcDbLine
 10
6.403951
 20
3.134691
 30
0.0
 11
7.446247000000001
 21
2.72104
 31
0.0
  0
ARC
  5
4D
330
18
100
AcDbEntity
  8
0
100
AcDbCircle
 10
2.725287
 20
3.234027
 30
0.0
 40
0.052035
100
AcDbArc
 50
0.054
 51
131.421069
  0
ARC
  5
4E
330
18
100
AcDbEntity
  8
0
100
AcDbCircle
 10
3.825356
 20
2.738194
 30
0.0
 40
0.052035
100
AcDbArc
 50
0.054
 51
131.421069
  0
ARC
  5
4F
330
18
100
AcDbEntity
  8
0
100
AcDbCircle
 10
5.004343
 20
2.206791
 30
0.0
 40
0.052035
100
AcDbArc
 50
29.92135800000001
 51
131.421069
  0
LINE
  5
50
330
18
100
AcDbEntity
  8
0
100
AcDbLine
 10
7.802155
 20
4.121594
 30
0.0
 11
7.802155
 21
3.397104
 31
0.0
  0
LINE
  5
51
330
18
100
AcDbEntity
  8
0
100
AcDbLine
 10
3.856684
 20
4.758943
 30
0.0
 11
5.008804000000001
 21
4.335016
 31
0.0
  0
LINE
  5
52
330
18
100
AcDbEntity
  8
0
100
AcDbLine
 10
2.770619
 20
5.158564
 30
0.0
 11
2.921669
 21
5.102984999999999
 31
0.0
  0
LINE
  5
53
330
18
100
AcDbEntity
  8
0
100
AcDbLine
 10
1.920248480690657
 20
5.471461047485382
 30
0.0
 11
2.695832
 21
5.186083
 31
0.0
  0
LINE
  5
54
330
18
100
AcDbEntity
  8
0
100
AcDbLine
 10
6.403951
 20
3.821668
 30
0.0
 11
7.802155
 21
3.307194
 31
0.0
  0
LINE
  5
55
330
18
100
AcDbEntity
  8
0
100
AcDbLine
 10
1.930483489657799
 20
5.551032072081948
 30
0.0
 11
2.227795
 21
5.441968
 31
0.0
  0
LINE
  5
56
330
18
100
AcDbEntity
  8
0
100
AcDbLine
 10
5.36278
 20
6.317881
 30
0.0
 11
5.36278
 21
6.091651000000001
 31
0.0
  0
LINE
  5
57
330
18
100
AcDbEntity
  8
0
100
AcDbLine
 10
5.36278
 20
6.091651000000001
 30
0.0
 11
5.263744
 21
6.15067
 31
0.0
  0
LINE
  5
58
330
18
100
AcDbEntity
  8
0
100
AcDbLine
 10
5.263744
 20
6.15067
 30
0.0
 11
5.36278
 21
6.317881
 31
0.0
  0
LINE
  5
59
330
18
100
AcDbEntity
  8
0
100
AcDbLine
 10
6.019295
 20
6.716550999999999
 30
0.0
 11
6.019295
 21
6.502331
 31
0.0
  0
LINE
  5
5A
330
18
100
AcDbEntity
  8
0
100
AcDbLine
 10
6.019295
 20
6.502331
 30
0.0
 11
6.125425
 21
6.66454
 31
0.0
  0
LINE
  5
5B
330
18
100
AcDbEntity
  8
0
100
AcDbLine
 10
6.125425
 20
6.66454
 30
0.0
 11
6.019295
 21
6.716550999999999
 31
0.0
  0
LINE
  5
5C
330
18
100
AcDbEntity
  8
0
100
AcDbLine
 10
6.019295
 20
6.579441
 30
0.0
 11
5.36278
 21
6.174766
 31
0.0
  0
LINE
  5
5D
330
18
100
AcDbEntity
  8
0
100
AcDbLine
 10
6.019295
 20
6.639441000000001
 30
0.0
 11
5.36278
 21
6.234766000000001
 31
0.0
  0
SOLID
  5
5E
330
18
100
AcDbEntity
  8
0
100
AcDbTrace
 10
5.36278
 20
6.091651000000001
 30
0.0
 11
5.263744
 21
6.15067
 31
0.0
 12
5.36278
 22
6.317881
 32
0.0
 13
5.36278
 23
6.317881
 33
0.0
  0
SOLID
  5
5F
330
18
100
AcDbEntity
  8
0
100
AcDbTrace
 10
5.36278
 20
6.174766
 30
0.0
 11
6.019295
 21
6.579441
 31
0.0
 12
5.36278
 22
6.234766000000001
 32
0.0
 13
6.019295
 23
6.639441000000001
 33
0.0
  0
SOLID
  5
60
330
18
100
AcDbEntity
  8
0
100
AcDbTrace
 10
6.019295
 20
6.502331
 30
0.0
 11
6.125425
 21
6.66454
 31
0.0
 12
6.019295
 22
6.716550999999999
 32
0.0
 13
6.019295
 23
6.716550999999999
 33
0.0
  0
LINE
  5
61
330
18
100
AcDbEntity
  8
0
100
AcDbLine
 10
7.802155
 20
3.307194
 30
0.0
 11
7.802155
 21
2.851393
 31
0.0
  0
LINE
  5
62
330
18
100
AcDbEntity
  8
0
100
AcDbLine
 10
7.802155
 20
3.397104
 30
0.0
 11
8.242512
 21
3.923697
 31
0.0
  0
LINE
  5
63
330
18
100
AcDbEntity
  8
0
100
AcDbLine
 10
7.802155
 20
3.307194
 30
0.0
 11
8.242512
 21
3.813122
 31
0.0
  0
LINE
  5
64
330
18
100
AcDbEntity
  8
0
100
AcDbLine
 10
8.242512
 20
4.590062000000001
 30
0.0
 11
8.242512
 21
4.14118
 31
0.0
  0
ARC
  5
65
330
18
100
AcDbEntity
  8
0
100
AcDbCircle
 10
8.286025
 20
3.868409
 30
0.0
 40
0.070357
100
AcDbArc
 50
151.988945
 51
231.796274
  0
LINE
  5
66
330
18
100
AcDbEntity
  8
0
100
AcDbLine
 10
8.242512
 20
3.813122
 30
0.0
 11
8.242512
 21
3.370993
 31
0.0
  0
LINE
  5
67
330
18
100
AcDbEntity
  8
0
100
AcDbLine
 10
7.802155
 20
2.851393
 30
0.0
 11
8.242512
 21
3.370993
 31
0.0
  0
LINE
  5
68
330
18
100
AcDbEntity
  8
0
100
AcDbLine
 10
7.510149
 20
4.220253
 30
0.0
 11
7.802155
 21
4.121594
 31
0.0
  0
LINE
  5
69
330
18
100
AcDbEntity
  8
0
100
AcDbLine
 10
1.798045
 20
6.175944000000001
 30
0.0
 11
1.798045
 21
6.341034000000001
 31
0.0
  0
LINE
  5
6A
330
18
100
AcDbEntity
  8
0
100
AcDbLine
 10
7.510149
 20
4.220253
 30
0.0
 11
7.510149
 21
4.431238
 31
0.0
  0
LINE
  5
6B
330
18
100
AcDbEntity
  8
0
100
AcDbLine
 10
7.510149
 20
4.431238
 30
0.0
 11
7.700309
 21
4.630917
 31
0.0
  0
LINE
  5
6C
330
18
100
AcDbEntity
  8
0
100
AcDbLine
 10
2.442241
 20
6.591145000000002
 30
0.0
 11
2.56796
 21
6.552483000000001
 31
0.0
  0
LINE
  5
6D
330
18
100
AcDbEntity
  8
0
100
AcDbLine
 10
7.953136
 20
4.693521
 30
0.0
 11
7.953136
 21
4.896399
 31
0.0
  0
LINE
  5
6E
330
18
100
AcDbEntity
  8
0
100
AcDbLine
 10
7.935067999999999
 20
4.674218
 30
0.0
 11
7.953136
 21
4.693521
 31
0.0
  0
LINE
  5
6F
330
18
100
AcDbEntity
  8
0
100
AcDbLine
 10
7.802155
 20
4.121594
 30
0.0
 11
7.860258
 21
4.183406
 31
0.0
  0
LINE
  5
70
330
18
100
AcDbEntity
  8
0
100
AcDbLine
 10
7.953136
 20
4.693521
 30
0.0
 11
8.242512
 21
4.590062000000001
 31
0.0
  0
LINE
  5
71
330
18
100
AcDbEntity
  8
0
100
AcDbLine
 10
7.700309
 20
4.630917
 30
0.0
 11
7.655773
 21
4.706136
 31
0.0
  0
LINE
  5
72
330
18
100
AcDbEntity
  8
0
100
AcDbLine
 10
7.655773
 20
4.706136
 30
0.0
 11
7.935067999999999
 21
4.686226
 31
0.0
  0
LINE
  5
73
330
18
100
AcDbEntity
  8
0
100
AcDbLine
 10
7.935067999999999
 20
4.686226
 30
0.0
 11
7.852036999999999
 21
4.79024
 31
0.0
  0
LINE
  5
74
330
18
100
AcDbEntity
  8
0
100
AcDbLine
 10
7.852036999999999
 20
4.79024
 30
0.0
 11
7.953136
 21
4.896399
 31
0.0
  0
LINE
  5
75
330
18
100
AcDbEntity
  8
0
100
AcDbLine
 10
7.935067999999999
 20
4.686226
 30
0.0
 11
7.935067999999999
 21
4.482014
 31
0.0
  0
LINE
  5
76
330
18
100
AcDbEntity
  8
0
100
AcDbLine
 10
7.935067999999999
 20
4.482014
 30
0.0
 11
7.700309
 21
4.509261
 31
0.0
  0
LINE
  5
77
330
18
100
AcDbEntity
  8
0
100
AcDbLine
 10
7.700309
 20
4.630917
 30
0.0
 11
7.700309
 21
4.423412
 31
0.0
  0
LINE
  5
78
330
18
100
AcDbEntity
  8
0
100
AcDbLine
 10
7.700309
 20
4.423412
 30
0.0
 11
7.510149
 21
4.220253
 31
0.0
  0
LINE
  5
79
330
18
100
AcDbEntity
  8
0
100
AcDbLine
 10
7.953136
 20
4.829894
 30
0.0
 11
7.913001
 21
4.798333
 31
0.0
  0
LINE
  5
7A
330
18
100
AcDbEntity
  8
0
100
AcDbLine
 10
7.913001
 20
4.798333
 30
0.0
 11
7.865786999999999
 21
4.773016
 31
0.0
  0
LINE
  5
7B
330
18
100
AcDbEntity
  8
0
100
AcDbLine
 10
7.891199
 20
4.741181
 30
0.0
 11
7.953136
 21
4.785173
 31
0.0
  0
LINE
  5
7C
330
18
100
AcDbEntity
  8
0
100
AcDbLine
 10
7.953136
 20
4.734309
 30
0.0
 11
7.909703
 21
4.718001999999999
 31
0.0
  0
LINE
  5
7D
330
18
100
AcDbEntity
  8
0
100
AcDbLine
 10
1.798045
 20
6.341034000000001
 30
0.0
 11
2.041142
 21
6.435417000000002
 31
0.0
  0
LINE
  5
7E
330
18
100
AcDbEntity
  8
0
100
AcDbLine
 10
7.570799000000001
 20
4.28505
 30
0.0
 11
7.860258
 21
4.183406
 31
0.0
  0
LINE
  5
7F
330
18
100
AcDbEntity
  8
0
100
AcDbLine
 10
7.860258
 20
4.183406
 30
0.0
 11
7.961395
 21
3.928459
 31
0.0
  0
LINE
  5
80
330
18
100
AcDbEntity
  8
0
100
AcDbLine
 10
7.961395
 20
3.928459
 30
0.0
 11
8.095477000000001
 21
4.068656
 31
0.0
  0
LINE
  5
81
330
18
100
AcDbEntity
  8
0
100
AcDbLine
 10
8.166408000000001
 20
4.5091
 30
0.0
 11
7.935067999999999
 21
4.593633000000001
 31
0.0
  0
LINE
  5
82
330
18
100
AcDbEntity
  8
0
100
AcDbLine
 10
8.166408000000001
 20
4.5091
 30
0.0
 11
8.143466999999999
 21
4.218829
 31
0.0
  0
LINE
  5
83
330
18
100
AcDbEntity
  8
0
100
AcDbLine
 10
8.036396
 20
4.119685
 30
0.0
 11
8.112349
 21
4.097003
 31
0.0
  0
LINE
  5
84
330
18
100
AcDbEntity
  8
0
100
AcDbLine
 10
8.119577
 20
4.097589
 30
0.0
 11
8.128069999999999
 21
4.101711
 31
0.0
  0
LINE
  5
85
330
18
100
AcDbEntity
  8
0
100
AcDbLine
 10
8.135444
 20
4.102252
 30
0.0
 11
8.195342999999999
 21
4.083362999999999
 31
0.0
  0
LINE
  5
86
330
18
100
AcDbEntity
  8
0
100
AcDbLine
 10
8.201997
 20
4.076406
 30
0.0
 11
8.203789
 21
4.069696
 31
0.0
  0
LINE
  5
87
330
18
100
AcDbEntity
  8
0
100
AcDbLine
 10
8.203789
 20
4.069696
 30
0.0
 11
8.250641999999999
 21
4.055704
 31
0.0
  0
LINE
  5
88
330
18
100
AcDbEntity
  8
0
100
AcDbLine
 10
8.063392
 20
4.199778
 30
0.0
 11
8.139687
 21
4.174818
 31
0.0
  0
LINE
  5
89
330
18
100
AcDbEntity
  8
0
100
AcDbLine
 10
8.139687
 20
4.174818
 30
0.0
 11
8.140310000000001
 21
4.168929
 31
0.0
  0
LINE
  5
8A
330
18
100
AcDbEntity
  8
0
100
AcDbLine
 10
8.147138
 20
4.160476999999999
 30
0.0
 11
8.210165
 21
4.13981
 31
0.0
  0
LINE
  5
8B
330
18
100
AcDbEntity
  8
0
100
AcDbLine
 10
8.217757000000001
 20
4.140369000000001
 30
0.0
 11
8.224844000000001
 21
4.143916
 31
0.0
  0
LINE
  5
8C
330
18
100
AcDbEntity
  8
0
100
AcDbLine
 10
8.232429
 20
4.144477999999999
 30
0.0
 11
8.295661000000001
 21
4.123792
 31
0.0
  0
ARC
  5
8D
330
18
100
AcDbEntity
  8
0
100
AcDbCircle
 10
8.086606
 20
4.147358000000001
 30
0.0
 40
0.05733
100
AcDbArc
 50
113.885321
 51
208.861103
  0
ARC
  5
8E
330
18
100
AcDbEntity
  8
0
100
AcDbCircle
 10
8.291674
 20
4.093485
 30
0.0
 40
0.030568
100
AcDbArc
 50
11.290808
 51
82.505149
  0
ARC
  5
8F
330
18
100
AcDbEntity
  8
0
100
AcDbCircle
 10
8.278979
 20
4.058513
 30
0.0
 40
0.028476
100
AcDbArc
 50
82.56707900000001
 51
185.659661
  0
LINE
  5
90
330
18
100
AcDbEntity
  8
0
100
AcDbLine
 10
8.282662
 20
4.086749
 30
0.0
 11
8.312104
 21
4.087515
 31
0.0
  0
LINE
  5
91
330
18
100
AcDbEntity
  8
0
100
AcDbLine
 10
8.242512
 20
4.058132
 30
0.0
 11
8.242512
 21
3.923697
 31
0.0
  0
LINE
  5
92
330
18
100
AcDbEntity
  8
0
100
AcDbLine
 10
4.885315
 20
3.806301
 30
0.0
 11
7.106551
 21
7.431736999999999
 31
0.0
  0
LINE
  5
93
330
18
100
AcDbEntity
  8
0
100
AcDbLine
 10
7.607603999999999
 20
8.249542
 30
0.0
 11
7.607603999999999
 21
8.074852832372423
 31
0.0
  0
LINE
  5
94
330
18
100
AcDbEntity
  8
0
100
AcDbLine
 10
4.725576
 20
3.879893
 30
0.0
 11
6.930509
 21
7.423027
 31
0.0
  0
LINE
  5
95
330
18
100
AcDbEntity
  8
0
100
AcDbLine
 10
4.885315
 20
3.806301
 30
0.0
 11
4.885315
 21
3.017816
 31
0.0
  0
LINE
  5
96
330
18
100
AcDbEntity
  8
0
100
AcDbLine
 10
4.885315
 20
3.017816
 30
0.0
 11
5.994646
 21
4.909688
 31
0.0
  0
LINE
  5
97
330
18
100
AcDbEntity
  8
0
100
AcDbLine
 10
4.885315
 20
3.806301
 30
0.0
 11
4.725576
 21
3.879893
 31
0.0
  0
LINE
  5
98
330
18
100
AcDbEntity
  8
0
100
AcDbLine
 10
4.725576
 20
3.879893
 30
0.0
 11
4.725576
 21
3.091408
 31
0.0
  0
LINE
  5
99
330
18
100
AcDbEntity
  8
0
100
AcDbLine
 10
4.725576
 20
3.091408
 30
0.0
 11
4.885315
 21
3.017816
 31
0.0
  0
LINE
  5
9A
330
18
100
AcDbEntity
  8
0
100
AcDbLine
 10
6.79411494080219
 20
6.254269578263963
 30
0.0
 11
7.291764
 21
6.613169
 31
0.0
  0
LINE
  5
9B
330
18
100
AcDbEntity
  8
0
100
AcDbLine
 10
6.79411494080219
 20
6.119842592560156
 30
0.0
 11
7.433934
 21
6.577686999999999
 31
0.0
  0
LINE
  5
9C
330
18
100
AcDbEntity
  8
0
100
AcDbLine
 10
5.994527
 20
4.909485
 30
0.0
 11
5.994646
 21
4.909577
 31
0.0
  0
LINE
  5
9D
330
18
100
AcDbEntity
  8
0
100
AcDbLine
 10
7.433934
 20
6.577686999999999
 30
0.0
 11
7.433934
 21
6.406733999999999
 31
0.0
  0
LINE
  5
9E
330
18
100
AcDbEntity
  8
0
100
AcDbLine
 10
7.291764
 20
6.613169
 30
0.0
 11
7.433934
 21
6.577686999999999
 31
0.0
  0
LINE
  5
9F
330
18
100
AcDbEntity
  8
0
100
AcDbLine
 10
6.183669999999999
 20
4.870132
 30
0.0
 11
7.510149
 21
4.431238
 31
0.0
  0
LINE
  5
A0
330
18
100
AcDbEntity
  8
0
100
AcDbLine
 10
5.907826
 20
4.761623
 30
0.0
 11
7.510149
 21
4.220253
 31
0.0
  0
LINE
  5
A1
330
18
100
AcDbEntity
  8
0
  6
HIDDEN
100
AcDbLine
 10
5.933692
 20
5.517432
 30
0.0
 11
6.497909
 21
5.34392
 31
0.0
  0
LINE
  5
A2
330
18
100
AcDbEntity
  8
0
100
AcDbLine
 10
3.177048
 20
7.548277000000001
 30
0.0
 11
4.277464497270495
 21
8.669011550364516
 31
0.0
  0
LINE
  5
A3
330
18
100
AcDbEntity
  8
0
100
AcDbLine
 10
4.277464497270495
 20
8.669011550364516
 30
0.0
 11
7.828533999999999
 21
7.97777
 31
0.0
  0
LINE
  5
A4
330
18
100
AcDbEntity
  8
0
100
AcDbLine
 10
7.828533999999999
 20
7.97777
 30
0.0
 11
7.593497
 21
7.545925
 31
0.0
  0
LINE
  5
A5
330
18
100
AcDbEntity
  8
0
100
AcDbLine
 10
3.177048
 20
7.548277000000001
 30
0.0
 11
5.715587999999999
 21
7.713454
 31
0.0
  0
LINE
  5
A6
330
18
100
AcDbEntity
  8
0
100
AcDbLine
 10
5.715587999999999
 20
7.713454
 30
0.0
 11
6.453435
 21
7.489517
 31
0.0
  0
LINE
  5
A7
330
18
100
AcDbEntity
  8
0
100
AcDbLine
 10
6.453435
 20
7.489517
 30
0.0
 11
7.593497
 21
7.545925
 31
0.0
  0
LINE
  5
A8
330
18
100
AcDbEntity
  8
0
100
AcDbLine
 10
3.177048
 20
7.458183
 30
0.0
 11
5.715587999999999
 21
7.623359
 31
0.0
  0
LINE
  5
A9
330
18
100
AcDbEntity
  8
0
100
AcDbLine
 10
6.453435
 20
7.399422
 30
0.0
 11
7.593497
 21
7.455830000000001
 31
0.0
  0
LINE
  5
AA
330
18
100
AcDbEntity
  8
0
100
AcDbLine
 10
5.715587999999999
 20
7.623359
 30
0.0
 11
6.453435
 21
7.399422
 31
0.0
  0
LINE
  5
AB
330
18
100
AcDbEntity
  8
0
100
AcDbLine
 10
3.177048
 20
7.548277000000001
 30
0.0
 11
3.177048
 21
7.458183
 31
0.0
  0
LINE
  5
AC
330
18
100
AcDbEntity
  8
0
100
AcDbLine
 10
5.715587999999999
 20
7.713454
 30
0.0
 11
5.715587999999999
 21
7.623359
 31
0.0
  0
LINE
  5
AD
330
18
100
AcDbEntity
  8
0
100
AcDbLine
 10
6.453435
 20
7.489517
 30
0.0
 11
6.453435
 21
7.399422
 31
0.0
  0
LINE
  5
AE
330
18
100
AcDbEntity
  8
0
100
AcDbLine
 10
7.593497
 20
7.545925
 30
0.0
 11
7.593497
 21
7.455830000000001
 31
0.0
  0
LINE
  5
AF
330
18
100
AcDbEntity
  8
0
100
AcDbLine
 10
7.828533999999999
 20
7.887675
 30
0.0
 11
7.593497
 21
7.455830000000001
 31
0.0
  0
LINE
  5
B0
330
18
100
AcDbEntity
  8
0
100
AcDbLine
 10
7.828533999999999
 20
7.97777
 30
0.0
 11
7.828533999999999
 21
7.887675
 31
0.0
  0
LINE
  5
B1
330
18
100
AcDbEntity
  8
0
100
AcDbLine
 10
7.335461000000001
 20
8.07375
 30
0.0
 11
7.461617
 21
8.276471000000001
 31
0.0
  0
LINE
  5
B2
330
18
100
AcDbEntity
  8
0
100
AcDbLine
 10
7.482378
 20
8.045152
 30
0.0
 11
7.607603999999999
 21
8.249542
 31
0.0
  0
LINE
  5
B3
330
18
100
AcDbEntity
  8
0
100
AcDbLine
 10
6.536465
 20
5.332063
 30
0.0
 11
6.905075
 21
5.218706
 31
0.0
  0
LINE
  5
B4
330
18
100
AcDbEntity
  8
0
100
AcDbLine
 10
5.584692
 20
4.210545
 30
0.0
 11
5.647893
 21
4.18736
 31
0.0
  0
LINE
  5
B5
330
18
100
AcDbEntity
  8
0
100
AcDbLine
 10
5.542525
 20
4.138632
 30
0.0
 11
6.328530000000001
 21
3.849419
 31
0.0
  0
LINE
  5
B6
330
18
100
AcDbEntity
  8
0
100
AcDbLine
 10
2.30305
 20
5.979555
 30
0.0
 11
2.30305
 21
5.413297
 31
0.0
  0
LINE
  5
B7
330
18
100
AcDbEntity
  8
0
100
AcDbLine
 10
2.227795
 20
6.004981
 30
0.0
 11
2.227795
 21
5.441968
 31
0.0
  0
LINE
  5
B8
330
18
100
AcDbEntity
  8
0
100
AcDbLine
 10
3.291114
 20
5.645722
 30
0.0
 11
3.291114
 21
5.580233
 31
0.0
  0
LINE
  5
B9
330
18
100
AcDbEntity
  8
0
100
AcDbLine
 10
3.215859
 20
5.671148000000001
 30
0.0
 11
3.215859
 21
5.483019000000001
 31
0.0
  0
LINE
  5
BA
330
18
100
AcDbEntity
  8
0
100
AcDbLine
 10
4.439546
 20
5.257705000000001
 30
0.0
 11
4.439546
 21
4.630623
 31
0.0
  0
LINE
  5
BB
330
18
100
AcDbEntity
  8
0
100
AcDbLine
 10
4.364291000000001
 20
5.283131
 30
0.0
 11
4.364291000000001
 21
4.658229
 31
0.0
  0
LINE
  5
BC
330
18
100
AcDbEntity
  8
0
100
AcDbLine
 10
5.723148
 20
4.44667
 30
0.0
 11
5.723148
 21
4.159754
 31
0.0
  0
LINE
  5
BD
330
18
100
AcDbEntity
  8
0
100
AcDbLine
 10
5.647893
 20
4.31833
 30
0.0
 11
5.647893
 21
4.18736
 31
0.0
  0
LINE
  5
BE
330
18
100
AcDbEntity
  8
0
100
AcDbLine
 10
7.114657000000001
 20
4.346813
 30
0.0
 11
7.114657000000001
 21
3.649302
 31
0.0
  0
LINE
  5
BF
330
18
100
AcDbEntity
  8
0
100
AcDbLine
 10
7.039402000000001
 20
4.374504
 30
0.0
 11
7.039402000000001
 21
3.676908
 31
0.0
  0
LINE
  5
C0
330
18
100
AcDbEntity
  8
0
100
AcDbLine
 10
2.30305
 20
5.414362000000001
 30
0.0
 11
2.972583
 21
5.168755
 31
0.0
  0
LINE
  5
C1
330
18
100
AcDbEntity
  8
0
100
AcDbLine
 10
3.525104
 20
4.966071
 30
0.0
 11
4.364291000000001
 21
4.658229
 31
0.0
  0
LINE
  5
C2
330
18
100
AcDbEntity
  8
0
100
AcDbLine
 10
4.439546
 20
4.630623
 30
0.0
 11
5.052773
 21
4.40567
 31
0.0
  0
LINE
  5
C3
330
18
100
AcDbEntity
  8
0
100
AcDbLine
 10
5.723148
 20
4.159754
 30
0.0
 11
7.039402000000001
 21
3.676908
 31
0.0
  0
LINE
  5
C4
330
18
100
AcDbEntity
  8
0
100
AcDbLine
 10
7.114657000000001
 20
3.649302
 30
0.0
 11
7.802155
 21
3.397104
 31
0.0
  0
LINE
  5
C5
330
18
100
AcDbEntity
  8
0
100
AcDbLine
 10
5.186876
 20
3.532103
 30
0.0
 11
5.646818
 21
3.349106
 31
0.0
  0
LINE
  5
C6
330
18
100
AcDbEntity
  8
0
100
AcDbLine
 10
5.227594
 20
3.601545
 30
0.0
 11
6.328530000000001
 21
3.164622
 31
0.0
  0
LINE
  5
C7
330
18
100
AcDbEntity
  8
0
100
AcDbLine
 10
5.790762
 20
8.588550999999999
 30
0.0
 11
5.648427
 21
8.402144
 31
0.0
  0
LINE
  5
C8
330
18
100
AcDbEntity
  8
0
100
AcDbLine
 10
2.774042
 20
3.941854
 30
0.0
 11
3.98601
 21
5.594604
 31
0.0
  0
LINE
  5
C9
330
18
100
AcDbEntity
  8
0
100
AcDbLine
 10
2.602845
 20
4.009816000000001
 30
0.0
 11
2.602845
 21
4.691127
 31
0.0
  0
LINE
  5
CA
330
18
100
AcDbEntity
  8
0
100
AcDbLine
 10
2.774042
 20
3.941854
 30
0.0
 11
2.774042
 21
4.623184999999999
 31
0.0
  0
LINE
  5
CB
330
18
100
AcDbEntity
  8
0
100
AcDbLine
 10
5.790762
 20
8.588550999999999
 30
0.0
 11
5.790762
 21
8.428156494360042
 31
0.0
  0
LINE
  5
CC
330
18
100
AcDbEntity
  8
0
100
AcDbLine
 10
5.498226
 20
8.431381
 30
0.0
 11
5.641477
 21
8.616434
 31
0.0
  0
LINE
  5
CD
330
18
100
AcDbEntity
  8
0
100
AcDbLine
 10
5.019174
 20
7.578045
 30
0.0
 11
2.774042
 21
4.623184999999999
 31
0.0
  0
LINE
  5
CE
330
18
100
AcDbEntity
  8
0
100
AcDbLine
 10
7.433934
 20
6.406733999999999
 30
0.0
 11
7.385852000000001
 21
6.328695
 31
0.0
  0
LINE
  5
CF
330
18
100
AcDbEntity
  8
0
100
AcDbLine
 10
7.385852000000001
 20
6.328695
 30
0.0
 11
7.514005
 21
6.275691
 31
0.0
  0
LINE
  5
D0
330
18
100
AcDbEntity
  8
0
100
AcDbLine
 10
7.514005
 20
6.275691
 30
0.0
 11
7.433934
 21
6.177341999999999
 31
0.0
  0
LINE
  5
D1
330
18
100
AcDbEntity
  8
0
100
AcDbLine
 10
7.433934
 20
6.177341999999999
 30
0.0
 11
7.433934
 21
6.031869
 31
0.0
  0
LINE
  5
D2
330
18
100
AcDbEntity
  8
0
100
AcDbLine
 10
3.086403
 20
4.367819
 30
0.0
 11
3.199687
 21
4.322747
 31
0.0
  0
LINE
  5
D3
330
18
100
AcDbEntity
  8
0
100
AcDbLine
 10
3.475947
 20
4.899036
 30
0.0
 11
3.78143
 21
4.786633
 31
0.0
  0
LINE
  5
D4
330
18
100
AcDbEntity
  8
0
100
AcDbLine
 10
3.878071
 20
5.447409
 30
0.0
 11
5.384352
 21
4.938488
 31
0.0
  0
LINE
  5
D5
330
18
100
AcDbEntity
  8
0
100
AcDbLine
 10
3.987586
 20
5.596753
 30
0.0
 11
3.992456
 21
5.595141
 31
0.0
  0
LINE
  5
D6
330
18
100
AcDbEntity
  8
0
100
AcDbLine
 10
4.822236
 20
6.734959
 30
0.0
 11
5.452071
 21
7.079181
 31
0.0
  0
LINE
  5
D7
330
18
100
AcDbEntity
  8
0
100
AcDbLine
 10
5.605755
 20
7.043914
 30
0.0
 11
4.775973290381088
 21
6.597240395639112
 31
0.0
  0
LINE
  5
D8
330
18
100
AcDbEntity
  8
0
100
AcDbLine
 10
5.605755
 20
6.534598
 30
0.0
 11
4.109244
 21
5.66315
 31
0.0
  0
LINE
  5
D9
330
18
100
AcDbEntity
  8
0
100
AcDbLine
 10
5.605755
 20
7.043914
 30
0.0
 11
5.605755
 21
6.902669
 31
0.0
  0
LINE
  5
DA
330
18
100
AcDbEntity
  8
0
100
AcDbLine
 10
5.605755
 20
7.043914
 30
0.0
 11
5.452071
 21
7.079181
 31
0.0
  0
LINE
  5
DB
330
18
100
AcDbEntity
  8
0
100
AcDbLine
 10
4.576008
 20
5.934955
 30
0.0
 11
5.775004
 21
5.566232
 31
0.0
  0
LINE
  5
DC
330
18
100
AcDbEntity
  8
0
100
AcDbLine
 10
5.605755
 20
6.902669
 30
0.0
 11
5.550777
 21
6.810461999999999
 31
0.0
  0
LINE
  5
DD
330
18
100
AcDbEntity
  8
0
100
AcDbLine
 10
5.550777
 20
6.810461999999999
 30
0.0
 11
5.65991
 21
6.75745
 31
0.0
  0
LINE
  5
DE
330
18
100
AcDbEntity
  8
0
100
AcDbLine
 10
5.65991
 20
6.75745
 30
0.0
 11
5.605755
 21
6.700448
 31
0.0
  0
LINE
  5
DF
330
18
100
AcDbEntity
  8
0
100
AcDbLine
 10
5.605755
 20
6.700448
 30
0.0
 11
5.605755
 21
6.534598
 31
0.0
  0
LINE
  5
E0
330
18
100
AcDbEntity
  8
0
100
AcDbLine
 10
2.602845
 20
4.691127
 30
0.0
 11
2.774042
 21
4.623184999999999
 31
0.0
  0
LINE
  5
E1
330
18
100
AcDbEntity
  8
0
100
AcDbLine
 10
2.602845
 20
4.009816000000001
 30
0.0
 11
2.770809
 21
3.943157
 31
0.0
  0
LINE
  5
E2
330
18
100
AcDbEntity
  8
0
100
AcDbLine
 10
7.461617
 20
8.276471000000001
 30
0.0
 11
7.599309
 21
8.250753
 31
0.0
  0
LINE
  5
E3
330
18
100
AcDbEntity
  8
0
100
AcDbLine
 10
5.641477
 20
8.616434
 30
0.0
 11
5.790762
 21
8.588550999999999
 31
0.0
  0
LINE
  5
E4
330
18
100
AcDbEntity
  8
0
100
AcDbLine
 10
2.56796
 20
6.552483000000001
 30
0.0
 11
3.248917
 21
6.343071
 31
0.0
  0
LINE
  5
E5
330
18
100
AcDbEntity
  8
0
100
AcDbLine
 10
6.156981
 20
5.186535
 30
0.0
 11
6.420513651109166
 21
5.635967697399686
 31
0.0
  0
LINE
  5
E6
330
18
100
AcDbEntity
  8
0
100
AcDbLine
 10
6.085551000000001
 20
4.980461
 30
0.0
 11
7.433934
 21
6.031869
 31
0.0
  0
LINE
  5
E7
330
18
100
AcDbEntity
  8
0
  6
HIDDEN
100
AcDbLine
 10
6.336139
 20
5.411337000000001
 30
0.0
 11
6.324123
 21
5.418339
 31
0.0
  0
LINE
  5
E8
330
18
100
AcDbEntity
  8
0
  6
HIDDEN
100
AcDbLine
 10
6.324123
 20
5.418339
 30
0.0
 11
6.324123
 21
5.666596
 31
0.0
  0
LINE
  5
E9
330
18
100
AcDbEntity
  8
0
  6
HIDDEN
100
AcDbLine
 10
6.324123
 20
5.666596
 30
0.0
 11
6.22495
 21
5.598485
 31
0.0
  0
LINE
  5
EA
330
18
100
AcDbEntity
  8
0
  6
HIDDEN
100
AcDbLine
 10
6.22495
 20
5.598485
 30
0.0
 11
6.22495
 21
5.413295
 31
0.0
  0
LINE
  5
EB
330
18
100
AcDbEntity
  8
0
  6
HIDDEN
100
AcDbLine
 10
6.22495
 20
5.413295
 30
0.0
 11
6.336139
 21
5.36177
 31
0.0
  0
LINE
  5
EC
330
18
100
AcDbEntity
  8
0
  6
HIDDEN
100
AcDbLine
 10
6.336139
 20
5.411337000000001
 30
0.0
 11
6.336139
 21
5.175857
 31
0.0
  0
LINE
  5
ED
330
18
100
AcDbEntity
  8
0
  6
HIDDEN
100
AcDbLine
 10
6.336139
 20
5.175857
 30
0.0
 11
6.188153
 21
5.239696
 31
0.0
  0
LINE
  5
EE
330
18
100
AcDbEntity
  8
0
  6
HIDDEN
100
AcDbLine
 10
6.188153
 20
5.239696
 30
0.0
 11
6.188153
 21
5.451319
 31
0.0
  0
LINE
  5
EF
330
18
100
AcDbEntity
  8
0
  6
HIDDEN
100
AcDbLine
 10
6.22495
 20
5.476591
 30
0.0
 11
6.188153
 21
5.451319
 31
0.0
  0
LINE
  5
F0
330
18
100
AcDbEntity
  8
0
100
AcDbLine
 10
3.999568
 20
5.842853
 30
0.0
 11
3.999568
 21
5.636642
 31
0.0
  0
LINE
  5
F1
330
18
100
AcDbEntity
  8
0
100
AcDbLine
 10
4.08366
 20
5.727769
 30
0.0
 11
4.413338875420712
 21
6.17734922117669
 31
0.0
  0
LINE
  5
F2
330
18
100
AcDbEntity
  8
0
100
AcDbLine
 10
3.992456
 20
5.595141
 30
0.0
 11
3.981894
 21
5.588991
 31
0.0
  0
LINE
  5
F3
330
18
100
AcDbEntity
  8
0
100
AcDbLine
 10
4.157835
 20
5.540422
 30
0.0
 11
5.485558
 21
5.101117
 31
0.0
  0
LINE
  5
F4
330
18
100
AcDbEntity
  8
0
100
AcDbLine
 10
2.25685
 20
6.521818000000001
 30
0.0
 11
2.025513999999999
 21
6.552570000000002
 31
0.0
  0
LINE
  5
F5
330
18
100
AcDbEntity
  8
0
100
AcDbLine
 10
2.025513999999999
 20
6.552570000000002
 30
0.0
 11
2.15069
 21
6.432496000000001
 31
0.0
  0
LINE
  5
F6
330
18
100
AcDbEntity
  8
0
100
AcDbLine
 10
2.15069
 20
6.432496000000001
 30
0.0
 11
2.049219
 21
6.436755000000001
 31
0.0
  0
LINE
  5
F7
330
18
100
AcDbEntity
  8
0
100
AcDbLine
 10
2.266724
 20
6.523000000000002
 30
0.0
 11
2.442241
 21
6.591145000000002
 31
0.0
  0
ARC
  5
F8
330
18
100
AcDbEntity
  8
0
100
AcDbCircle
 10
2.04838
 20
6.416773000000002
 30
0.0
 40
0.02
100
AcDbArc
 50
87.59641500000001
 51
111.218808
  0
ARC
  5
F9
330
18
100
AcDbEntity
  8
0
100
AcDbCircle
 10
2.259485
 20
6.541644000000001
 30
0.0
 40
0.02
100
AcDbArc
 50
262.428107
 51
291.218808
  0
LINE
  5
FA
330
18
100
AcDbEntity
  8
0
100
AcDbLine
 10
2.025513999999999
 20
6.552570000000002
 30
0.0
 11
2.025513999999999
 21
6.429349000000001
 31
0.0
  0
LINE
  5
FB
330
18
100
AcDbEntity
  8
0
100
AcDbLine
 10
2.025513999999999
 20
6.496512000000002
 30
0.0
 11
2.056574
 21
6.481509000000002
 31
0.0
  0
LINE
  5
FC
330
18
100
AcDbEntity
  8
0
100
AcDbLine
 10
2.056574
 20
6.481509000000002
 30
0.0
 11
2.079605
 21
6.461498000000002
 31
0.0
  0
LINE
  5
FD
330
18
100
AcDbEntity
  8
0
100
AcDbLine
 10
2.079605
 20
6.461498000000002
 30
0.0
 11
2.096519
 21
6.434770000000002
 31
0.0
  0
LINE
  5
FE
330
18
100
AcDbEntity
  8
0
100
AcDbLine
 10
2.025513999999999
 20
6.459474000000001
 30
0.0
 11
2.057462999999999
 21
6.436409000000002
 31
0.0
  0
LINE
  5
FF
330
18
100
AcDbEntity
  8
0
100
AcDbLine
 10
6.755769
 20
4.906985
 30
0.0
 11
6.755780000000001
 21
4.879958
 31
0.0
  0
LINE
  5
100
330
18
100
AcDbEntity
  8
0
100
AcDbLine
 10
6.526505
 20
4.98097
 30
0.0
 11
6.526515
 21
4.953943
 31
0.0
  0
LINE
  5
101
330
18
100
AcDbEntity
  8
0
100
AcDbLine
 10
6.898865
 20
5.037176000000001
 30
0.0
 11
6.898875
 21
5.010148
 31
0.0
  0
LINE
  5
102
330
18
100
AcDbEntity
  8
0
100
AcDbLine
 10
6.526515
 20
4.953943
 30
0.0
 11
6.755780000000001
 21
4.879958
 31
0.0
  0
LINE
  5
103
330
18
100
AcDbEntity
  8
0
100
AcDbLine
 10
6.755780000000001
 20
4.879958
 30
0.0
 11
6.898875
 21
5.010148
 31
0.0
  0
LINE
  5
104
330
18
100
AcDbEntity
  8
0
100
AcDbLine
 10
6.680950999999999
 20
5.110762
 30
0.0
 11
6.526505
 21
4.98097
 31
0.0
  0
LINE
  5
105
330
18
100
AcDbEntity
  8
0
100
AcDbLine
 10
6.526505
 20
4.98097
 30
0.0
 11
6.755769
 21
4.906985
 31
0.0
  0
LINE
  5
106
330
18
100
AcDbEntity
  8
0
100
AcDbLine
 10
6.755769
 20
4.906985
 30
0.0
 11
6.898865
 21
5.037176000000001
 31
0.0
  0
LINE
  5
107
330
18
100
AcDbEntity
  8
0
100
AcDbLine
 10
6.898865
 20
5.037176000000001
 30
0.0
 11
6.789837
 21
5.073993
 31
0.0
  0
LINE
  5
108
330
18
100
AcDbEntity
  8
0
  6
HIDDEN
100
AcDbLine
 10
6.674589999999999
 20
4.906158000000001
 30
0.0
 11
6.674589999999999
 21
4.045063
 31
0.0
  0
LINE
  5
109
330
18
100
AcDbEntity
  8
0
  6
HIDDEN
100
AcDbLine
 10
6.756675
 20
4.880772
 30
0.0
 11
6.756675
 21
4.040464
 31
0.0
  0
LINE
  5
10A
330
18
100
AcDbEntity
  8
0
  6
HIDDEN
100
AcDbLine
 10
2.883229
 20
6.088868
 30
0.0
 11
2.883229
 21
5.384933999999999
 31
0.0
  0
LINE
  5
10B
330
18
100
AcDbEntity
  8
0
  6
HIDDEN
100
AcDbLine
 10
2.965314
 20
6.063482
 30
0.0
 11
2.965314
 21
5.35651
 31
0.0
  0
LINE
  5
10C
330
18
100
AcDbEntity
  8
0
100
AcDbLine
 10
3.107503
 20
6.219886
 30
0.0
 11
2.968609
 21
6.266789
 31
0.0
  0
LINE
  5
10D
330
18
100
AcDbEntity
  8
0
100
AcDbLine
 10
2.889589
 20
6.293473000000001
 30
0.0
 11
2.735143
 21
6.163681
 31
0.0
  0
LINE
  5
10E
330
18
100
AcDbEntity
  8
0
100
AcDbLine
 10
2.964408
 20
6.089696
 30
0.0
 11
3.107503
 21
6.219886
 31
0.0
  0
LINE
  5
10F
330
18
100
AcDbEntity
  8
0
100
AcDbLine
 10
2.735143
 20
6.163681
 30
0.0
 11
2.964408
 21
6.089696
 31
0.0
  0
LINE
  5
110
330
18
100
AcDbEntity
  8
0
100
AcDbLine
 10
2.964419
 20
6.062668
 30
0.0
 11
3.107514
 21
6.192858
 31
0.0
  0
LINE
  5
111
330
18
100
AcDbEntity
  8
0
100
AcDbLine
 10
2.735154
 20
6.136653
 30
0.0
 11
2.964419
 21
6.062668
 31
0.0
  0
LINE
  5
112
330
18
100
AcDbEntity
  8
0
100
AcDbLine
 10
3.107503
 20
6.219886
 30
0.0
 11
3.107514
 21
6.192858
 31
0.0
  0
LINE
  5
113
330
18
100
AcDbEntity
  8
0
100
AcDbLine
 10
2.735143
 20
6.163681
 30
0.0
 11
2.735154
 21
6.136653
 31
0.0
  0
LINE
  5
114
330
18
100
AcDbEntity
  8
0
100
AcDbLine
 10
2.964408
 20
6.089696
 30
0.0
 11
2.964419
 21
6.062668
 31
0.0
  0
LINE
  5
115
330
18
100
AcDbEntity
  8
0
100
AcDbLine
 10
5.012505
 20
6.102521
 30
0.0
 11
5.012505
 21
5.903313
 31
0.0
  0
SOLID
  5
116
330
18
100
AcDbEntity
  8
0
100
AcDbTrace
 10
4.914433
 20
6.031409
 30
0.0
 11
5.012505
 21
6.102521
 31
0.0
 12
5.012505
 22
5.903313
 32
0.0
 13
5.012505
 23
5.903313
 33
0.0
  0
SOLID
  5
117
330
18
100
AcDbEntity
  8
0
100
AcDbTrace
 10
5.736339
 20
5.875575
 30
0.0
 11
5.834411
 21
5.747479
 31
0.0
 12
5.736339
 22
5.676367
 32
0.0
 13
5.736339
 23
5.676367
 33
0.0
  0
SOLID
  5
118
330
18
100
AcDbEntity
  8
0
100
AcDbTrace
 10
5.012505
 20
6.032916999999999
 30
0.0
 11
5.736339
 21
5.805971
 31
0.0
 12
5.012505
 22
5.972917
 32
0.0
 13
5.736339
 23
5.745971
 33
0.0
  0
POINT
  5
119
330
18
100
AcDbEntity
  8
0
100
AcDbPoint
 10
7.990842999999999
 20
4.135497
 30
0.0
  0
POINT
  5
11A
330
18
100
AcDbEntity
  8
0
100
AcDbPoint
 10
8.036759
 20
4.220969
 30
0.0
  0
POINT
  5
11B
330
18
100
AcDbEntity
  8
0
100
AcDbPoint
 10
8.041510000000001
 20
4.224138
 30
0.0
  0
POINT
  5
11C
330
18
100
AcDbEntity
  8
0
100
AcDbPoint
 10
8.016177000000001
 20
4.252632
 30
0.0
  0
POINT
  5
11D
330
18
100
AcDbEntity
  8
0
100
AcDbPoint
 10
7.970261
 20
4.214638
 30
0.0
  0
POINT
  5
11E
330
18
100
AcDbEntity
  8
0
100
AcDbPoint
 10
7.944928
 20
4.194064
 30
0.0
  0
POINT
  5
11F
330
18
100
AcDbEntity
  8
0
100
AcDbPoint
 10
7.927510000000001
 20
4.16241
 30
0.0
  0
POINT
  5
120
330
18
100
AcDbEntity
  8
0
100
AcDbPoint
 10
7.968674000000001
 20
4.151328
 30
0.0
  0
POINT
  5
121
330
18
100
AcDbEntity
  8
0
100
AcDbPoint
 10
8.006674
 20
4.053186
 30
0.0
  0
POINT
  5
122
330
18
100
AcDbEntity
  8
0
100
AcDbPoint
 10
7.975013000000001
 20
3.991457
 30
0.0
  0
POINT
  5
123
330
18
100
AcDbEntity
  8
0
100
AcDbPoint
 10
7.965510000000001
 20
4.012039
 30
0.0
  0
POINT
  5
124
330
18
100
AcDbEntity
  8
0
100
AcDbPoint
 10
7.956007000000001
 20
4.032613
 30
0.0
  0
POINT
  5
125
330
18
100
AcDbEntity
  8
0
100
AcDbPoint
 10
8.104844
 20
4.23522
 30
0.0
  0
POINT
  5
126
330
18
100
AcDbEntity
  8
0
100
AcDbPoint
 10
8.120685999999999
 20
4.352346
 30
0.0
  0
POINT
  5
127
330
18
100
AcDbEntity
  8
0
100
AcDbPoint
 10
8.111183000000001
 20
4.391921
 30
0.0
  0
POINT
  5
128
330
18
100
AcDbEntity
  8
0
100
AcDbPoint
 10
8.028843999999999
 20
4.327023000000001
 30
0.0
  0
POINT
  5
129
330
18
100
AcDbEntity
  8
0
100
AcDbPoint
 10
8.02568
 20
4.314361
 30
0.0
  0
POINT
  5
12A
330
18
100
AcDbEntity
  8
0
100
AcDbPoint
 10
8.087425999999999
 20
4.358676999999999
 30
0.0
  0
POINT
  5
12B
330
18
100
AcDbEntity
  8
0
100
AcDbPoint
 10
8.090601
 20
4.363428
 30
0.0
  0
POINT
  5
12C
330
18
100
AcDbEntity
  8
0
100
AcDbPoint
 10
8.016177000000001
 20
4.423576000000001
 30
0.0
  0
POINT
  5
12D
330
18
100
AcDbEntity
  8
0
100
AcDbPoint
 10
8.047849000000001
 20
4.497967
 30
0.0
  0
POINT
  5
12E
330
18
100
AcDbEntity
  8
0
100
AcDbPoint
 10
8.008260999999999
 20
4.539122
 30
0.0
  0
POINT
  5
12F
330
18
100
AcDbEntity
  8
0
100
AcDbPoint
 10
7.982928
 20
4.551784
 30
0.0
  0
POINT
  5
130
330
18
100
AcDbEntity
  8
0
100
AcDbPoint
 10
7.962346000000001
 20
4.478974
 30
0.0
  0
POINT
  5
131
330
18
100
AcDbEntity
  8
0
100
AcDbPoint
 10
8.009849000000001
 20
4.499556
 30
0.0
  0
POINT
  5
132
330
18
100
AcDbEntity
  8
0
100
AcDbPoint
 10
8.041510000000001
 20
4.486894
 30
0.0
  0
POINT
  5
133
330
18
100
AcDbEntity
  8
0
100
AcDbPoint
 10
8.081097999999999
 20
4.496386
 30
0.0
  0
POINT
  5
134
330
18
100
AcDbEntity
  8
0
100
AcDbPoint
 10
8.084261999999999
 20
4.485305
 30
0.0
  0
POINT
  5
135
330
18
100
AcDbEntity
  8
0
100
AcDbPoint
 10
7.982928
 20
4.393502
 30
0.0
  0
POINT
  5
136
330
18
100
AcDbEntity
  8
0
100
AcDbPoint
 10
7.910091
 20
4.374509
 30
0.0
  0
POINT
  5
137
330
18
100
AcDbEntity
  8
0
100
AcDbPoint
 10
7.848345
 20
4.401413
 30
0.0
  0
POINT
  5
138
330
18
100
AcDbEntity
  8
0
100
AcDbPoint
 10
7.788175
 20
4.433076
 30
0.0
  0
POINT
  5
139
330
18
100
AcDbEntity
  8
0
100
AcDbPoint
 10
7.766006
 20
4.461562000000001
 30
0.0
  0
POINT
  5
13A
330
18
100
AcDbEntity
  8
0
100
AcDbPoint
 10
7.734333
 20
4.382421
 30
0.0
  0
POINT
  5
13B
330
18
100
AcDbEntity
  8
0
100
AcDbPoint
 10
7.796091000000001
 20
4.344435
 30
0.0
  0
POINT
  5
13C
330
18
100
AcDbEntity
  8
0
100
AcDbPoint
 10
7.826175999999999
 20
4.282706
 30
0.0
  0
POINT
  5
13D
330
18
100
AcDbEntity
  8
0
100
AcDbPoint
 10
7.781836
 20
4.268455
 30
0.0
  0
POINT
  5
13E
330
18
100
AcDbEntity
  8
0
100
AcDbPoint
 10
7.693169
 20
4.281117
 30
0.0
  0
POINT
  5
13F
330
18
100
AcDbEntity
  8
0
100
AcDbPoint
 10
7.653582000000001
 20
4.30328
 30
0.0
  0
POINT
  5
140
330
18
100
AcDbEntity
  8
0
100
AcDbPoint
 10
7.685254
 20
4.353927
 30
0.0
  0
POINT
  5
141
330
18
100
AcDbEntity
  8
0
100
AcDbPoint
 10
7.724842
 20
4.369758999999999
 30
0.0
  0
POINT
  5
142
330
18
100
AcDbEntity
  8
0
100
AcDbPoint
 10
7.88317
 20
4.315941000000001
 30
0.0
  0
POINT
  5
143
330
18
100
AcDbEntity
  8
0
100
AcDbPoint
 10
7.892672999999999
 20
4.292198
 30
0.0
  0
POINT
  5
144
330
18
100
AcDbEntity
  8
0
100
AcDbPoint
 10
7.835678
 20
4.2368
 30
0.0
  0
POINT
  5
145
330
18
100
AcDbEntity
  8
0
100
AcDbPoint
 10
7.840419
 20
4.38084
 30
0.0
  0
POINT
  5
146
330
18
100
AcDbEntity
  8
0
100
AcDbPoint
 10
7.848345
 20
4.393502
 30
0.0
  0
POINT
  5
147
330
18
100
AcDbEntity
  8
0
100
AcDbPoint
 10
7.816673
 20
4.4584
 30
0.0
  0
POINT
  5
148
330
18
100
AcDbEntity
  8
0
100
AcDbPoint
 10
7.816673
 20
4.4584
 30
0.0
  0
POINT
  5
149
330
18
100
AcDbEntity
  8
0
100
AcDbPoint
 10
7.889508999999999
 20
4.431487000000001
 30
0.0
  0
POINT
  5
14A
330
18
100
AcDbEntity
  8
0
100
AcDbPoint
 10
7.903763000000001
 20
4.377669999999999
 30
0.0
  0
POINT
  5
14B
330
18
100
AcDbEntity
  8
0
100
AcDbPoint
 10
8.017764
 20
4.388751
 30
0.0
  0
POINT
  5
14C
330
18
100
AcDbEntity
  8
0
100
AcDbPoint
 10
7.973425
 20
4.358676999999999
 30
0.0
  0
POINT
  5
14D
330
18
100
AcDbEntity
  8
0
100
AcDbPoint
 10
8.058928
 20
4.431487000000001
 30
0.0
  0
POINT
  5
14E
330
18
100
AcDbEntity
  8
0
100
AcDbPoint
 10
8.081097999999999
 20
4.461562000000001
 30
0.0
  0
POINT
  5
14F
330
18
100
AcDbEntity
  8
0
100
AcDbPoint
 10
8.136516
 20
4.499556
 30
0.0
  0
POINT
  5
150
330
18
100
AcDbEntity
  8
0
100
AcDbPoint
 10
7.899012
 20
4.281117
 30
0.0
  0
POINT
  5
151
330
18
100
AcDbEntity
  8
0
100
AcDbPoint
 10
7.875255
 20
4.216227
 30
0.0
  0
POINT
  5
152
330
18
100
AcDbEntity
  8
0
100
AcDbPoint
 10
7.840419
 20
4.213057
 30
0.0
  0
POINT
  5
153
330
18
100
AcDbEntity
  8
0
100
AcDbPoint
 10
7.758089999999999
 20
4.244712
 30
0.0
  0
POINT
  5
154
330
18
100
AcDbEntity
  8
0
100
AcDbPoint
 10
7.748588000000001
 20
4.285867
 30
0.0
  0
POINT
  5
155
330
18
100
AcDbEntity
  8
0
100
AcDbPoint
 10
7.797677999999999
 20
4.325442
 30
0.0
  0
POINT
  5
156
330
18
100
AcDbEntity
  8
0
100
AcDbPoint
 10
8.001932999999999
 20
4.159240000000001
 30
0.0
  0
POINT
  5
157
330
18
100
AcDbEntity
  8
0
100
AcDbPoint
 10
8.019341000000001
 20
4.208307
 30
0.0
  0
POINT
  5
158
330
18
100
AcDbEntity
  8
0
100
AcDbPoint
 10
7.968674000000001
 20
4.254213
 30
0.0
  0
POINT
  5
159
330
18
100
AcDbEntity
  8
0
100
AcDbPoint
 10
7.889508999999999
 20
4.168741000000001
 30
0.0
  0
POINT
  5
15A
330
18
100
AcDbEntity
  8
0
100
AcDbPoint
 10
7.932261000000001
 20
4.107003
 30
0.0
  0
ARC
  5
15B
330
18
100
AcDbEntity
  8
0
100
AcDbCircle
 10
6.302451000000001
 20
5.329447
 30
0.0
 40
0.0025
100
AcDbArc
 50
180.0
 51
0.0
  0
ARC
  5
15C
330
18
100
AcDbEntity
  8
0
100
AcDbCircle
 10
6.302451000000001
 20
5.329447
 30
0.0
 40
0.0025
100
AcDbArc
 50
0.0
 51
180.0
  0
ARC
  5
15D
330
18
100
AcDbEntity
  8
0
100
AcDbCircle
 10
6.302451000000001
 20
5.239355000000001
 30
0.0
 40
0.0025
100
AcDbArc
 50
180.0
 51
0.0
  0
ARC
  5
15E
330
18
100
AcDbEntity
  8
0
100
AcDbCircle
 10
6.302451000000001
 20
5.239355000000001
 30
0.0
 40
0.0025
100
AcDbArc
 50
0.0
 51
180.0
  0
ARC
  5
15F
330
18
100
AcDbEntity
  8
0
100
AcDbCircle
 10
6.22304
 20
5.276154
 30
0.0
 40
0.0025
100
AcDbArc
 50
180.0
 51
0.0
  0
ARC
  5
160
330
18
100
AcDbEntity
  8
0
100
AcDbCircle
 10
6.22304
 20
5.276154
 30
0.0
 40
0.0025
100
AcDbArc
 50
0.0
 51
180.0
  0
ARC
  5
161
330
18
100
AcDbEntity
  8
0
100
AcDbCircle
 10
6.22304
 20
5.366246
 30
0.0
 40
0.0025
100
AcDbArc
 50
180.0
 51
0.0
  0
ARC
  5
162
330
18
100
AcDbEntity
  8
0
100
AcDbCircle
 10
6.22304
 20
5.366246
 30
0.0
 40
0.0025
100
AcDbArc
 50
0.0
 51
180.0
  0
ARC
  5
163
330
18
100
AcDbEntity
  8
0
100
AcDbCircle
 10
6.262000000000001
 20
5.481379
 30
0.0
 40
0.0025
100
AcDbArc
 50
180.0
 51
0.0
  0
ARC
  5
164
330
18
100
AcDbEntity
  8
0
100
AcDbCircle
 10
6.262000000000001
 20
5.481379
 30
0.0
 40
0.0025
100
AcDbArc
 50
0.0
 51
180.0
  0
ARC
  5
165
330
18
100
AcDbEntity
  8
0
100
AcDbCircle
 10
6.303996
 20
5.510221
 30
0.0
 40
0.0025
100
AcDbArc
 50
180.0
 51
0.0
  0
ARC
  5
166
330
18
100
AcDbEntity
  8
0
100
AcDbCircle
 10
6.303996
 20
5.510221
 30
0.0
 40
0.0025
100
AcDbArc
 50
0.0
 51
180.0
  0
ARC
  5
167
330
18
100
AcDbEntity
  8
0
100
AcDbCircle
 10
6.108880999999999
 20
5.255314
 30
0.0
 40
0.005
100
AcDbArc
 50
180.0
 51
0.0
  0
ARC
  5
168
330
18
100
AcDbEntity
  8
0
100
AcDbCircle
 10
6.108880999999999
 20
5.255314
 30
0.0
 40
0.005
100
AcDbArc
 50
0.0
 51
180.0
  0
ARC
  5
169
330
18
100
AcDbEntity
  8
0
100
AcDbCircle
 10
6.108880999999999
 20
5.17023
 30
0.0
 40
0.005
100
AcDbArc
 50
180.0
 51
0.0
  0
ARC
  5
16A
330
18
100
AcDbEntity
  8
0
100
AcDbCircle
 10
6.108880999999999
 20
5.17023
 30
0.0
 40
0.005
100
AcDbArc
 50
0.0
 51
180.0
  0
ARC
  5
16B
330
18
100
AcDbEntity
  8
0
100
AcDbCircle
 10
6.054926
 20
5.132942
 30
0.0
 40
0.005
100
AcDbArc
 50
180.0
 51
0.0
  0
ARC
  5
16C
330
18
100
AcDbEntity
  8
0
100
AcDbCircle
 10
6.054926
 20
5.132942
 30
0.0
 40
0.005
100
AcDbArc
 50
0.0
 51
180.0
  0
ARC
  5
16D
330
18
100
AcDbEntity
  8
0
100
AcDbCircle
 10
6.054926
 20
5.218026999999999
 30
0.0
 40
0.005
100
AcDbArc
 50
180.0
 51
0.0
  0
ARC
  5
16E
330
18
100
AcDbEntity
  8
0
100
AcDbCircle
 10
6.054926
 20
5.218026999999999
 30
0.0
 40
0.005
100
AcDbArc
 50
0.0
 51
180.0
  0
ARC
  5
16F
330
18
100
AcDbEntity
  8
0
100
AcDbCircle
 10
6.032618
 20
4.81761
 30
0.0
 40
0.005
100
AcDbArc
 50
180.0
 51
0.0
  0
ARC
  5
170
330
18
100
AcDbEntity
  8
0
100
AcDbCircle
 10
6.032618
 20
4.81761
 30
0.0
 40
0.005
100
AcDbArc
 50
0.0
 51
180.0
  0
ARC
  5
171
330
18
100
AcDbEntity
  8
0
100
AcDbCircle
 10
6.032618
 20
4.766012
 30
0.0
 40
0.005
100
AcDbArc
 50
180.0
 51
0.0
  0
ARC
  5
172
330
18
100
AcDbEntity
  8
0
100
AcDbCircle
 10
6.032618
 20
4.766012
 30
0.0
 40
0.005
100
AcDbArc
 50
0.0
 51
180.0
  0
ARC
  5
173
330
18
100
AcDbEntity
  8
0
100
AcDbCircle
 10
6.125322
 20
4.734691000000001
 30
0.0
 40
0.005
100
AcDbArc
 50
180.0
 51
0.0
  0
ARC
  5
174
330
18
100
AcDbEntity
  8
0
100
AcDbCircle
 10
6.125322
 20
4.734691000000001
 30
0.0
 40
0.005
100
AcDbArc
 50
0.0
 51
180.0
  0
ARC
  5
175
330
18
100
AcDbEntity
  8
0
100
AcDbCircle
 10
6.125322
 20
4.786289
 30
0.0
 40
0.005
100
AcDbArc
 50
180.0
 51
0.0
  0
ARC
  5
176
330
18
100
AcDbEntity
  8
0
100
AcDbCircle
 10
6.125322
 20
4.786289
 30
0.0
 40
0.005
100
AcDbArc
 50
0.0
 51
180.0
  0
LINE
  5
177
330
18
100
AcDbEntity
  8
0
100
AcDbLine
 10
5.012505
 20
6.032916999999999
 30
0.0
 11
5.736339
 21
5.805971
 31
0.0
  0
LINE
  5
178
330
18
100
AcDbEntity
  8
0
100
AcDbLine
 10
5.36278
 20
6.174766
 30
0.0
 11
6.019295
 21
6.579441
 31
0.0
  0
LINE
  5
179
330
18
100
AcDbEntity
  8
0
100
AcDbLine
 10
3.410526
 20
6.293371
 30
0.0
 11
3.759974
 21
6.185907
 31
0.0
  0
SOLID
  5
17A
330
18
100
AcDbEntity
  8
0
100
AcDbTrace
 10
6.897489
 20
5.107435
 30
0.0
 11
7.053192999999999
 21
5.235291999999999
 31
0.0
 12
7.001291
 22
5.281617
 32
0.0
 13
7.001291
 23
5.281617
 33
0.0
  0
LINE
  5
17B
330
18
100
AcDbEntity
  8
0
100
AcDbLine
 10
6.897836
 20
5.107247
 30
0.0
 11
7.027617
 21
5.259421
 31
0.0
  0
ARC
  5
17C
330
18
100
AcDbEntity
  8
0
100
AcDbCircle
 10
7.360388
 20
4.975618
 30
0.0
 40
0.437357
100
AcDbArc
 50
96.99359700000001
 51
139.540822
  0
LINE
  5
17D
330
18
100
AcDbEntity
  8
0
100
AcDbLine
 10
7.034419000000001
 20
5.178929
 30
0.0
 11
7.953136
 21
4.896399
 31
0.0
  0
ARC
  5
17E
330
18
100
AcDbEntity
  8
0
100
AcDbCircle
 10
2.961591
 20
6.326514
 30
0.0
 40
0.0073
100
AcDbArc
 50
0.0
 51
42.794143
  0
ARC
  5
17F
330
18
100
AcDbEntity
  8
0
100
AcDbCircle
 10
2.909079
 20
6.326514
 30
0.0
 40
0.0073
100
AcDbArc
 50
137.205857
 51
180.0
  0
ARC
  5
180
330
18
100
AcDbEntity
  8
0
100
AcDbCircle
 10
2.935335
 20
6.386312
 30
0.0
 40
0.074811
100
AcDbArc
 50
259.501063
 51
270.0
  0
ARC
  5
181
330
18
100
AcDbEntity
  8
0
100
AcDbCircle
 10
2.935335
 20
6.369313
 30
0.0
 40
0.074811
100
AcDbArc
 50
259.501063
 51
270.0
  0
ARC
  5
182
330
18
100
AcDbEntity
  8
0
100
AcDbCircle
 10
2.935335
 20
6.35535
 30
0.0
 40
0.074811
100
AcDbArc
 50
259.501063
 51
270.0
  0
ARC
  5
183
330
18
100
AcDbEntity
  8
0
100
AcDbCircle
 10
2.935335
 20
6.341386
 30
0.0
 40
0.074811
100
AcDbArc
 50
259.501063
 51
270.0
  0
ARC
  5
184
330
18
100
AcDbEntity
  8
0
100
AcDbCircle
 10
2.935335
 20
6.327423000000001
 30
0.0
 40
0.074811
100
AcDbArc
 50
259.501063
 51
270.0
  0
ARC
  5
185
330
18
100
AcDbEntity
  8
0
100
AcDbCircle
 10
2.934534
 20
6.342563
 30
0.0
 40
0.180578
100
AcDbArc
 50
261.271473
 51
270.0
  0
ARC
  5
186
330
18
100
AcDbEntity
  8
0
100
AcDbCircle
 10
2.934534
 20
6.391392
 30
0.0
 40
0.180578
100
AcDbArc
 50
261.271473
 51
270.0
  0
ARC
  5
187
330
18
100
AcDbEntity
  8
0
100
AcDbCircle
 10
2.935335
 20
6.31346
 30
0.0
 40
0.074811
100
AcDbArc
 50
259.501063
 51
270.0
  0
ARC
  5
188
330
18
100
AcDbEntity
  8
0
100
AcDbCircle
 10
2.909079
 20
6.326514
 30
0.0
 40
0.0073
100
AcDbArc
 50
180.0
 51
222.794143
  0
ARC
  5
189
330
18
100
AcDbEntity
  8
0
100
AcDbCircle
 10
2.929837
 20
6.356643
 30
0.0
 40
0.044637
100
AcDbArc
 50
245.896177
 51
259.501063
  0
ARC
  5
18A
330
18
100
AcDbEntity
  8
0
100
AcDbCircle
 10
2.929837
 20
6.339644
 30
0.0
 40
0.044637
100
AcDbArc
 50
245.896177
 51
259.501063
  0
ARC
  5
18B
330
18
100
AcDbEntity
  8
0
100
AcDbCircle
 10
2.921503
 20
6.321018000000001
 30
0.0
 40
0.024231
100
AcDbArc
 50
222.794143
 51
245.896177
  0
ARC
  5
18C
330
18
100
AcDbEntity
  8
0
100
AcDbCircle
 10
2.909079
 20
6.309515
 30
0.0
 40
0.0073
100
AcDbArc
 50
180.0
 51
222.794143
  0
ARC
  5
18D
330
18
100
AcDbEntity
  8
0
100
AcDbCircle
 10
2.929837
 20
6.32568
 30
0.0
 40
0.044637
100
AcDbArc
 50
245.896177
 51
259.501063
  0
ARC
  5
18E
330
18
100
AcDbEntity
  8
0
100
AcDbCircle
 10
2.921503
 20
6.307054
 30
0.0
 40
0.024231
100
AcDbArc
 50
222.794143
 51
245.896177
  0
ARC
  5
18F
330
18
100
AcDbEntity
  8
0
100
AcDbCircle
 10
2.909079
 20
6.295551000000001
 30
0.0
 40
0.0073
100
AcDbArc
 50
180.0
 51
222.794143
  0
ARC
  5
190
330
18
100
AcDbEntity
  8
0
100
AcDbCircle
 10
2.929837
 20
6.311717
 30
0.0
 40
0.044637
100
AcDbArc
 50
245.896177
 51
259.501063
  0
ARC
  5
191
330
18
100
AcDbEntity
  8
0
100
AcDbCircle
 10
2.921503
 20
6.293091
 30
0.0
 40
0.024231
100
AcDbArc
 50
222.794143
 51
245.896177
  0
ARC
  5
192
330
18
100
AcDbEntity
  8
0
100
AcDbCircle
 10
2.909079
 20
6.281588
 30
0.0
 40
0.0073
100
AcDbArc
 50
180.0
 51
222.794143
  0
ARC
  5
193
330
18
100
AcDbEntity
  8
0
100
AcDbCircle
 10
2.929837
 20
6.297754
 30
0.0
 40
0.044637
100
AcDbArc
 50
245.896177
 51
259.501063
  0
ARC
  5
194
330
18
100
AcDbEntity
  8
0
100
AcDbCircle
 10
2.921503
 20
6.279128
 30
0.0
 40
0.024231
100
AcDbArc
 50
222.794143
 51
245.896177
  0
ARC
  5
195
330
18
100
AcDbEntity
  8
0
100
AcDbCircle
 10
2.909079
 20
6.267625
 30
0.0
 40
0.0073
100
AcDbArc
 50
180.0
 51
222.794143
  0
ARC
  5
196
330
18
100
AcDbEntity
  8
0
100
AcDbCircle
 10
2.922645
 20
6.265127
 30
0.0
 40
0.102235
100
AcDbArc
 50
249.66243
 51
261.271473
  0
ARC
  5
197
330
18
100
AcDbEntity
  8
0
100
AcDbCircle
 10
2.922645
 20
6.313956
 30
0.0
 40
0.102235
100
AcDbArc
 50
249.66243
 51
261.271473
  0
ARC
  5
198
330
18
100
AcDbEntity
  8
0
100
AcDbCircle
 10
2.929837
 20
6.283791000000001
 30
0.0
 40
0.044637
100
AcDbArc
 50
245.896177
 51
259.501063
  0
ARC
  5
199
330
18
100
AcDbEntity
  8
0
100
AcDbCircle
 10
2.921503
 20
6.265165000000001
 30
0.0
 40
0.024231
100
AcDbArc
 50
222.794143
 51
245.896177
  0
ARC
  5
19A
330
18
100
AcDbEntity
  8
0
100
AcDbCircle
 10
2.909079
 20
6.253662
 30
0.0
 40
0.0073
100
AcDbArc
 50
180.0
 51
222.794143
  0
ARC
  5
19B
330
18
100
AcDbEntity
  8
0
100
AcDbCircle
 10
2.922645
 20
6.157386
 30
0.0
 40
0.102235
100
AcDbArc
 50
101.776663
 51
110.33757
  0
LINE
  5
19C
330
18
100
AcDbEntity
  8
0
100
AcDbLine
 10
2.89757
 20
6.214844
 30
0.0
 11
2.89757
 21
6.166015
 31
0.0
  0
ARC
  5
19D
330
18
100
AcDbEntity
  8
0
100
AcDbCircle
 10
2.878009
 20
6.186842
 30
0.0
 40
0.010538
100
AcDbArc
 50
180.0
 51
228.176394
  0
ARC
  5
19E
330
18
100
AcDbEntity
  8
0
100
AcDbCircle
 10
2.878009
 20
6.235671
 30
0.0
 40
0.010538
100
AcDbArc
 50
180.0
 51
228.176394
  0
ARC
  5
19F
330
18
100
AcDbEntity
  8
0
100
AcDbCircle
 10
2.878009
 20
6.235671
 30
0.0
 40
0.010538
100
AcDbArc
 50
131.823606
 51
180.0
  0
LINE
  5
1A0
330
18
100
AcDbEntity
  8
0
100
AcDbLine
 10
2.867471
 20
6.235671
 30
0.0
 11
2.867471
 21
6.186842
 31
0.0
  0
ARC
  5
1A1
330
18
100
AcDbEntity
  8
0
100
AcDbCircle
 10
2.904672
 20
6.216639
 30
0.0
 40
0.050522
100
AcDbArc
 50
228.176394
 51
249.66243
  0
ARC
  5
1A2
330
18
100
AcDbEntity
  8
0
100
AcDbCircle
 10
2.904672
 20
6.265467
 30
0.0
 40
0.050522
100
AcDbArc
 50
228.176394
 51
249.66243
  0
ARC
  5
1A3
330
18
100
AcDbEntity
  8
0
100
AcDbCircle
 10
2.904672
 20
6.205875
 30
0.0
 40
0.050522
100
AcDbArc
 50
110.33757
 51
131.823606
  0
ARC
  5
1A4
330
18
100
AcDbEntity
  8
0
100
AcDbCircle
 10
2.921503
 20
6.338016000000001
 30
0.0
 40
0.024231
100
AcDbArc
 50
222.794143
 51
245.896177
  0
LINE
  5
1A5
330
18
100
AcDbEntity
  8
0
100
AcDbLine
 10
2.901779
 20
6.253662
 30
0.0
 11
2.901779
 21
6.326514
 31
0.0
  0
ARC
  5
1A6
330
18
100
AcDbEntity
  8
0
100
AcDbCircle
 10
2.961591
 20
6.326514
 30
0.0
 40
0.0073
100
AcDbArc
 50
317.205857
 51
0.0
  0
ARC
  5
1A7
330
18
100
AcDbEntity
  8
0
100
AcDbCircle
 10
2.961591
 20
6.309515
 30
0.0
 40
0.0073
100
AcDbArc
 50
317.205857
 51
0.0
  0
ARC
  5
1A8
330
18
100
AcDbEntity
  8
0
100
AcDbCircle
 10
2.961591
 20
6.295551000000001
 30
0.0
 40
0.0073
100
AcDbArc
 50
317.205857
 51
0.0
  0
ARC
  5
1A9
330
18
100
AcDbEntity
  8
0
100
AcDbCircle
 10
2.961591
 20
6.281588
 30
0.0
 40
0.0073
100
AcDbArc
 50
317.205857
 51
0.0
  0
ARC
  5
1AA
330
18
100
AcDbEntity
  8
0
100
AcDbCircle
 10
2.961591
 20
6.267625
 30
0.0
 40
0.0073
100
AcDbArc
 50
317.205857
 51
0.0
  0
ARC
  5
1AB
330
18
100
AcDbEntity
  8
0
100
AcDbCircle
 10
2.991058
 20
6.186842
 30
0.0
 40
0.010538
100
AcDbArc
 50
311.823606
 51
0.0
  0
ARC
  5
1AC
330
18
100
AcDbEntity
  8
0
100
AcDbCircle
 10
2.964395
 20
6.216639
 30
0.0
 40
0.050522
100
AcDbArc
 50
290.33757
 51
311.823606
  0
ARC
  5
1AD
330
18
100
AcDbEntity
  8
0
100
AcDbCircle
 10
2.946423
 20
6.157386
 30
0.0
 40
0.102235
100
AcDbArc
 50
69.66243
 51
77.304452
  0
ARC
  5
1AE
330
18
100
AcDbEntity
  8
0
100
AcDbCircle
 10
2.964395
 20
6.205875
 30
0.0
 40
0.050522
100
AcDbArc
 50
48.176394
 51
69.66243
  0
ARC
  5
1AF
330
18
100
AcDbEntity
  8
0
100
AcDbCircle
 10
2.991058
 20
6.235671
 30
0.0
 40
0.010538
100
AcDbArc
 50
0.0
 51
48.176394
  0
ARC
  5
1B0
330
18
100
AcDbEntity
  8
0
100
AcDbCircle
 10
2.991058
 20
6.235671
 30
0.0
 40
0.010538
100
AcDbArc
 50
311.823606
 51
0.0
  0
ARC
  5
1B1
330
18
100
AcDbEntity
  8
0
100
AcDbCircle
 10
2.964395
 20
6.265467
 30
0.0
 40
0.050522
100
AcDbArc
 50
290.33757
 51
311.823606
  0
ARC
  5
1B2
330
18
100
AcDbEntity
  8
0
100
AcDbCircle
 10
2.961591
 20
6.253662
 30
0.0
 40
0.0073
100
AcDbArc
 50
317.205857
 51
0.0
  0
LINE
  5
1B3
330
18
100
AcDbEntity
  8
0
100
AcDbLine
 10
2.975631
 20
6.215982
 30
0.0
 11
2.975631
 21
6.167154
 31
0.0
  0
LINE
  5
1B4
330
18
100
AcDbEntity
  8
0
100
AcDbLine
 10
3.001597
 20
6.235671
 30
0.0
 11
3.001597
 21
6.186842
 31
0.0
  0
LINE
  5
1B5
330
18
100
AcDbEntity
  8
0
100
AcDbLine
 10
2.968891
 20
6.253662
 30
0.0
 11
2.968891
 21
6.326514
 31
0.0
  0
ARC
  5
1B6
330
18
100
AcDbEntity
  8
0
100
AcDbCircle
 10
2.940833
 20
6.356643
 30
0.0
 40
0.044637
100
AcDbArc
 50
280.498937
 51
294.103823
  0
ARC
  5
1B7
330
18
100
AcDbEntity
  8
0
100
AcDbCircle
 10
2.935335
 20
6.386312
 30
0.0
 40
0.074811
100
AcDbArc
 50
270.0
 51
280.498937
  0
ARC
  5
1B8
330
18
100
AcDbEntity
  8
0
100
AcDbCircle
 10
2.940833
 20
6.339644
 30
0.0
 40
0.044637
100
AcDbArc
 50
280.498937
 51
294.103823
  0
ARC
  5
1B9
330
18
100
AcDbEntity
  8
0
100
AcDbCircle
 10
2.935335
 20
6.369313
 30
0.0
 40
0.074811
100
AcDbArc
 50
270.0
 51
280.498937
  0
ARC
  5
1BA
330
18
100
AcDbEntity
  8
0
100
AcDbCircle
 10
2.940833
 20
6.32568
 30
0.0
 40
0.044637
100
AcDbArc
 50
280.498937
 51
294.103823
  0
ARC
  5
1BB
330
18
100
AcDbEntity
  8
0
100
AcDbCircle
 10
2.935335
 20
6.35535
 30
0.0
 40
0.074811
100
AcDbArc
 50
270.0
 51
280.498937
  0
ARC
  5
1BC
330
18
100
AcDbEntity
  8
0
100
AcDbCircle
 10
2.940833
 20
6.311717
 30
0.0
 40
0.044637
100
AcDbArc
 50
280.498937
 51
294.103823
  0
ARC
  5
1BD
330
18
100
AcDbEntity
  8
0
100
AcDbCircle
 10
2.935335
 20
6.341386
 30
0.0
 40
0.074811
100
AcDbArc
 50
270.0
 51
280.498937
  0
ARC
  5
1BE
330
18
100
AcDbEntity
  8
0
100
AcDbCircle
 10
2.940833
 20
6.297754
 30
0.0
 40
0.044637
100
AcDbArc
 50
280.498937
 51
294.103823
  0
ARC
  5
1BF
330
18
100
AcDbEntity
  8
0
100
AcDbCircle
 10
2.935335
 20
6.327423000000001
 30
0.0
 40
0.074811
100
AcDbArc
 50
270.0
 51
280.498937
  0
ARC
  5
1C0
330
18
100
AcDbEntity
  8
0
100
AcDbCircle
 10
2.934534
 20
6.342563
 30
0.0
 40
0.180578
100
AcDbArc
 50
270.0
 51
278.728527
  0
ARC
  5
1C1
330
18
100
AcDbEntity
  8
0
100
AcDbCircle
 10
2.934534
 20
6.391392
 30
0.0
 40
0.180578
100
AcDbArc
 50
270.0
 51
278.728527
  0
ARC
  5
1C2
330
18
100
AcDbEntity
  8
0
100
AcDbCircle
 10
2.940833
 20
6.283791000000001
 30
0.0
 40
0.044637
100
AcDbArc
 50
280.498937
 51
294.103823
  0
ARC
  5
1C3
330
18
100
AcDbEntity
  8
0
100
AcDbCircle
 10
2.935335
 20
6.31346
 30
0.0
 40
0.074811
100
AcDbArc
 50
270.0
 51
280.498937
  0
ARC
  5
1C4
330
18
100
AcDbEntity
  8
0
100
AcDbCircle
 10
2.949167
 20
6.338016000000001
 30
0.0
 40
0.024231
100
AcDbArc
 50
294.103823
 51
317.205857
  0
ARC
  5
1C5
330
18
100
AcDbEntity
  8
0
100
AcDbCircle
 10
2.949167
 20
6.321018000000001
 30
0.0
 40
0.024231
100
AcDbArc
 50
294.103823
 51
317.205857
  0
ARC
  5
1C6
330
18
100
AcDbEntity
  8
0
100
AcDbCircle
 10
2.949167
 20
6.307054
 30
0.0
 40
0.024231
100
AcDbArc
 50
294.103823
 51
317.205857
  0
ARC
  5
1C7
330
18
100
AcDbEntity
  8
0
100
AcDbCircle
 10
2.949167
 20
6.293091
 30
0.0
 40
0.024231
100
AcDbArc
 50
294.103823
 51
317.205857
  0
ARC
  5
1C8
330
18
100
AcDbEntity
  8
0
100
AcDbCircle
 10
2.949167
 20
6.279128
 30
0.0
 40
0.024231
100
AcDbArc
 50
294.103823
 51
317.205857
  0
ARC
  5
1C9
330
18
100
AcDbEntity
  8
0
100
AcDbCircle
 10
2.946423
 20
6.265127
 30
0.0
 40
0.102235
100
AcDbArc
 50
278.728527
 51
290.33757
  0
ARC
  5
1CA
330
18
100
AcDbEntity
  8
0
100
AcDbCircle
 10
2.946423
 20
6.313956
 30
0.0
 40
0.102235
100
AcDbArc
 50
278.728527
 51
290.33757
  0
ARC
  5
1CB
330
18
100
AcDbEntity
  8
0
100
AcDbCircle
 10
2.949167
 20
6.265165000000001
 30
0.0
 40
0.024231
100
AcDbArc
 50
294.103823
 51
317.205857
  0
ARC
  5
1CC
330
18
100
AcDbEntity
  8
0
100
AcDbCircle
 10
2.935335
 20
6.266716000000001
 30
0.0
 40
0.074811
100
AcDbArc
 50
90.0
 51
100.498937
  0
ARC
  5
1CD
330
18
100
AcDbEntity
  8
0
100
AcDbCircle
 10
2.921503
 20
6.315011
 30
0.0
 40
0.024231
100
AcDbArc
 50
114.103823
 51
137.205857
  0
ARC
  5
1CE
330
18
100
AcDbEntity
  8
0
100
AcDbCircle
 10
2.929837
 20
6.296385
 30
0.0
 40
0.044637
100
AcDbArc
 50
100.498937
 51
114.103823
  0
ARC
  5
1CF
330
18
100
AcDbEntity
  8
0
100
AcDbCircle
 10
2.935335
 20
6.266716000000001
 30
0.0
 40
0.074811
100
AcDbArc
 50
79.501063
 51
90.0
  0
ARC
  5
1D0
330
18
100
AcDbEntity
  8
0
100
AcDbCircle
 10
2.940833
 20
6.296385
 30
0.0
 40
0.044637
100
AcDbArc
 50
65.89617700000001
 51
79.501063
  0
ARC
  5
1D1
330
18
100
AcDbEntity
  8
0
100
AcDbCircle
 10
2.949167
 20
6.315011
 30
0.0
 40
0.024231
100
AcDbArc
 50
42.794143
 51
65.89617700000001
  0
LINE
  5
1D2
330
18
100
AcDbEntity
  8
0
100
AcDbLine
 10
6.662396
 20
5.063525
 30
0.0
 11
6.662396
 21
5.014696
 31
0.0
  0
LINE
  5
1D3
330
18
100
AcDbEntity
  8
0
100
AcDbLine
 10
6.692495
 20
5.042697
 30
0.0
 11
6.692495
 21
4.993869
 31
0.0
  0
LINE
  5
1D4
330
18
100
AcDbEntity
  8
0
100
AcDbLine
 10
6.770556
 20
5.043836
 30
0.0
 11
6.770556
 21
4.995007
 31
0.0
  0
LINE
  5
1D5
330
18
100
AcDbEntity
  8
0
100
AcDbLine
 10
6.796522
 20
5.063525
 30
0.0
 11
6.796522
 21
5.014696
 31
0.0
  0
ARC
  5
1D6
330
18
100
AcDbEntity
  8
0
100
AcDbCircle
 10
6.672934
 20
5.014696
 30
0.0
 40
0.010538
100
AcDbArc
 50
180.0
 51
228.176394
  0
ARC
  5
1D7
330
18
100
AcDbEntity
  8
0
100
AcDbCircle
 10
6.785983
 20
5.014696
 30
0.0
 40
0.010538
100
AcDbArc
 50
311.823606
 51
0.0
  0
ARC
  5
1D8
330
18
100
AcDbEntity
  8
0
100
AcDbCircle
 10
6.699597
 20
5.044492
 30
0.0
 40
0.050522
100
AcDbArc
 50
228.176394
 51
249.66243
  0
ARC
  5
1D9
330
18
100
AcDbEntity
  8
0
100
AcDbCircle
 10
6.75932
 20
5.044492
 30
0.0
 40
0.050522
100
AcDbArc
 50
290.33757
 51
311.823606
  0
ARC
  5
1DA
330
18
100
AcDbEntity
  8
0
100
AcDbCircle
 10
6.672934
 20
5.063525
 30
0.0
 40
0.010538
100
AcDbArc
 50
180.0
 51
228.176394
  0
ARC
  5
1DB
330
18
100
AcDbEntity
  8
0
100
AcDbCircle
 10
6.672934
 20
5.063525
 30
0.0
 40
0.010538
100
AcDbArc
 50
131.823606
 51
180.0
  0
ARC
  5
1DC
330
18
100
AcDbEntity
  8
0
100
AcDbCircle
 10
6.724761999999999
 20
5.167497
 30
0.0
 40
0.044637
100
AcDbArc
 50
245.896177
 51
259.501063
  0
ARC
  5
1DD
330
18
100
AcDbEntity
  8
0
100
AcDbCircle
 10
6.724761999999999
 20
5.153534
 30
0.0
 40
0.044637
100
AcDbArc
 50
245.896177
 51
259.501063
  0
ARC
  5
1DE
330
18
100
AcDbEntity
  8
0
100
AcDbCircle
 10
6.724761999999999
 20
5.184496
 30
0.0
 40
0.044637
100
AcDbArc
 50
245.896177
 51
259.501063
  0
ARC
  5
1DF
330
18
100
AcDbEntity
  8
0
100
AcDbCircle
 10
6.724761999999999
 20
5.124238
 30
0.0
 40
0.044637
100
AcDbArc
 50
100.498937
 51
114.103823
  0
ARC
  5
1E0
330
18
100
AcDbEntity
  8
0
100
AcDbCircle
 10
6.704003999999999
 20
5.137368
 30
0.0
 40
0.0073
100
AcDbArc
 50
180.0
 51
222.794143
  0
ARC
  5
1E1
330
18
100
AcDbEntity
  8
0
100
AcDbCircle
 10
6.716428
 20
5.148871
 30
0.0
 40
0.024231
100
AcDbArc
 50
222.794143
 51
245.896177
  0
ARC
  5
1E2
330
18
100
AcDbEntity
  8
0
100
AcDbCircle
 10
6.704003999999999
 20
5.123405
 30
0.0
 40
0.0073
100
AcDbArc
 50
180.0
 51
222.794143
  0
ARC
  5
1E3
330
18
100
AcDbEntity
  8
0
100
AcDbCircle
 10
6.716428
 20
5.134908
 30
0.0
 40
0.024231
100
AcDbArc
 50
222.794143
 51
245.896177
  0
ARC
  5
1E4
330
18
100
AcDbEntity
  8
0
100
AcDbCircle
 10
6.704003999999999
 20
5.109442
 30
0.0
 40
0.0073
100
AcDbArc
 50
180.0
 51
222.794143
  0
ARC
  5
1E5
330
18
100
AcDbEntity
  8
0
100
AcDbCircle
 10
6.704003999999999
 20
5.154367
 30
0.0
 40
0.0073
100
AcDbArc
 50
180.0
 51
222.794143
  0
ARC
  5
1E6
330
18
100
AcDbEntity
  8
0
100
AcDbCircle
 10
6.716428
 20
5.16587
 30
0.0
 40
0.024231
100
AcDbArc
 50
222.794143
 51
245.896177
  0
ARC
  5
1E7
330
18
100
AcDbEntity
  8
0
100
AcDbCircle
 10
6.716428
 20
5.142864
 30
0.0
 40
0.024231
100
AcDbArc
 50
114.103823
 51
137.205857
  0
ARC
  5
1E8
330
18
100
AcDbEntity
  8
0
100
AcDbCircle
 10
6.704003999999999
 20
5.154367
 30
0.0
 40
0.0073
100
AcDbArc
 50
137.205857
 51
180.0
  0
ARC
  5
1E9
330
18
100
AcDbEntity
  8
0
100
AcDbCircle
 10
6.73026
 20
5.197166
 30
0.0
 40
0.074811
100
AcDbArc
 50
259.501063
 51
270.0
  0
ARC
  5
1EA
330
18
100
AcDbEntity
  8
0
100
AcDbCircle
 10
6.73026
 20
5.197166
 30
0.0
 40
0.074811
100
AcDbArc
 50
270.0
 51
280.498937
  0
ARC
  5
1EB
330
18
100
AcDbEntity
  8
0
100
AcDbCircle
 10
6.735758000000001
 20
5.167497
 30
0.0
 40
0.044637
100
AcDbArc
 50
280.498937
 51
294.103823
  0
ARC
  5
1EC
330
18
100
AcDbEntity
  8
0
100
AcDbCircle
 10
6.744092
 20
5.148871
 30
0.0
 40
0.024231
100
AcDbArc
 50
294.103823
 51
317.205857
  0
ARC
  5
1ED
330
18
100
AcDbEntity
  8
0
100
AcDbCircle
 10
6.756516
 20
5.137368
 30
0.0
 40
0.0073
100
AcDbArc
 50
317.205857
 51
0.0
  0
ARC
  5
1EE
330
18
100
AcDbEntity
  8
0
100
AcDbCircle
 10
6.73026
 20
5.183203
 30
0.0
 40
0.074811
100
AcDbArc
 50
259.501063
 51
270.0
  0
ARC
  5
1EF
330
18
100
AcDbEntity
  8
0
100
AcDbCircle
 10
6.73026
 20
5.183203
 30
0.0
 40
0.074811
100
AcDbArc
 50
270.0
 51
280.498937
  0
ARC
  5
1F0
330
18
100
AcDbEntity
  8
0
100
AcDbCircle
 10
6.735758000000001
 20
5.153534
 30
0.0
 40
0.044637
100
AcDbArc
 50
280.498937
 51
294.103823
  0
ARC
  5
1F1
330
18
100
AcDbEntity
  8
0
100
AcDbCircle
 10
6.744092
 20
5.134908
 30
0.0
 40
0.024231
100
AcDbArc
 50
294.103823
 51
317.205857
  0
ARC
  5
1F2
330
18
100
AcDbEntity
  8
0
100
AcDbCircle
 10
6.756516
 20
5.123405
 30
0.0
 40
0.0073
100
AcDbArc
 50
317.205857
 51
0.0
  0
ARC
  5
1F3
330
18
100
AcDbEntity
  8
0
100
AcDbCircle
 10
6.756516
 20
5.109442
 30
0.0
 40
0.0073
100
AcDbArc
 50
317.205857
 51
0.0
  0
ARC
  5
1F4
330
18
100
AcDbEntity
  8
0
100
AcDbCircle
 10
6.73026
 20
5.214165
 30
0.0
 40
0.074811
100
AcDbArc
 50
259.501063
 51
270.0
  0
ARC
  5
1F5
330
18
100
AcDbEntity
  8
0
100
AcDbCircle
 10
6.73026
 20
5.214165
 30
0.0
 40
0.074811
100
AcDbArc
 50
270.0
 51
280.498937
  0
ARC
  5
1F6
330
18
100
AcDbEntity
  8
0
100
AcDbCircle
 10
6.735758000000001
 20
5.184496
 30
0.0
 40
0.044637
100
AcDbArc
 50
280.498937
 51
294.103823
  0
ARC
  5
1F7
330
18
100
AcDbEntity
  8
0
100
AcDbCircle
 10
6.744092
 20
5.16587
 30
0.0
 40
0.024231
100
AcDbArc
 50
294.103823
 51
317.205857
  0
ARC
  5
1F8
330
18
100
AcDbEntity
  8
0
100
AcDbCircle
 10
6.756516
 20
5.154367
 30
0.0
 40
0.0073
100
AcDbArc
 50
317.205857
 51
0.0
  0
ARC
  5
1F9
330
18
100
AcDbEntity
  8
0
100
AcDbCircle
 10
6.756516
 20
5.154367
 30
0.0
 40
0.0073
100
AcDbArc
 50
0.0
 51
42.794143
  0
ARC
  5
1FA
330
18
100
AcDbEntity
  8
0
100
AcDbCircle
 10
6.744092
 20
5.142864
 30
0.0
 40
0.024231
100
AcDbArc
 50
42.794143
 51
65.89617700000001
  0
ARC
  5
1FB
330
18
100
AcDbEntity
  8
0
100
AcDbCircle
 10
6.735758000000001
 20
5.124238
 30
0.0
 40
0.044637
100
AcDbArc
 50
65.89617700000001
 51
79.501063
  0
ARC
  5
1FC
330
18
100
AcDbEntity
  8
0
100
AcDbCircle
 10
6.73026
 20
5.094569
 30
0.0
 40
0.074811
100
AcDbArc
 50
79.501063
 51
90.0
  0
ARC
  5
1FD
330
18
100
AcDbEntity
  8
0
100
AcDbCircle
 10
6.73026
 20
5.094569
 30
0.0
 40
0.074811
100
AcDbArc
 50
90.0
 51
100.498937
  0
ARC
  5
1FE
330
18
100
AcDbEntity
  8
0
100
AcDbCircle
 10
6.785983
 20
5.063525
 30
0.0
 40
0.010538
100
AcDbArc
 50
311.823606
 51
0.0
  0
ARC
  5
1FF
330
18
100
AcDbEntity
  8
0
100
AcDbCircle
 10
6.785983
 20
5.063525
 30
0.0
 40
0.010538
100
AcDbArc
 50
0.0
 51
48.176394
  0
ARC
  5
200
330
18
100
AcDbEntity
  8
0
100
AcDbCircle
 10
6.724761999999999
 20
5.125607
 30
0.0
 40
0.044637
100
AcDbArc
 50
245.896177
 51
259.501063
  0
ARC
  5
201
330
18
100
AcDbEntity
  8
0
100
AcDbCircle
 10
6.724761999999999
 20
5.111644
 30
0.0
 40
0.044637
100
AcDbArc
 50
245.896177
 51
259.501063
  0
ARC
  5
202
330
18
100
AcDbEntity
  8
0
100
AcDbCircle
 10
6.729458999999999
 20
5.219245
 30
0.0
 40
0.180578
100
AcDbArc
 50
261.271473
 51
270.0
  0
ARC
  5
203
330
18
100
AcDbEntity
  8
0
100
AcDbCircle
 10
6.704003999999999
 20
5.095478
 30
0.0
 40
0.0073
100
AcDbArc
 50
180.0
 51
222.794143
  0
ARC
  5
204
330
18
100
AcDbEntity
  8
0
100
AcDbCircle
 10
6.716428
 20
5.106980999999999
 30
0.0
 40
0.024231
100
AcDbArc
 50
222.794143
 51
245.896177
  0
ARC
  5
205
330
18
100
AcDbEntity
  8
0
100
AcDbCircle
 10
6.704003999999999
 20
5.081515
 30
0.0
 40
0.0073
100
AcDbArc
 50
180.0
 51
222.794143
  0
ARC
  5
206
330
18
100
AcDbEntity
  8
0
100
AcDbCircle
 10
6.716428
 20
5.093018
 30
0.0
 40
0.024231
100
AcDbArc
 50
222.794143
 51
245.896177
  0
ARC
  5
207
330
18
100
AcDbEntity
  8
0
100
AcDbCircle
 10
6.699597
 20
5.093321
 30
0.0
 40
0.050522
100
AcDbArc
 50
228.176394
 51
249.66243
  0
ARC
  5
208
330
18
100
AcDbEntity
  8
0
100
AcDbCircle
 10
6.717569999999999
 20
5.14181
 30
0.0
 40
0.102235
100
AcDbArc
 50
249.66243
 51
261.271473
  0
ARC
  5
209
330
18
100
AcDbEntity
  8
0
100
AcDbCircle
 10
6.717569999999999
 20
4.98524
 30
0.0
 40
0.102235
100
AcDbArc
 50
101.776663
 51
110.33757
  0
ARC
  5
20A
330
18
100
AcDbEntity
  8
0
100
AcDbCircle
 10
6.699597
 20
5.033728
 30
0.0
 40
0.050522
100
AcDbArc
 50
110.33757
 51
131.823606
  0
ARC
  5
20B
330
18
100
AcDbEntity
  8
0
100
AcDbCircle
 10
6.73026
 20
5.16924
 30
0.0
 40
0.074811
100
AcDbArc
 50
259.501063
 51
270.0
  0
ARC
  5
20C
330
18
100
AcDbEntity
  8
0
100
AcDbCircle
 10
6.73026
 20
5.16924
 30
0.0
 40
0.074811
100
AcDbArc
 50
270.0
 51
280.498937
  0
ARC
  5
20D
330
18
100
AcDbEntity
  8
0
100
AcDbCircle
 10
6.73026
 20
5.155277
 30
0.0
 40
0.074811
100
AcDbArc
 50
259.501063
 51
270.0
  0
ARC
  5
20E
330
18
100
AcDbEntity
  8
0
100
AcDbCircle
 10
6.73026
 20
5.155277
 30
0.0
 40
0.074811
100
AcDbArc
 50
270.0
 51
280.498937
  0
ARC
  5
20F
330
18
100
AcDbEntity
  8
0
100
AcDbCircle
 10
6.735758000000001
 20
5.125607
 30
0.0
 40
0.044637
100
AcDbArc
 50
280.498937
 51
294.103823
  0
ARC
  5
210
330
18
100
AcDbEntity
  8
0
100
AcDbCircle
 10
6.744092
 20
5.106980999999999
 30
0.0
 40
0.024231
100
AcDbArc
 50
294.103823
 51
317.205857
  0
ARC
  5
211
330
18
100
AcDbEntity
  8
0
100
AcDbCircle
 10
6.756516
 20
5.095478
 30
0.0
 40
0.0073
100
AcDbArc
 50
317.205857
 51
0.0
  0
ARC
  5
212
330
18
100
AcDbEntity
  8
0
100
AcDbCircle
 10
6.73026
 20
5.141312999999999
 30
0.0
 40
0.074811
100
AcDbArc
 50
259.501063
 51
270.0
  0
ARC
  5
213
330
18
100
AcDbEntity
  8
0
100
AcDbCircle
 10
6.73026
 20
5.141312999999999
 30
0.0
 40
0.074811
100
AcDbArc
 50
270.0
 51
280.498937
  0
ARC
  5
214
330
18
100
AcDbEntity
  8
0
100
AcDbCircle
 10
6.735758000000001
 20
5.111644
 30
0.0
 40
0.044637
100
AcDbArc
 50
280.498937
 51
294.103823
  0
ARC
  5
215
330
18
100
AcDbEntity
  8
0
100
AcDbCircle
 10
6.744092
 20
5.093018
 30
0.0
 40
0.024231
100
AcDbArc
 50
294.103823
 51
317.205857
  0
ARC
  5
216
330
18
100
AcDbEntity
  8
0
100
AcDbCircle
 10
6.756516
 20
5.081515
 30
0.0
 40
0.0073
100
AcDbArc
 50
317.205857
 51
0.0
  0
ARC
  5
217
330
18
100
AcDbEntity
  8
0
100
AcDbCircle
 10
6.729458999999999
 20
5.219245
 30
0.0
 40
0.180578
100
AcDbArc
 50
270.0
 51
278.728527
  0
ARC
  5
218
330
18
100
AcDbEntity
  8
0
100
AcDbCircle
 10
6.741348
 20
5.14181
 30
0.0
 40
0.102235
100
AcDbArc
 50
278.728527
 51
290.33757
  0
ARC
  5
219
330
18
100
AcDbEntity
  8
0
100
AcDbCircle
 10
6.75932
 20
5.093321
 30
0.0
 40
0.050522
100
AcDbArc
 50
290.33757
 51
311.823606
  0
ARC
  5
21A
330
18
100
AcDbEntity
  8
0
100
AcDbCircle
 10
6.75932
 20
5.033728
 30
0.0
 40
0.050522
100
AcDbArc
 50
48.176394
 51
69.66243
  0
ARC
  5
21B
330
18
100
AcDbEntity
  8
0
100
AcDbCircle
 10
6.741348
 20
4.98524
 30
0.0
 40
0.102235
100
AcDbArc
 50
69.66243
 51
77.304452
  0
ARC
  5
21C
330
18
100
AcDbEntity
  8
0
100
AcDbCircle
 10
6.724761999999999
 20
5.139571
 30
0.0
 40
0.044637
100
AcDbArc
 50
245.896177
 51
259.501063
  0
LINE
  5
21D
330
18
100
AcDbEntity
  8
0
100
AcDbLine
 10
6.696704
 20
5.081515
 30
0.0
 11
6.696704
 21
5.154367
 31
0.0
  0
ARC
  5
21E
330
18
100
AcDbEntity
  8
0
100
AcDbCircle
 10
6.716428
 20
5.120944000000001
 30
0.0
 40
0.024231
100
AcDbArc
 50
222.794143
 51
245.896177
  0
LINE
  5
21F
330
18
100
AcDbEntity
  8
0
100
AcDbLine
 10
6.763816
 20
5.081515
 30
0.0
 11
6.763816
 21
5.154367
 31
0.0
  0
ARC
  5
220
330
18
100
AcDbEntity
  8
0
100
AcDbCircle
 10
6.735758000000001
 20
5.139571
 30
0.0
 40
0.044637
100
AcDbArc
 50
280.498937
 51
294.103823
  0
ARC
  5
221
330
18
100
AcDbEntity
  8
0
100
AcDbCircle
 10
6.744092
 20
5.120944000000001
 30
0.0
 40
0.024231
100
AcDbArc
 50
294.103823
 51
317.205857
  0
ARC
  5
222
330
18
100
AcDbEntity
  8
0
100
AcDbCircle
 10
6.729458999999999
 20
5.170416
 30
0.0
 40
0.180578
100
AcDbArc
 50
261.271473
 51
270.0
  0
ARC
  5
223
330
18
100
AcDbEntity
  8
0
100
AcDbCircle
 10
6.717569999999999
 20
5.092981
 30
0.0
 40
0.102235
100
AcDbArc
 50
249.66243
 51
261.271473
  0
ARC
  5
224
330
18
100
AcDbEntity
  8
0
100
AcDbCircle
 10
6.729458999999999
 20
5.170416
 30
0.0
 40
0.180578
100
AcDbArc
 50
270.0
 51
278.728527
  0
ARC
  5
225
330
18
100
AcDbEntity
  8
0
100
AcDbCircle
 10
6.741348
 20
5.092981
 30
0.0
 40
0.102235
100
AcDbArc
 50
278.728527
 51
290.33757
  0
LINE
  5
226
330
18
100
AcDbEntity
  8
0
100
AcDbLine
 10
6.696704
 20
5.105443
 30
0.0
 11
6.680950999999999
 21
5.110762
 31
0.0
  0
LINE
  5
227
330
18
100
AcDbEntity
  8
0
100
AcDbLine
 10
2.904134
 20
6.288561
 30
0.0
 11
2.889589
 21
6.293473000000001
 31
0.0
  0
ARC
  5
228
330
18
100
AcDbEntity
  8
0
100
AcDbCircle
 10
6.303996
 20
5.59631
 30
0.0
 40
0.0025
100
AcDbArc
 50
180.0
 51
0.0
  0
ARC
  5
229
330
18
100
AcDbEntity
  8
0
100
AcDbCircle
 10
6.303996
 20
5.59631
 30
0.0
 40
0.0025
100
AcDbArc
 50
0.0
 51
180.0
  0
LINE
  5
22A
330
18
100
AcDbEntity
  8
0
100
AcDbLine
 10
4.017967
 20
5.400142
 30
0.0
 11
4.193426000000001
 21
5.340861
 31
0.0
  0
LINE
  5
22B
330
18
100
AcDbEntity
  8
0
100
AcDbLine
 10
4.193426000000001
 20
5.340861
 30
0.0
 11
4.193426000000001
 21
5.448645
 31
0.0
  0
ARC
  5
22C
330
18
100
AcDbEntity
  8
0
100
AcDbCircle
 10
4.183545
 20
5.448645
 30
0.0
 40
0.009881
100
AcDbArc
 50
0.0
 51
21.599903
  0
LINE
  5
22D
330
18
100
AcDbEntity
  8
0
100
AcDbLine
 10
4.192732
 20
5.452282
 30
0.0
 11
4.062658
 21
5.780814
 31
0.0
  0
LINE
  5
22E
330
18
100
AcDbEntity
  8
0
100
AcDbLine
 10
4.062658
 20
5.780814
 30
0.0
 11
3.999568
 21
5.842853
 31
0.0
  0
LINE
  5
22F
330
18
100
AcDbEntity
  8
0
100
AcDbLine
 10
3.999568
 20
5.842853
 30
0.0
 11
3.881474
 21
5.774736
 31
0.0
  0
LINE
  5
230
330
18
100
AcDbEntity
  8
0
100
AcDbLine
 10
3.881474
 20
5.774736
 30
0.0
 11
3.87449
 21
5.717675
 31
0.0
  0
LINE
  5
231
330
18
100
AcDbEntity
  8
0
100
AcDbLine
 10
3.87449
 20
5.717675
 30
0.0
 11
3.937605000000001
 21
5.590569
 31
0.0
  0
LINE
  5
232
330
18
100
AcDbEntity
  8
0
100
AcDbLine
 10
3.937605000000001
 20
5.590569
 30
0.0
 11
3.992456
 21
5.595141
 31
0.0
  0
LINE
  5
233
330
18
100
AcDbEntity
  8
0
100
AcDbLine
 10
3.992456
 20
5.595141
 30
0.0
 11
3.992456
 21
5.465464
 31
0.0
  0
LINE
  5
234
330
18
100
AcDbEntity
  8
0
100
AcDbLine
 10
3.992456
 20
5.465464
 30
0.0
 11
4.017967
 21
5.400142
 31
0.0
  0
LINE
  5
235
330
18
100
AcDbEntity
  8
0
100
AcDbLine
 10
1.948757263522617
 20
3.607534307697027
 30
0.0
 11
1.945682263522617
 21
3.788719307697027
 31
0.0
  0
LINE
  5
236
330
18
100
AcDbEntity
  8
0
100
AcDbLine
 10
1.945682263522617
 20
3.788719307697027
 30
0.0
 11
1.948658263522617
 21
3.856790307697027
 31
0.0
  0
LINE
  5
237
330
18
100
AcDbEntity
  8
0
100
AcDbLine
 10
1.948658263522617
 20
3.856790307697027
 30
0.0
 11
1.927617263522617
 21
3.904831307697026
 31
0.0
  0
LINE
  5
238
330
18
100
AcDbEntity
  8
0
100
AcDbLine
 10
1.927617263522617
 20
3.904831307697026
 30
0.0
 11
1.942621263522617
 21
3.932866307697027
 31
0.0
  0
LINE
  5
239
330
18
100
AcDbEntity
  8
0
100
AcDbLine
 10
1.942621263522617
 20
3.932866307697027
 30
0.0
 11
1.980631263522617
 21
4.005956307697026
 31
0.0
  0
LINE
  5
23A
330
18
100
AcDbEntity
  8
0
100
AcDbLine
 10
1.980631263522617
 20
4.005956307697026
 30
0.0
 11
1.986614263522617
 21
4.066020307697027
 31
0.0
  0
LINE
  5
23B
330
18
100
AcDbEntity
  8
0
100
AcDbLine
 10
1.986614263522617
 20
4.066020307697027
 30
0.0
 11
1.952539263522617
 21
4.167110307697026
 31
0.0
  0
LINE
  5
23C
330
18
100
AcDbEntity
  8
0
100
AcDbLine
 10
1.952539263522617
 20
4.167110307697026
 30
0.0
 11
1.973534263522617
 21
4.234187307697027
 31
0.0
  0
LINE
  5
23D
330
18
100
AcDbEntity
  8
0
100
AcDbLine
 10
1.973534263522617
 20
4.234187307697027
 30
0.0
 11
1.953450263522617
 21
4.392342307697026
 31
0.0
  0
LINE
  5
23E
330
18
100
AcDbEntity
  8
0
100
AcDbLine
 10
1.953450263522617
 20
4.392342307697026
 30
0.0
 11
1.931401263522617
 21
4.458401307697027
 31
0.0
  0
LINE
  5
23F
330
18
100
AcDbEntity
  8
0
100
AcDbLine
 10
1.931401263522617
 20
4.458401307697027
 30
0.0
 11
1.930393263522617
 21
4.477420307697026
 31
0.0
  0
LINE
  5
240
330
18
100
AcDbEntity
  8
0
100
AcDbLine
 10
1.930393263522617
 20
4.477420307697026
 30
0.0
 11
1.902346263522617
 21
4.523456307697026
 31
0.0
  0
LINE
  5
241
330
18
100
AcDbEntity
  8
0
100
AcDbLine
 10
1.902346263522617
 20
4.523456307697026
 30
0.0
 11
1.898314263522617
 21
4.593526307697028
 31
0.0
  0
LINE
  5
242
330
18
100
AcDbEntity
  8
0
100
AcDbLine
 10
1.898314263522617
 20
4.593526307697028
 30
0.0
 11
1.938317263522617
 21
4.689641307697027
 31
0.0
  0
LINE
  5
243
330
18
100
AcDbEntity
  8
0
100
AcDbLine
 10
1.938317263522617
 20
4.689641307697027
 30
0.0
 11
1.951298263522617
 21
4.769728307697026
 31
0.0
  0
LINE
  5
244
330
18
100
AcDbEntity
  8
0
100
AcDbLine
 10
1.951298263522617
 20
4.769728307697026
 30
0.0
 11
1.953275263522617
 21
4.832794307697027
 31
0.0
  0
LINE
  5
245
330
18
100
AcDbEntity
  8
0
100
AcDbLine
 10
1.953275263522617
 20
4.832794307697027
 30
0.0
 11
1.935238263522617
 21
4.880836307697027
 31
0.0
  0
LINE
  5
246
330
18
100
AcDbEntity
  8
0
100
AcDbLine
 10
1.935238263522617
 20
4.880836307697027
 30
0.0
 11
1.926217263522617
 21
4.908861307697027
 31
0.0
  0
LINE
  5
247
330
18
100
AcDbEntity
  8
0
100
AcDbLine
 10
1.926217263522617
 20
4.908861307697027
 30
0.0
 11
1.924192263522617
 21
4.966920307697027
 31
0.0
  0
LINE
  5
248
330
18
100
AcDbEntity
  8
0
100
AcDbLine
 10
2.664148
 20
4.666798
 30
0.0
 11
2.664671
 21
4.649098
 31
0.0
  0
LINE
  5
249
330
18
100
AcDbEntity
  8
0
100
AcDbLine
 10
2.664671
 20
4.649098
 30
0.0
 11
2.670714
 21
4.558007
 31
0.0
  0
LINE
  5
24A
330
18
100
AcDbEntity
  8
0
100
AcDbLine
 10
2.670714
 20
4.558007
 30
0.0
 11
2.681753
 21
4.486937999999999
 31
0.0
  0
LINE
  5
24B
330
18
100
AcDbEntity
  8
0
100
AcDbLine
 10
2.681753
 20
4.486937999999999
 30
0.0
 11
2.694834
 21
4.317769999999999
 31
0.0
  0
LINE
  5
24C
330
18
100
AcDbEntity
  8
0
100
AcDbLine
 10
2.694834
 20
4.317769999999999
 30
0.0
 11
2.711905
 21
4.181637
 31
0.0
  0
LINE
  5
24D
330
18
100
AcDbEntity
  8
0
100
AcDbLine
 10
2.711905
 20
4.181637
 30
0.0
 11
2.723961
 21
4.071528
 31
0.0
  0
LINE
  5
24E
330
18
100
AcDbEntity
  8
0
100
AcDbLine
 10
2.723961
 20
4.071528
 30
0.0
 11
2.702945
 21
4.057506
 31
0.0
  0
LINE
  5
24F
330
18
100
AcDbEntity
  8
0
100
AcDbLine
 10
2.702945
 20
4.057506
 30
0.0
 11
2.718745
 21
3.964151
 31
0.0
  0
LINE
  5
250
330
18
100
AcDbEntity
  8
0
100
AcDbLine
 10
2.709406
 20
4.648837
 30
0.0
 11
2.739843
 21
4.411884
 31
0.0
  0
LINE
  5
251
330
18
100
AcDbEntity
  8
0
100
AcDbLine
 10
2.739843
 20
4.411884
 30
0.0
 11
2.750901
 21
4.293767
 31
0.0
  0
LINE
  5
252
330
18
100
AcDbEntity
  8
0
100
AcDbLine
 10
2.750901
 20
4.293767
 30
0.0
 11
2.766967
 21
4.168645
 31
0.0
  0
LINE
  5
253
330
18
100
AcDbEntity
  8
0
100
AcDbLine
 10
2.766967
 20
4.168645
 30
0.0
 11
2.774042
 21
4.104661
 31
0.0
  0
LINE
  5
254
330
18
100
AcDbEntity
  8
0
100
AcDbLine
 10
2.616351
 20
4.686914
 30
0.0
 11
2.628692
 21
4.504935
 31
0.0
  0
LINE
  5
255
330
18
100
AcDbEntity
  8
0
100
AcDbLine
 10
2.628692
 20
4.504935
 30
0.0
 11
2.64978
 21
4.336771
 31
0.0
  0
LINE
  5
256
330
18
100
AcDbEntity
  8
0
100
AcDbLine
 10
2.64978
 20
4.336771
 30
0.0
 11
2.659846
 21
4.197632
 31
0.0
  0
LINE
  5
257
330
18
100
AcDbEntity
  8
0
100
AcDbLine
 10
2.659846
 20
4.197632
 30
0.0
 11
2.670869
 21
4.166605000000001
 31
0.0
  0
LINE
  5
258
330
18
100
AcDbEntity
  8
0
100
AcDbLine
 10
2.670869
 20
4.166605000000001
 30
0.0
 11
2.650866
 21
4.123553
 31
0.0
  0
LINE
  5
259
330
18
100
AcDbEntity
  8
0
100
AcDbLine
 10
2.650866
 20
4.123553
 30
0.0
 11
2.677505
 21
3.980779
 31
0.0
  0
LINE
  5
25A
330
18
100
AcDbEntity
  8
0
100
AcDbLine
 10
2.632525
 20
3.998916
 30
0.0
 11
2.626875
 21
4.037455000000001
 31
0.0
  0
LINE
  5
25B
330
18
100
AcDbEntity
  8
0
100
AcDbLine
 10
2.626875
 20
4.037455000000001
 30
0.0
 11
2.620853
 21
4.077494000000001
 31
0.0
  0
LINE
  5
25C
330
18
100
AcDbEntity
  8
0
100
AcDbLine
 10
2.620853
 20
4.077494000000001
 30
0.0
 11
2.602845
 21
4.152396
 31
0.0
  0
LINE
  5
25D
330
18
100
AcDbEntity
  8
0
100
AcDbLine
 10
2.774042
 20
4.04222
 30
0.0
 11
2.749013
 21
4.007472
 31
0.0
  0
LINE
  5
25E
330
18
100
AcDbEntity
  8
0
100
AcDbLine
 10
2.749013
 20
4.007472
 30
0.0
 11
2.770809
 21
3.943157
 31
0.0
  0
LINE
  5
25F
330
18
100
AcDbEntity
  8
0
100
AcDbLine
 10
2.752017
 20
4.631926
 30
0.0
 11
2.756783
 21
4.607091000000001
 31
0.0
  0
LINE
  5
260
330
18
100
AcDbEntity
  8
0
100
AcDbLine
 10
2.756783
 20
4.607091000000001
 30
0.0
 11
2.767835
 21
4.50399
 31
0.0
  0
LINE
  5
261
330
18
100
AcDbEntity
  8
0
100
AcDbLine
 10
2.767835
 20
4.50399
 30
0.0
 11
2.76986
 21
4.445931
 31
0.0
  0
LINE
  5
262
330
18
100
AcDbEntity
  8
0
100
AcDbLine
 10
2.76986
 20
4.445931
 30
0.0
 11
2.774042
 21
4.431787
 31
0.0
  0
LINE
  5
263
330
18
100
AcDbEntity
  8
0
100
AcDbLine
 10
5.049443
 20
2.232746
 30
0.0
 11
5.055085
 21
2.231564
 31
0.0
  0
LINE
  5
264
330
18
100
AcDbEntity
  8
0
100
AcDbLine
 10
5.055085
 20
2.231564
 30
0.0
 11
5.225262
 21
2.224624
 31
0.0
  0
LINE
  5
265
330
18
100
AcDbEntity
  8
0
100
AcDbLine
 10
5.225262
 20
2.224624
 30
0.0
 11
5.247276
 21
2.245655
 31
0.0
  0
LINE
  5
266
330
18
100
AcDbEntity
  8
0
100
AcDbLine
 10
5.247276
 20
2.245655
 30
0.0
 11
5.30234
 21
2.228659
 31
0.0
  0
LINE
  5
267
330
18
100
AcDbEntity
  8
0
100
AcDbLine
 10
5.30234
 20
2.228659
 30
0.0
 11
5.365404
 21
2.230686
 31
0.0
  0
LINE
  5
268
330
18
100
AcDbEntity
  8
0
100
AcDbLine
 10
5.365404
 20
2.230686
 30
0.0
 11
5.429449
 21
2.282765
 31
0.0
  0
LINE
  5
269
330
18
100
AcDbEntity
  8
0
100
AcDbLine
 10
5.429449
 20
2.282765
 30
0.0
 11
5.475488
 21
2.302804
 31
0.0
  0
LINE
  5
26A
330
18
100
AcDbEntity
  8
0
100
AcDbLine
 10
5.475488
 20
2.302804
 30
0.0
 11
5.526545
 21
2.291813
 31
0.0
  0
LINE
  5
26B
330
18
100
AcDbEntity
  8
0
100
AcDbLine
 10
5.526545
 20
2.291813
 30
0.0
 11
5.61263
 21
2.298854
 31
0.0
  0
LINE
  5
26C
330
18
100
AcDbEntity
  8
0
100
AcDbLine
 10
5.61263
 20
2.298854
 30
0.0
 11
5.749775
 21
2.288898
 31
0.0
  0
LINE
  5
26D
330
18
100
AcDbEntity
  8
0
100
AcDbLine
 10
5.749775
 20
2.288898
 30
0.0
 11
5.810839
 21
2.286921
 31
0.0
  0
LINE
  5
26E
330
18
100
AcDbEntity
  8
0
100
AcDbLine
 10
5.810839
 20
2.286921
 30
0.0
 11
5.817825
 21
2.339978
 31
0.0
  0
LINE
  5
26F
330
18
100
AcDbEntity
  8
0
100
AcDbLine
 10
5.817825
 20
2.339978
 30
0.0
 11
5.851853
 21
2.356008
 31
0.0
  0
LINE
  5
270
330
18
100
AcDbEntity
  8
0
100
AcDbLine
 10
5.851853
 20
2.356008
 30
0.0
 11
5.896906
 21
2.340009
 31
0.0
  0
LINE
  5
271
330
18
100
AcDbEntity
  8
0
100
AcDbLine
 10
5.896906
 20
2.340009
 30
0.0
 11
5.962967
 21
2.356052
 31
0.0
  0
LINE
  5
272
330
18
100
AcDbEntity
  8
0
100
AcDbLine
 10
5.962967
 20
2.356052
 30
0.0
 11
6.013018
 21
2.357073
 31
0.0
  0
LINE
  5
273
330
18
100
AcDbEntity
  8
0
100
AcDbLine
 10
6.013018
 20
2.357073
 30
0.0
 11
6.092105999999999
 21
2.340087
 31
0.0
  0
LINE
  5
274
330
18
100
AcDbEntity
  8
0
100
AcDbLine
 10
6.092105999999999
 20
2.340087
 30
0.0
 11
6.190201
 21
2.356142
 31
0.0
  0
LINE
  5
275
330
18
100
AcDbEntity
  8
0
100
AcDbLine
 10
6.190201
 20
2.356142
 30
0.0
 11
6.260261
 21
2.386201
 31
0.0
  0
LINE
  5
276
330
18
100
AcDbEntity
  8
0
100
AcDbLine
 10
6.260261
 20
2.386201
 30
0.0
 11
6.319313
 21
2.407246
 31
0.0
  0
LINE
  5
277
330
18
100
AcDbEntity
  8
0
100
AcDbLine
 10
6.319313
 20
2.407246
 30
0.0
 11
6.457482
 21
2.337229
 31
0.0
  0
LINE
  5
278
330
18
100
AcDbEntity
  8
0
100
AcDbLine
 10
6.457482
 20
2.337229
 30
0.0
 11
6.503525
 21
2.349259
 31
0.0
  0
LINE
  5
279
330
18
100
AcDbEntity
  8
0
100
AcDbLine
 10
6.503525
 20
2.349259
 30
0.0
 11
6.520529
 21
2.383301
 31
0.0
  0
LINE
  5
27A
330
18
100
AcDbEntity
  8
0
100
AcDbLine
 10
6.520529
 20
2.383301
 30
0.0
 11
6.577584
 21
2.391332
 31
0.0
  0
LINE
  5
27B
330
18
100
AcDbEntity
  8
0
100
AcDbLine
 10
6.577584
 20
2.391332
 30
0.0
 11
6.595594999999999
 21
2.410359
 31
0.0
  0
LINE
  5
27C
330
18
100
AcDbEntity
  8
0
100
AcDbLine
 10
6.595594999999999
 20
2.410359
 30
0.0
 11
6.651654
 21
2.406377
 31
0.0
  0
LINE
  5
27D
330
18
100
AcDbEntity
  8
0
100
AcDbLine
 10
6.651654
 20
2.406377
 30
0.0
 11
6.679685000000001
 21
2.402384
 31
0.0
  0
LINE
  5
27E
330
18
100
AcDbEntity
  8
0
100
AcDbLine
 10
6.679685000000001
 20
2.402384
 30
0.0
 11
6.690677
 21
2.449436
 31
0.0
  0
LINE
  5
27F
330
18
100
AcDbEntity
  8
0
100
AcDbLine
 10
6.690677
 20
2.449436
 30
0.0
 11
6.729716000000001
 21
2.453456
 31
0.0
  0
LINE
  5
280
330
18
100
AcDbEntity
  8
0
100
AcDbLine
 10
6.729716000000001
 20
2.453456
 30
0.0
 11
6.75275
 21
2.426437
 31
0.0
  0
LINE
  5
281
330
18
100
AcDbEntity
  8
0
100
AcDbLine
 10
6.75275
 20
2.426437
 30
0.0
 11
6.845824
 21
2.482532
 31
0.0
  0
LINE
  5
282
330
18
100
AcDbEntity
  8
0
100
AcDbLine
 10
6.845824
 20
2.482532
 30
0.0
 11
6.867827
 21
2.531591
 31
0.0
  0
LINE
  5
283
330
18
100
AcDbEntity
  8
0
100
AcDbLine
 10
6.867827
 20
2.531591
 30
0.0
 11
6.952906
 21
2.552646
 31
0.0
  0
LINE
  5
284
330
18
100
AcDbEntity
  8
0
100
AcDbLine
 10
6.952906
 20
2.552646
 30
0.0
 11
7.020950999999999
 21
2.615738
 31
0.0
  0
LINE
  5
285
330
18
100
AcDbEntity
  8
0
100
AcDbLine
 10
7.020950999999999
 20
2.615738
 30
0.0
 11
7.062980000000001
 21
2.650791
 31
0.0
  0
LINE
  5
286
330
18
100
AcDbEntity
  8
0
100
AcDbLine
 10
7.062980000000001
 20
2.650791
 30
0.0
 11
7.090008
 21
2.6488
 31
0.0
  0
LINE
  5
287
330
18
100
AcDbEntity
  8
0
100
AcDbLine
 10
7.090008
 20
2.6488
 30
0.0
 11
7.140066
 21
2.631802
 31
0.0
  0
LINE
  5
288
330
18
100
AcDbEntity
  8
0
100
AcDbLine
 10
7.140066
 20
2.631802
 30
0.0
 11
7.182107000000001
 21
2.637825
 31
0.0
  0
LINE
  5
289
330
18
100
AcDbEntity
  8
0
100
AcDbLine
 10
7.182107000000001
 20
2.637825
 30
0.0
 11
7.199109
 21
2.676872
 31
0.0
  0
LINE
  5
28A
330
18
100
AcDbEntity
  8
0
100
AcDbLine
 10
7.199109
 20
2.676872
 30
0.0
 11
7.264167
 21
2.69892
 31
0.0
  0
LINE
  5
28B
330
18
100
AcDbEntity
  8
0
100
AcDbLine
 10
7.264167
 20
2.69892
 30
0.0
 11
7.308192
 21
2.74999
 31
0.0
  0
LINE
  5
28C
330
18
100
AcDbEntity
  8
0
100
AcDbLine
 10
7.308192
 20
2.74999
 30
0.0
 11
7.443344000000001
 21
2.71701
 31
0.0
  0
LINE
  5
28D
330
18
100
AcDbEntity
  8
0
100
AcDbLine
 10
7.443344000000001
 20
2.71701
 30
0.0
 11
7.474359
 21
2.760066
 31
0.0
  0
LINE
  5
28E
330
18
100
AcDbEntity
  8
0
100
AcDbLine
 10
7.474359
 20
2.760066
 30
0.0
 11
7.528415
 21
2.758086
 31
0.0
  0
LINE
  5
28F
330
18
100
AcDbEntity
  8
0
100
AcDbLine
 10
7.528415
 20
2.758086
 30
0.0
 11
7.588475
 21
2.762114
 31
0.0
  0
LINE
  5
290
330
18
100
AcDbEntity
  8
0
100
AcDbLine
 10
7.588475
 20
2.762114
 30
0.0
 11
7.619489
 21
2.807172
 31
0.0
  0
LINE
  5
291
330
18
100
AcDbEntity
  8
0
100
AcDbLine
 10
7.619489
 20
2.807172
 30
0.0
 11
7.687563000000001
 21
2.79819
 31
0.0
  0
LINE
  5
292
330
18
100
AcDbEntity
  8
0
100
AcDbLine
 10
7.687563000000001
 20
2.79819
 30
0.0
 11
7.750617
 21
2.824242
 31
0.0
  0
LINE
  5
293
330
18
100
AcDbEntity
  8
0
100
AcDbLine
 10
7.750617
 20
2.824242
 30
0.0
 11
7.802155
 21
2.851393
 31
0.0
  0
ARC
  5
294
330
18
100
AcDbEntity
  8
0
100
AcDbCircle
 10
5.349032
 20
3.101365
 30
0.0
 40
0.674438
100
AcDbArc
 50
155.683468
 51
157.579432
  0
ARC
  5
295
330
18
100
AcDbEntity
  8
0
100
AcDbCircle
 10
4.677361
 20
3.404869
 30
0.0
 40
0.062622
100
AcDbArc
 50
335.683468
 51
351.519325
  0
ARC
  5
296
330
18
100
AcDbEntity
  8
0
100
AcDbCircle
 10
4.357849
 20
3.45251
 30
0.0
 40
0.385667
100
AcDbArc
 50
351.519325
 51
358.242398
  0
ARC
  5
297
330
18
100
AcDbEntity
  8
0
100
AcDbCircle
 10
5.782031
 20
3.408808
 30
0.0
 40
1.039186
100
AcDbArc
 50
174.148185
 51
178.242398
  0
ARC
  5
298
330
18
100
AcDbEntity
  8
0
100
AcDbCircle
 10
9.651621
 20
3.012214
 30
0.0
 40
4.929047
100
AcDbArc
 50
172.879739
 51
174.148185
  0
ARC
  5
299
330
18
100
AcDbEntity
  8
0
100
AcDbCircle
 10
2.679411
 20
3.883153
 30
0.0
 40
2.097351
100
AcDbArc
 50
352.879739
 51
354.824337
  0
ARC
  5
29A
330
18
100
AcDbEntity
  8
0
100
AcDbCircle
 10
3.923434
 20
3.77047
 30
0.0
 40
0.8482350000000001
100
AcDbArc
 50
354.824337
 51
0.116731
  0
ARC
  5
29B
330
18
100
AcDbEntity
  8
0
100
AcDbCircle
 10
5.252993
 20
3.773179
 30
0.0
 40
0.4813270000000001
100
AcDbArc
 50
173.089119
 51
180.116731
  0
ARC
  5
29C
330
18
100
AcDbEntity
  8
0
100
AcDbCircle
 10
5.007025
 20
3.802992
 30
0.0
 40
0.233559
100
AcDbArc
 50
171.892648
 51
173.089119
  0
ARC
  5
29D
330
18
100
AcDbEntity
  8
0
100
AcDbCircle
 10
104.522883
 20
-10.37324
 30
0.0
 40
100.754062
100
AcDbArc
 50
171.881424
 51
171.892648
  0
ARC
  5
29E
330
18
100
AcDbEntity
  8
0
100
AcDbCircle
 10
5.522085
 20
2.993917
 30
0.0
 40
0.777989
100
AcDbArc
 50
168.999295
 51
173.599766
  0
ARC
  5
29F
330
18
100
AcDbEntity
  8
0
100
AcDbCircle
 10
5.211795
 20
3.054236
 30
0.0
 40
0.461891
100
AcDbArc
 50
160.494947
 51
168.999295
  0
ARC
  5
2A0
330
18
100
AcDbEntity
  8
0
100
AcDbCircle
 10
5.412144000000001
 20
2.983268
 30
0.0
 40
0.674438
100
AcDbArc
 50
155.683468
 51
160.494947
  0
ARC
  5
2A1
330
18
100
AcDbEntity
  8
0
100
AcDbCircle
 10
4.740473000000001
 20
3.286773
 30
0.0
 40
0.062622
100
AcDbArc
 50
335.683468
 51
351.519325
  0
ARC
  5
2A2
330
18
100
AcDbEntity
  8
0
100
AcDbCircle
 10
4.420961
 20
3.334414
 30
0.0
 40
0.385667
100
AcDbArc
 50
351.519325
 51
358.242398
  0
ARC
  5
2A3
330
18
100
AcDbEntity
  8
0
100
AcDbCircle
 10
5.845143
 20
3.290712
 30
0.0
 40
1.039186
100
AcDbArc
 50
174.148185
 51
178.242398
  0
ARC
  5
2A4
330
18
100
AcDbEntity
  8
0
100
AcDbCircle
 10
9.714733000000001
 20
2.894118
 30
0.0
 40
4.929047
100
AcDbArc
 50
172.879739
 51
174.148185
  0
ARC
  5
2A5
330
18
100
AcDbEntity
  8
0
100
AcDbCircle
 10
2.742522
 20
3.765056
 30
0.0
 40
2.097351
100
AcDbArc
 50
352.879739
 51
354.824337
  0
ARC
  5
2A6
330
18
100
AcDbEntity
  8
0
100
AcDbCircle
 10
3.986545
 20
3.652374
 30
0.0
 40
0.8482350000000001
100
AcDbArc
 50
354.824337
 51
0.116731
  0
ARC
  5
2A7
330
18
100
AcDbEntity
  8
0
100
AcDbCircle
 10
5.316105
 20
3.655083
 30
0.0
 40
0.4813270000000001
100
AcDbArc
 50
173.089119
 51
180.116731
  0
ARC
  5
2A8
330
18
100
AcDbEntity
  8
0
100
AcDbCircle
 10
5.070137
 20
3.684896
 30
0.0
 40
0.233559
100
AcDbArc
 50
171.892648
 51
173.089119
  0
ARC
  5
2A9
330
18
100
AcDbEntity
  8
0
100
AcDbCircle
 10
104.585994
 20
-10.491336
 30
0.0
 40
100.754062
100
AcDbArc
 50
171.835043
 51
171.892648
  0
ARC
  5
2AA
330
18
100
AcDbEntity
  8
0
100
AcDbCircle
 10
8.750419000000001
 20
3.258955
 30
0.0
 40
3.93708
100
AcDbArc
 50
171.794203
 51
171.835043
  0
ARC
  5
2AB
330
18
100
AcDbEntity
  8
0
100
AcDbCircle
 10
5.456267
 20
2.808705
 30
0.0
 40
0.723503
100
AcDbArc
 50
156.82416
 51
159.146152
  0
ARC
  5
2AC
330
18
100
AcDbEntity
  8
0
100
AcDbCircle
 10
5.114022
 20
2.95522
 30
0.0
 40
0.351215
100
AcDbArc
 50
147.600894
 51
156.82416
  0
ARC
  5
2AD
330
18
100
AcDbEntity
  8
0
100
AcDbCircle
 10
13.361174
 20
-2.278401
 30
0.0
 40
10.11883
100
AcDbArc
 50
147.287524
 51
147.600894
  0
ARC
  5
2AE
330
18
100
AcDbEntity
  8
0
100
AcDbCircle
 10
5.202192
 20
2.962081
 30
0.0
 40
0.421838
100
AcDbArc
 50
145.752692
 51
147.287524
  0
ARC
  5
2AF
330
18
100
AcDbEntity
  8
0
100
AcDbCircle
 10
5.289153
 20
2.902878
 30
0.0
 40
0.52704
100
AcDbArc
 50
142.176528
 51
145.752692
  0
ARC
  5
2B0
330
18
100
AcDbEntity
  8
0
100
AcDbCircle
 10
2.660217
 20
4.943815
 30
0.0
 40
2.801133
100
AcDbArc
 50
322.176528
 51
322.594509
  0
ARC
  5
2B1
330
18
100
AcDbEntity
  8
0
100
AcDbCircle
 10
4.613256
 20
3.103249
 30
0.0
 40
0.23238
100
AcDbArc
 50
344.237299
 51
353.993918
  0
ARC
  5
2B2
330
18
100
AcDbEntity
  8
0
100
AcDbCircle
 10
4.896369
 20
3.073462
 30
0.0
 40
0.052295
100
AcDbArc
 50
149.026718
 51
173.993918
  0
ARC
  5
2B3
330
18
100
AcDbEntity
  8
0
100
AcDbCircle
 10
4.887522
 20
3.078772
 30
0.0
 40
0.041977
100
AcDbArc
 50
113.492345
 51
149.026718
  0
ARC
  5
2B4
330
18
100
AcDbEntity
  8
0
100
AcDbCircle
 10
4.842149
 20
3.183163
 30
0.0
 40
0.071848
100
AcDbArc
 50
293.492345
 51
306.926831
  0
ARC
  5
2B5
330
18
100
AcDbEntity
  8
0
100
AcDbCircle
 10
4.125282
 20
5.499637
 30
0.0
 40
0.009575
100
AcDbArc
 50
113.503032
 51
142.58068
  0
ARC
  5
2B6
330
18
100
AcDbEntity
  8
0
100
AcDbCircle
 10
4.128548
 20
5.497139
 30
0.0
 40
0.013687
100
AcDbArc
 50
142.58068
 51
166.821396
  0
ARC
  5
2B7
330
18
100
AcDbEntity
  8
0
100
AcDbCircle
 10
4.13237
 20
5.496244
 30
0.0
 40
0.017612
100
AcDbArc
 50
166.821396
 51
186.356007
  0
ARC
  5
2B8
330
18
100
AcDbEntity
  8
0
100
AcDbCircle
 10
4.137533
 20
5.496819
 30
0.0
 40
0.022808
100
AcDbArc
 50
186.356007
 51
203.503032
  0
ARC
  5
2B9
330
18
100
AcDbEntity
  8
0
100
AcDbCircle
 10
4.137533
 20
5.496819
 30
0.0
 40
0.022808
100
AcDbArc
 50
203.503032
 51
220.650057
  0
ARC
  5
2BA
330
18
100
AcDbEntity
  8
0
100
AcDbCircle
 10
4.133592
 20
5.493434
 30
0.0
 40
0.017612
100
AcDbArc
 50
220.650057
 51
240.184669
  0
ARC
  5
2BB
330
18
100
AcDbEntity
  8
0
100
AcDbCircle
 10
4.13164
 20
5.490028
 30
0.0
 40
0.013687
100
AcDbArc
 50
240.184669
 51
264.425384
  0
ARC
  5
2BC
330
18
100
AcDbEntity
  8
0
100
AcDbCircle
 10
4.13124
 20
5.485936
 30
0.0
 40
0.009575
100
AcDbArc
 50
264.425384
 51
293.503032
  0
ARC
  5
2BD
330
18
100
AcDbEntity
  8
0
100
AcDbCircle
 10
4.13124
 20
5.485936
 30
0.0
 40
0.009575
100
AcDbArc
 50
293.503032
 51
322.58068
  0
ARC
  5
2BE
330
18
100
AcDbEntity
  8
0
100
AcDbCircle
 10
4.127974
 20
5.488434
 30
0.0
 40
0.013687
100
AcDbArc
 50
322.58068
 51
346.821396
  0
ARC
  5
2BF
330
18
100
AcDbEntity
  8
0
100
AcDbCircle
 10
4.124152
 20
5.489329
 30
0.0
 40
0.017612
100
AcDbArc
 50
346.821396
 51
6.356007
  0
ARC
  5
2C0
330
18
100
AcDbEntity
  8
0
100
AcDbCircle
 10
4.118989
 20
5.488754
 30
0.0
 40
0.022808
100
AcDbArc
 50
6.356007
 51
23.503032
  0
ARC
  5
2C1
330
18
100
AcDbEntity
  8
0
100
AcDbCircle
 10
4.118989
 20
5.488754
 30
0.0
 40
0.022808
100
AcDbArc
 50
23.503032
 51
40.650057
  0
ARC
  5
2C2
330
18
100
AcDbEntity
  8
0
100
AcDbCircle
 10
4.12293
 20
5.492139
 30
0.0
 40
0.017612
100
AcDbArc
 50
40.650057
 51
60.184669
  0
ARC
  5
2C3
330
18
100
AcDbEntity
  8
0
100
AcDbCircle
 10
4.124882
 20
5.495545
 30
0.0
 40
0.013687
100
AcDbArc
 50
60.184669
 51
84.42538399999999
  0
ARC
  5
2C4
330
18
100
AcDbEntity
  8
0
100
AcDbCircle
 10
4.125282
 20
5.499637
 30
0.0
 40
0.009575
100
AcDbArc
 50
84.42538399999999
 51
113.503032
  0
ARC
  5
2C5
330
18
100
AcDbEntity
  8
0
100
AcDbCircle
 10
4.045411
 20
5.523422
 30
0.0
 40
0.009575
100
AcDbArc
 50
113.503032
 51
142.58068
  0
ARC
  5
2C6
330
18
100
AcDbEntity
  8
0
100
AcDbCircle
 10
4.048676
 20
5.520923000000001
 30
0.0
 40
0.013687
100
AcDbArc
 50
142.58068
 51
166.821396
  0
ARC
  5
2C7
330
18
100
AcDbEntity
  8
0
100
AcDbCircle
 10
4.052499
 20
5.520028
 30
0.0
 40
0.017612
100
AcDbArc
 50
166.821396
 51
186.356007
  0
ARC
  5
2C8
330
18
100
AcDbEntity
  8
0
100
AcDbCircle
 10
4.057662000000001
 20
5.520603
 30
0.0
 40
0.022808
100
AcDbArc
 50
186.356007
 51
203.503032
  0
ARC
  5
2C9
330
18
100
AcDbEntity
  8
0
100
AcDbCircle
 10
4.057662000000001
 20
5.520603
 30
0.0
 40
0.022808
100
AcDbArc
 50
203.503032
 51
220.650057
  0
ARC
  5
2CA
330
18
100
AcDbEntity
  8
0
100
AcDbCircle
 10
4.053719999999999
 20
5.517219
 30
0.0
 40
0.017612
100
AcDbArc
 50
220.650057
 51
240.184669
  0
ARC
  5
2CB
330
18
100
AcDbEntity
  8
0
100
AcDbCircle
 10
4.051768
 20
5.513813
 30
0.0
 40
0.013687
100
AcDbArc
 50
240.184669
 51
264.425384
  0
ARC
  5
2CC
330
18
100
AcDbEntity
  8
0
100
AcDbCircle
 10
4.051369
 20
5.50972
 30
0.0
 40
0.009575
100
AcDbArc
 50
264.425384
 51
293.503032
  0
ARC
  5
2CD
330
18
100
AcDbEntity
  8
0
100
AcDbCircle
 10
4.051369
 20
5.50972
 30
0.0
 40
0.009575
100
AcDbArc
 50
293.503032
 51
322.58068
  0
ARC
  5
2CE
330
18
100
AcDbEntity
  8
0
100
AcDbCircle
 10
4.048103
 20
5.512219
 30
0.0
 40
0.013687
100
AcDbArc
 50
322.58068
 51
346.821396
  0
ARC
  5
2CF
330
18
100
AcDbEntity
  8
0
100
AcDbCircle
 10
4.044281
 20
5.513114
 30
0.0
 40
0.017612
100
AcDbArc
 50
346.821396
 51
6.356007
  0
ARC
  5
2D0
330
18
100
AcDbEntity
  8
0
100
AcDbCircle
 10
4.039117
 20
5.512539
 30
0.0
 40
0.022808
100
AcDbArc
 50
6.356007
 51
23.503032
  0
ARC
  5
2D1
330
18
100
AcDbEntity
  8
0
100
AcDbCircle
 10
4.039117
 20
5.512539
 30
0.0
 40
0.022808
100
AcDbArc
 50
23.503032
 51
40.650057
  0
ARC
  5
2D2
330
18
100
AcDbEntity
  8
0
100
AcDbCircle
 10
4.043059
 20
5.515923
 30
0.0
 40
0.017612
100
AcDbArc
 50
40.650057
 51
60.184669
  0
ARC
  5
2D3
330
18
100
AcDbEntity
  8
0
100
AcDbCircle
 10
4.045011
 20
5.519329
 30
0.0
 40
0.013687
100
AcDbArc
 50
60.184669
 51
84.42538399999999
  0
ARC
  5
2D4
330
18
100
AcDbEntity
  8
0
100
AcDbCircle
 10
4.045411
 20
5.523422
 30
0.0
 40
0.009575
100
AcDbArc
 50
84.42538399999999
 51
113.503032
  0
ARC
  5
2D5
330
18
100
AcDbEntity
  8
0
100
AcDbCircle
 10
4.062405
 20
5.441881
 30
0.0
 40
0.009575
100
AcDbArc
 50
113.503032
 51
142.58068
  0
ARC
  5
2D6
330
18
100
AcDbEntity
  8
0
100
AcDbCircle
 10
4.06567
 20
5.439382
 30
0.0
 40
0.013687
100
AcDbArc
 50
142.58068
 51
166.821396
  0
ARC
  5
2D7
330
18
100
AcDbEntity
  8
0
100
AcDbCircle
 10
4.069493000000001
 20
5.438487
 30
0.0
 40
0.017612
100
AcDbArc
 50
166.821396
 51
186.356007
  0
ARC
  5
2D8
330
18
100
AcDbEntity
  8
0
100
AcDbCircle
 10
4.074656
 20
5.439062
 30
0.0
 40
0.022808
100
AcDbArc
 50
186.356007
 51
203.503032
  0
ARC
  5
2D9
330
18
100
AcDbEntity
  8
0
100
AcDbCircle
 10
4.074656
 20
5.439062
 30
0.0
 40
0.022808
100
AcDbArc
 50
203.503032
 51
220.650057
  0
ARC
  5
2DA
330
18
100
AcDbEntity
  8
0
100
AcDbCircle
 10
4.070714
 20
5.435678
 30
0.0
 40
0.017612
100
AcDbArc
 50
220.650057
 51
240.184669
  0
ARC
  5
2DB
330
18
100
AcDbEntity
  8
0
100
AcDbCircle
 10
4.068763
 20
5.432272
 30
0.0
 40
0.013687
100
AcDbArc
 50
240.184669
 51
264.425384
  0
ARC
  5
2DC
330
18
100
AcDbEntity
  8
0
100
AcDbCircle
 10
4.068363
 20
5.428179
 30
0.0
 40
0.009575
100
AcDbArc
 50
264.425384
 51
293.503032
  0
ARC
  5
2DD
330
18
100
AcDbEntity
  8
0
100
AcDbCircle
 10
4.068363
 20
5.428179
 30
0.0
 40
0.009575
100
AcDbArc
 50
293.503032
 51
322.58068
  0
ARC
  5
2DE
330
18
100
AcDbEntity
  8
0
100
AcDbCircle
 10
4.065097
 20
5.430678
 30
0.0
 40
0.013687
100
AcDbArc
 50
322.58068
 51
346.821396
  0
ARC
  5
2DF
330
18
100
AcDbEntity
  8
0
100
AcDbCircle
 10
4.061275
 20
5.431573
 30
0.0
 40
0.017612
100
AcDbArc
 50
346.821396
 51
6.356007
  0
ARC
  5
2E0
330
18
100
AcDbEntity
  8
0
100
AcDbCircle
 10
4.056112000000001
 20
5.430998000000001
 30
0.0
 40
0.022808
100
AcDbArc
 50
6.356007
 51
23.503032
  0
ARC
  5
2E1
330
18
100
AcDbEntity
  8
0
100
AcDbCircle
 10
4.056112000000001
 20
5.430998000000001
 30
0.0
 40
0.022808
100
AcDbArc
 50
23.503032
 51
40.650057
  0
ARC
  5
2E2
330
18
100
AcDbEntity
  8
0
100
AcDbCircle
 10
4.060053
 20
5.434382
 30
0.0
 40
0.017612
100
AcDbArc
 50
40.650057
 51
60.184669
  0
ARC
  5
2E3
330
18
100
AcDbEntity
  8
0
100
AcDbCircle
 10
4.062005
 20
5.437787999999999
 30
0.0
 40
0.013687
100
AcDbArc
 50
60.184669
 51
84.42538399999999
  0
ARC
  5
2E4
330
18
100
AcDbEntity
  8
0
100
AcDbCircle
 10
4.062405
 20
5.441881
 30
0.0
 40
0.009575
100
AcDbArc
 50
84.42538399999999
 51
113.503032
  0
ARC
  5
2E5
330
18
100
AcDbEntity
  8
0
100
AcDbCircle
 10
4.142276
 20
5.418096
 30
0.0
 40
0.009575
100
AcDbArc
 50
113.503032
 51
142.58068
  0
ARC
  5
2E6
330
18
100
AcDbEntity
  8
0
100
AcDbCircle
 10
4.145542
 20
5.415598
 30
0.0
 40
0.013687
100
AcDbArc
 50
142.58068
 51
166.821396
  0
ARC
  5
2E7
330
18
100
AcDbEntity
  8
0
100
AcDbCircle
 10
4.149364
 20
5.414703
 30
0.0
 40
0.017612
100
AcDbArc
 50
166.821396
 51
186.356007
  0
ARC
  5
2E8
330
18
100
AcDbEntity
  8
0
100
AcDbCircle
 10
4.154527
 20
5.415278
 30
0.0
 40
0.022808
100
AcDbArc
 50
186.356007
 51
203.503032
  0
ARC
  5
2E9
330
18
100
AcDbEntity
  8
0
100
AcDbCircle
 10
4.154527
 20
5.415278
 30
0.0
 40
0.022808
100
AcDbArc
 50
203.503032
 51
220.650057
  0
ARC
  5
2EA
330
18
100
AcDbEntity
  8
0
100
AcDbCircle
 10
4.150586
 20
5.411893
 30
0.0
 40
0.017612
100
AcDbArc
 50
220.650057
 51
240.184669
  0
ARC
  5
2EB
330
18
100
AcDbEntity
  8
0
100
AcDbCircle
 10
4.148634
 20
5.408487
 30
0.0
 40
0.013687
100
AcDbArc
 50
240.184669
 51
264.425384
  0
ARC
  5
2EC
330
18
100
AcDbEntity
  8
0
100
AcDbCircle
 10
4.148234
 20
5.404395
 30
0.0
 40
0.009575
100
AcDbArc
 50
264.425384
 51
293.503032
  0
ARC
  5
2ED
330
18
100
AcDbEntity
  8
0
100
AcDbCircle
 10
4.148234
 20
5.404395
 30
0.0
 40
0.009575
100
AcDbArc
 50
293.503032
 51
322.58068
  0
ARC
  5
2EE
330
18
100
AcDbEntity
  8
0
100
AcDbCircle
 10
4.144968
 20
5.406893
 30
0.0
 40
0.013687
100
AcDbArc
 50
322.58068
 51
346.821396
  0
ARC
  5
2EF
330
18
100
AcDbEntity
  8
0
100
AcDbCircle
 10
4.141146
 20
5.407788
 30
0.0
 40
0.017612
100
AcDbArc
 50
346.821396
 51
6.356007
  0
ARC
  5
2F0
330
18
100
AcDbEntity
  8
0
100
AcDbCircle
 10
4.135983
 20
5.407213
 30
0.0
 40
0.022808
100
AcDbArc
 50
6.356007
 51
23.503032
  0
ARC
  5
2F1
330
18
100
AcDbEntity
  8
0
100
AcDbCircle
 10
4.135983
 20
5.407213
 30
0.0
 40
0.022808
100
AcDbArc
 50
23.503032
 51
40.650057
  0
ARC
  5
2F2
330
18
100
AcDbEntity
  8
0
100
AcDbCircle
 10
4.139924
 20
5.410598
 30
0.0
 40
0.017612
100
AcDbArc
 50
40.650057
 51
60.184669
  0
ARC
  5
2F3
330
18
100
AcDbEntity
  8
0
100
AcDbCircle
 10
4.141876
 20
5.414004
 30
0.0
 40
0.013687
100
AcDbArc
 50
60.184669
 51
84.42538399999999
  0
ARC
  5
2F4
330
18
100
AcDbEntity
  8
0
100
AcDbCircle
 10
4.142276
 20
5.418096
 30
0.0
 40
0.009575
100
AcDbArc
 50
84.42538399999999
 51
113.503032
  0
LINE
  5
2F5
330
18
100
AcDbEntity
  8
0
100
AcDbLine
 10
6.014948
 20
5.059848000000001
 30
0.0
 11
6.181173
 21
4.87294
 31
0.0
  0
ARC
  5
2F6
330
18
100
AcDbEntity
  8
0
100
AcDbCircle
 10
6.173789
 20
4.866373
 30
0.0
 40
0.009881
100
AcDbArc
 50
0.0
 51
41.647881
  0
LINE
  5
2F7
330
18
100
AcDbEntity
  8
0
100
AcDbLine
 10
6.183669999999999
 20
4.866373
 30
0.0
 11
6.183669999999999
 21
4.668425
 31
0.0
  0
LINE
  5
2F8
330
18
100
AcDbEntity
  8
0
100
AcDbLine
 10
6.183669999999999
 20
4.668425
 30
0.0
 11
5.994646
 21
4.73229
 31
0.0
  0
LINE
  5
2F9
330
18
100
AcDbEntity
  8
0
100
AcDbLine
 10
5.994646
 20
4.73229
 30
0.0
 11
5.994646
 21
5.039845
 31
0.0
  0
ARC
  5
2FA
330
18
100
AcDbEntity
  8
0
100
AcDbCircle
 10
6.004528
 20
5.039845
 30
0.0
 40
0.009881
100
AcDbArc
 50
126.501625
 51
180.0
  0
LINE
  5
2FB
330
18
100
AcDbEntity
  8
0
100
AcDbLine
 10
5.99865
 20
5.047788
 30
0.0
 11
6.010945
 21
5.056886
 31
0.0
  0
ARC
  5
2FC
330
18
100
AcDbEntity
  8
0
100
AcDbCircle
 10
6.005067
 20
5.064829000000001
 30
0.0
 40
0.009881
100
AcDbArc
 50
306.501625
 51
0.0
  0
LINE
  5
2FD
330
18
100
AcDbEntity
  8
0
100
AcDbLine
 10
6.014948
 20
5.064829000000001
 30
0.0
 11
6.014948
 21
5.24704
 31
0.0
  0
LINE
  5
2FE
330
18
100
AcDbEntity
  8
0
100
AcDbLine
 10
6.014948
 20
5.24704
 30
0.0
 11
6.156981
 21
5.345198
 31
0.0
  0
LINE
  5
2FF
330
18
100
AcDbEntity
  8
0
100
AcDbLine
 10
6.156981
 20
5.345198
 30
0.0
 11
6.156981
 21
5.150003
 31
0.0
  0
ARC
  5
300
330
18
100
AcDbEntity
  8
0
100
AcDbCircle
 10
6.1471
 20
5.150003
 30
0.0
 40
0.009881
100
AcDbArc
 50
337.04771
 51
0.0
  0
LINE
  5
301
330
18
100
AcDbEntity
  8
0
100
AcDbLine
 10
6.156199
 20
5.146148999999999
 30
0.0
 11
6.085876
 21
4.980095
 31
0.0
  0
ARC
  5
302
330
18
100
AcDbEntity
  8
0
100
AcDbCircle
 10
6.262000000000001
 20
5.567468
 30
0.0
 40
0.0025
100
AcDbArc
 50
180.0
 51
0.0
  0
ARC
  5
303
330
18
100
AcDbEntity
  8
0
100
AcDbCircle
 10
6.262000000000001
 20
5.567468
 30
0.0
 40
0.0025
100
AcDbArc
 50
0.0
 51
180.0
  0
ARC
  5
304
330
18
100
AcDbEntity
  8
0
100
AcDbCircle
 10
7.953875
 20
4.077168
 30
0.0
 40
0.021485
100
AcDbArc
 50
107.77987
 51
140.928892
  0
ARC
  5
305
330
18
100
AcDbEntity
  8
0
100
AcDbCircle
 10
7.947321000000001
 20
4.082488
 30
0.0
 40
0.013045
100
AcDbArc
 50
140.928892
 51
183.87958
  0
ARC
  5
306
330
18
100
AcDbEntity
  8
0
100
AcDbCircle
 10
7.959778
 20
4.083333000000001
 30
0.0
 40
0.025529
100
AcDbArc
 50
183.87958
 51
202.402886
  0
ARC
  5
307
330
18
100
AcDbEntity
  8
0
100
AcDbCircle
 10
7.973818
 20
4.089121
 30
0.0
 40
0.040716
100
AcDbArc
 50
202.402886
 51
217.046447
  0
ARC
  5
308
330
18
100
AcDbEntity
  8
0
100
AcDbCircle
 10
7.977248
 20
4.09171
 30
0.0
 40
0.045013
100
AcDbArc
 50
217.046447
 51
233.768913
  0
ARC
  5
309
330
18
100
AcDbEntity
  8
0
100
AcDbCircle
 10
7.956192999999999
 20
4.062975
 30
0.0
 40
0.009391
100
AcDbArc
 50
233.768913
 51
270.897022
  0
ARC
  5
30A
330
18
100
AcDbEntity
  8
0
100
AcDbCircle
 10
7.956208
 20
4.062016000000001
 30
0.0
 40
0.008432
100
AcDbArc
 50
270.897022
 51
315.022751
  0
ARC
  5
30B
330
18
100
AcDbEntity
  8
0
100
AcDbCircle
 10
7.937980000000001
 20
4.08023
 30
0.0
 40
0.0342
100
AcDbArc
 50
315.022751
 51
336.520727
  0
ARC
  5
30C
330
18
100
AcDbEntity
  8
0
100
AcDbCircle
 10
7.945507000000001
 20
4.07696
 30
0.0
 40
0.025994
100
AcDbArc
 50
336.520727
 51
352.428107
  0
ARC
  5
30D
330
18
100
AcDbEntity
  8
0
100
AcDbCircle
 10
7.938725
 20
4.077862000000001
 30
0.0
 40
0.032836
100
AcDbArc
 50
352.428107
 51
6.572000999999999
  0
ARC
  5
30E
330
18
100
AcDbEntity
  8
0
100
AcDbCircle
 10
7.952199
 20
4.079414
 30
0.0
 40
0.019273
100
AcDbArc
 50
6.572000999999999
 51
56.332683
  0
ARC
  5
30F
330
18
100
AcDbEntity
  8
0
100
AcDbCircle
 10
7.952844
 20
4.080383
 30
0.0
 40
0.018109
100
AcDbArc
 50
56.332683
 51
107.77987
  0
ARC
  5
310
330
18
100
AcDbEntity
  8
0
100
AcDbCircle
 10
8.025064
 20
4.0708
 30
0.0
 40
0.016114
100
AcDbArc
 50
107.77987
 51
140.928892
  0
ARC
  5
311
330
18
100
AcDbEntity
  8
0
100
AcDbCircle
 10
8.020149
 20
4.07479
 30
0.0
 40
0.009783
100
AcDbArc
 50
140.928892
 51
183.87958
  0
ARC
  5
312
330
18
100
AcDbEntity
  8
0
100
AcDbCircle
 10
8.029491
 20
4.075423000000001
 30
0.0
 40
0.019147
100
AcDbArc
 50
183.87958
 51
202.402886
  0
ARC
  5
313
330
18
100
AcDbEntity
  8
0
100
AcDbCircle
 10
8.040021000000001
 20
4.079764
 30
0.0
 40
0.030537
100
AcDbArc
 50
202.402886
 51
217.046447
  0
ARC
  5
314
330
18
100
AcDbEntity
  8
0
100
AcDbCircle
 10
8.042593999999999
 20
4.081706
 30
0.0
 40
0.03376
100
AcDbArc
 50
217.046447
 51
233.768913
  0
ARC
  5
315
330
18
100
AcDbEntity
  8
0
100
AcDbCircle
 10
8.026802999999999
 20
4.060155
 30
0.0
 40
0.007043
100
AcDbArc
 50
233.768913
 51
270.897022
  0
ARC
  5
316
330
18
100
AcDbEntity
  8
0
100
AcDbCircle
 10
8.026814
 20
4.059436
 30
0.0
 40
0.006324
100
AcDbArc
 50
270.897022
 51
315.022751
  0
ARC
  5
317
330
18
100
AcDbEntity
  8
0
100
AcDbCircle
 10
8.013143
 20
4.073096
 30
0.0
 40
0.02565
100
AcDbArc
 50
315.022751
 51
336.520727
  0
ARC
  5
318
330
18
100
AcDbEntity
  8
0
100
AcDbCircle
 10
8.018788000000001
 20
4.070644000000001
 30
0.0
 40
0.019496
100
AcDbArc
 50
336.520727
 51
352.428107
  0
ARC
  5
319
330
18
100
AcDbEntity
  8
0
100
AcDbCircle
 10
8.013700999999999
 20
4.07132
 30
0.0
 40
0.024627
100
AcDbArc
 50
352.428107
 51
6.572000999999999
  0
ARC
  5
31A
330
18
100
AcDbEntity
  8
0
100
AcDbCircle
 10
8.023807000000002
 20
4.072485
 30
0.0
 40
0.014455
100
AcDbArc
 50
6.572000999999999
 51
56.332683
  0
ARC
  5
31B
330
18
100
AcDbEntity
  8
0
100
AcDbCircle
 10
8.024289999999999
 20
4.073211
 30
0.0
 40
0.013582
100
AcDbArc
 50
56.332683
 51
107.77987
  0
LINE
  5
31C
330
18
100
AcDbEntity
  8
0
100
AcDbLine
 10
7.700309
 20
4.585212
 30
0.0
 11
7.935067999999999
 21
4.583629
 31
0.0
  0
LINE
  5
31D
330
18
100
AcDbEntity
  8
0
100
AcDbLine
 10
7.935067999999999
 20
4.53241
 30
0.0
 11
7.700309
 21
4.544139
 31
0.0
  0
LINE
  5
31E
330
18
100
AcDbEntity
  8
0
100
AcDbLine
 10
7.935067999999999
 20
4.61715
 30
0.0
 11
7.816967999999999
 21
4.632124
 31
0.0
  0
LINE
  5
31F
330
18
100
AcDbEntity
  8
0
100
AcDbLine
 10
7.816967999999999
 20
4.632124
 30
0.0
 11
7.692416000000001
 21
4.644248
 31
0.0
  0
LINE
  5
320
330
18
100
AcDbEntity
  8
0
100
AcDbLine
 10
7.510149
 20
4.297661
 30
0.0
 11
7.576830999999999
 21
4.354744
 31
0.0
  0
LINE
  5
321
330
18
100
AcDbEntity
  8
0
100
AcDbLine
 10
7.576830999999999
 20
4.354744
 30
0.0
 11
7.638872
 21
4.411827
 31
0.0
  0
LINE
  5
322
330
18
100
AcDbEntity
  8
0
100
AcDbLine
 10
7.638872
 20
4.411827
 30
0.0
 11
7.700309
 21
4.452889
 31
0.0
  0
LINE
  5
323
330
18
100
AcDbEntity
  8
0
100
AcDbLine
 10
7.510149
 20
4.346711
 30
0.0
 11
7.577805000000001
 21
4.423815
 31
0.0
  0
LINE
  5
324
330
18
100
AcDbEntity
  8
0
100
AcDbLine
 10
7.577805000000001
 20
4.423815
 30
0.0
 11
7.63985
 21
4.469887
 31
0.0
  0
LINE
  5
325
330
18
100
AcDbEntity
  8
0
100
AcDbLine
 10
7.63985
 20
4.469887
 30
0.0
 11
7.700309
 21
4.511948
 31
0.0
  0
LINE
  5
326
330
18
100
AcDbEntity
  8
0
100
AcDbLine
 10
7.510149
 20
4.400765
 30
0.0
 11
7.583788
 21
4.481877
 31
0.0
  0
LINE
  5
327
330
18
100
AcDbEntity
  8
0
100
AcDbLine
 10
7.583788
 20
4.481877
 30
0.0
 11
7.654847
 21
4.517943
 31
0.0
  0
LINE
  5
328
330
18
100
AcDbEntity
  8
0
100
AcDbLine
 10
7.654847
 20
4.517943
 30
0.0
 11
7.700309
 21
4.56901
 31
0.0
  0
ARC
  5
329
330
18
100
AcDbEntity
  8
0
100
AcDbCircle
 10
7.718139999999999
 20
4.293611
 30
0.0
 40
0.048001
100
AcDbArc
 50
79.37396099999999
 51
86.208676
  0
ARC
  5
32A
330
18
100
AcDbEntity
  8
0
100
AcDbCircle
 10
7.712853999999999
 20
4.213849
 30
0.0
 40
0.127939
100
AcDbArc
 50
86.208676
 51
90.39356900000001
  0
ARC
  5
32B
330
18
100
AcDbEntity
  8
0
100
AcDbCircle
 10
7.712541000000001
 20
4.259464
 30
0.0
 40
0.082322
100
AcDbArc
 50
90.39356900000001
 51
100.807049
  0
ARC
  5
32C
330
18
100
AcDbEntity
  8
0
100
AcDbCircle
 10
7.700171000000001
 20
4.324264
 30
0.0
 40
0.016352
100
AcDbArc
 50
100.807049
 51
124.30405
  0
ARC
  5
32D
330
18
100
AcDbEntity
  8
0
100
AcDbCircle
 10
7.695139999999999
 20
4.331639
 30
0.0
 40
0.007424
100
AcDbArc
 50
124.30405
 51
143.152853
  0
ARC
  5
32E
330
18
100
AcDbEntity
  8
0
100
AcDbCircle
 10
7.696186
 20
4.330855000000001
 30
0.0
 40
0.008732
100
AcDbArc
 50
143.152853
 51
160.521497
  0
ARC
  5
32F
330
18
100
AcDbEntity
  8
0
100
AcDbCircle
 10
7.694825999999999
 20
4.331336
 30
0.0
 40
0.00729
100
AcDbArc
 50
160.521497
 51
203.98524
  0
ARC
  5
330
330
18
100
AcDbEntity
  8
0
100
AcDbCircle
 10
7.694443
 20
4.331166000000001
 30
0.0
 40
0.00687
100
AcDbArc
 50
203.98524
 51
248.82463
  0
ARC
  5
331
330
18
100
AcDbEntity
  8
0
100
AcDbCircle
 10
7.70697
 20
4.363502
 30
0.0
 40
0.041548
100
AcDbArc
 50
248.82463
 51
255.986507
  0
ARC
  5
332
330
18
100
AcDbEntity
  8
0
100
AcDbCircle
 10
7.744889
 20
4.515434
 30
0.0
 40
0.198141
100
AcDbArc
 50
255.986507
 51
259.264387
  0
ARC
  5
333
330
18
100
AcDbEntity
  8
0
100
AcDbCircle
 10
7.754967
 20
4.568592
 30
0.0
 40
0.252246
100
AcDbArc
 50
259.264387
 51
261.276588
  0
ARC
  5
334
330
18
100
AcDbEntity
  8
0
100
AcDbCircle
 10
7.725777000000001
 20
4.378352
 30
0.0
 40
0.059779
100
AcDbArc
 50
261.276588
 51
265.410688
  0
ARC
  5
335
330
18
100
AcDbEntity
  8
0
100
AcDbCircle
 10
7.721628999999999
 20
4.326674
 30
0.0
 40
0.007935
100
AcDbArc
 50
265.410688
 51
298.63321
  0
ARC
  5
336
330
18
100
AcDbEntity
  8
0
100
AcDbCircle
 10
7.712713000000001
 20
4.343004000000001
 30
0.0
 40
0.026541
100
AcDbArc
 50
298.63321
 51
316.619175
  0
ARC
  5
337
330
18
100
AcDbEntity
  8
0
100
AcDbCircle
 10
7.719498
 20
4.336592
 30
0.0
 40
0.017206
100
AcDbArc
 50
316.619175
 51
345.986507
  0
ARC
  5
338
330
18
100
AcDbEntity
  8
0
100
AcDbCircle
 10
7.731705000000001
 20
4.333546
 30
0.0
 40
0.004624
100
AcDbArc
 50
345.986507
 51
44.53319000000001
  0
ARC
  5
339
330
18
100
AcDbEntity
  8
0
100
AcDbCircle
 10
7.726024000000001
 20
4.327957
 30
0.0
 40
0.012593
100
AcDbArc
 50
44.53319000000001
 51
63.4577
  0
ARC
  5
33A
330
18
100
AcDbEntity
  8
0
100
AcDbCircle
 10
7.723717
 20
4.323338
 30
0.0
 40
0.017756
100
AcDbArc
 50
63.4577
 51
79.37396099999999
  0
ARC
  5
33B
330
18
100
AcDbEntity
  8
0
100
AcDbCircle
 10
7.929069999999999
 20
4.29673
 30
0.0
 40
0.036001
100
AcDbArc
 50
79.37396099999999
 51
86.208676
  0
ARC
  5
33C
330
18
100
AcDbEntity
  8
0
100
AcDbCircle
 10
7.925106
 20
4.236908000000001
 30
0.0
 40
0.095954
100
AcDbArc
 50
86.208676
 51
90.39356900000001
  0
ARC
  5
33D
330
18
100
AcDbEntity
  8
0
100
AcDbCircle
 10
7.924871
 20
4.271119000000001
 30
0.0
 40
0.061742
100
AcDbArc
 50
90.39356900000001
 51
100.807049
  0
ARC
  5
33E
330
18
100
AcDbEntity
  8
0
100
AcDbCircle
 10
7.915594000000001
 20
4.319719
 30
0.0
 40
0.012264
100
AcDbArc
 50
100.807049
 51
124.30405
  0
ARC
  5
33F
330
18
100
AcDbEntity
  8
0
100
AcDbCircle
 10
7.91182
 20
4.32525
 30
0.0
 40
0.005568
100
AcDbArc
 50
124.30405
 51
143.152853
  0
ARC
  5
340
330
18
100
AcDbEntity
  8
0
100
AcDbCircle
 10
7.912605
 20
4.324662
 30
0.0
 40
0.006549
100
AcDbArc
 50
143.152853
 51
160.521497
  0
ARC
  5
341
330
18
100
AcDbEntity
  8
0
100
AcDbCircle
 10
7.911585000000001
 20
4.325023000000001
 30
0.0
 40
0.005467
100
AcDbArc
 50
160.521497
 51
203.98524
  0
ARC
  5
342
330
18
100
AcDbEntity
  8
0
100
AcDbCircle
 10
7.911298
 20
4.324895
 30
0.0
 40
0.005153
100
AcDbArc
 50
203.98524
 51
248.82463
  0
ARC
  5
343
330
18
100
AcDbEntity
  8
0
100
AcDbCircle
 10
7.920692999999999
 20
4.349148000000001
 30
0.0
 40
0.031161
100
AcDbArc
 50
248.82463
 51
255.986507
  0
ARC
  5
344
330
18
100
AcDbEntity
  8
0
100
AcDbCircle
 10
7.949132000000001
 20
4.463097
 30
0.0
 40
0.148606
100
AcDbArc
 50
255.986507
 51
259.264387
  0
ARC
  5
345
330
18
100
AcDbEntity
  8
0
100
AcDbCircle
 10
7.956691
 20
4.502965000000001
 30
0.0
 40
0.189184
100
AcDbArc
 50
259.264387
 51
261.276588
  0
ARC
  5
346
330
18
100
AcDbEntity
  8
0
100
AcDbCircle
 10
7.934798
 20
4.360285
 30
0.0
 40
0.044834
100
AcDbArc
 50
261.276588
 51
265.410688
  0
ARC
  5
347
330
18
100
AcDbEntity
  8
0
100
AcDbCircle
 10
7.931686999999999
 20
4.321527
 30
0.0
 40
0.005951
100
AcDbArc
 50
265.410688
 51
298.63321
  0
ARC
  5
348
330
18
100
AcDbEntity
  8
0
100
AcDbCircle
 10
7.925
 20
4.333774
 30
0.0
 40
0.019905
100
AcDbArc
 50
298.63321
 51
316.619175
  0
ARC
  5
349
330
18
100
AcDbEntity
  8
0
100
AcDbCircle
 10
7.930089
 20
4.328965
 30
0.0
 40
0.012904
100
AcDbArc
 50
316.619175
 51
345.986507
  0
ARC
  5
34A
330
18
100
AcDbEntity
  8
0
100
AcDbCircle
 10
7.939244
 20
4.326680000000001
 30
0.0
 40
0.003468
100
AcDbArc
 50
345.986507
 51
44.53319000000001
  0
ARC
  5
34B
330
18
100
AcDbEntity
  8
0
100
AcDbCircle
 10
7.934983
 20
4.322489
 30
0.0
 40
0.009445
100
AcDbArc
 50
44.53319000000001
 51
63.4577
  0
ARC
  5
34C
330
18
100
AcDbEntity
  8
0
100
AcDbCircle
 10
7.933253
 20
4.319025
 30
0.0
 40
0.013317
100
AcDbArc
 50
63.4577
 51
79.37396099999999
  0
ARC
  5
34D
330
18
100
AcDbEntity
  8
0
100
AcDbCircle
 10
8.077917999999999
 20
4.287433
 30
0.0
 40
0.021485
100
AcDbArc
 50
107.77987
 51
140.928892
  0
ARC
  5
34E
330
18
100
AcDbEntity
  8
0
100
AcDbCircle
 10
8.071365
 20
4.292753
 30
0.0
 40
0.013045
100
AcDbArc
 50
140.928892
 51
183.87958
  0
ARC
  5
34F
330
18
100
AcDbEntity
  8
0
100
AcDbCircle
 10
8.083822
 20
4.293598
 30
0.0
 40
0.025529
100
AcDbArc
 50
183.87958
 51
202.402886
  0
ARC
  5
350
330
18
100
AcDbEntity
  8
0
100
AcDbCircle
 10
8.097861999999999
 20
4.299386
 30
0.0
 40
0.040716
100
AcDbArc
 50
202.402886
 51
217.046447
  0
ARC
  5
351
330
18
100
AcDbEntity
  8
0
100
AcDbCircle
 10
8.101291999999999
 20
4.301975
 30
0.0
 40
0.045013
100
AcDbArc
 50
217.046447
 51
233.768913
  0
ARC
  5
352
330
18
100
AcDbEntity
  8
0
100
AcDbCircle
 10
8.080237
 20
4.27324
 30
0.0
 40
0.009391
100
AcDbArc
 50
233.768913
 51
270.897022
  0
ARC
  5
353
330
18
100
AcDbEntity
  8
0
100
AcDbCircle
 10
8.080252
 20
4.272281
 30
0.0
 40
0.008432
100
AcDbArc
 50
270.897022
 51
315.022751
  0
ARC
  5
354
330
18
100
AcDbEntity
  8
0
100
AcDbCircle
 10
8.062024000000001
 20
4.290495
 30
0.0
 40
0.0342
100
AcDbArc
 50
315.022751
 51
336.520727
  0
ARC
  5
355
330
18
100
AcDbEntity
  8
0
100
AcDbCircle
 10
8.069550999999999
 20
4.287226
 30
0.0
 40
0.025994
100
AcDbArc
 50
336.520727
 51
352.428107
  0
ARC
  5
356
330
18
100
AcDbEntity
  8
0
100
AcDbCircle
 10
8.062768
 20
4.288126999999999
 30
0.0
 40
0.032836
100
AcDbArc
 50
352.428107
 51
6.572000999999999
  0
ARC
  5
357
330
18
100
AcDbEntity
  8
0
100
AcDbCircle
 10
8.076243
 20
4.289679000000001
 30
0.0
 40
0.019273
100
AcDbArc
 50
6.572000999999999
 51
56.332683
  0
ARC
  5
358
330
18
100
AcDbEntity
  8
0
100
AcDbCircle
 10
8.076888
 20
4.290648
 30
0.0
 40
0.018109
100
AcDbArc
 50
56.332683
 51
107.77987
  0
ARC
  5
359
330
18
100
AcDbEntity
  8
0
100
AcDbCircle
 10
7.960347000000001
 20
4.398815
 30
0.0
 40
0.048001
100
AcDbArc
 50
79.37396099999999
 51
86.208676
  0
ARC
  5
35A
330
18
100
AcDbEntity
  8
0
100
AcDbCircle
 10
7.955061
 20
4.319053
 30
0.0
 40
0.127939
100
AcDbArc
 50
86.208676
 51
90.39356900000001
  0
ARC
  5
35B
330
18
100
AcDbEntity
  8
0
100
AcDbCircle
 10
7.954748
 20
4.364668
 30
0.0
 40
0.082322
100
AcDbArc
 50
90.39356900000001
 51
100.807049
  0
ARC
  5
35C
330
18
100
AcDbEntity
  8
0
100
AcDbCircle
 10
7.942378
 20
4.429468
 30
0.0
 40
0.016352
100
AcDbArc
 50
100.807049
 51
124.30405
  0
ARC
  5
35D
330
18
100
AcDbEntity
  8
0
100
AcDbCircle
 10
7.937346000000001
 20
4.436843
 30
0.0
 40
0.007424
100
AcDbArc
 50
124.30405
 51
143.152853
  0
ARC
  5
35E
330
18
100
AcDbEntity
  8
0
100
AcDbCircle
 10
7.938393
 20
4.436058999999999
 30
0.0
 40
0.008732
100
AcDbArc
 50
143.152853
 51
160.521497
  0
ARC
  5
35F
330
18
100
AcDbEntity
  8
0
100
AcDbCircle
 10
7.937033
 20
4.43654
 30
0.0
 40
0.00729
100
AcDbArc
 50
160.521497
 51
203.98524
  0
ARC
  5
360
330
18
100
AcDbEntity
  8
0
100
AcDbCircle
 10
7.93665
 20
4.43637
 30
0.0
 40
0.00687
100
AcDbArc
 50
203.98524
 51
248.82463
  0
ARC
  5
361
330
18
100
AcDbEntity
  8
0
100
AcDbCircle
 10
7.949177000000001
 20
4.468706
 30
0.0
 40
0.041548
100
AcDbArc
 50
248.82463
 51
255.986507
  0
ARC
  5
362
330
18
100
AcDbEntity
  8
0
100
AcDbCircle
 10
7.987096000000001
 20
4.620638
 30
0.0
 40
0.198141
100
AcDbArc
 50
255.986507
 51
259.264387
  0
ARC
  5
363
330
18
100
AcDbEntity
  8
0
100
AcDbCircle
 10
7.997174
 20
4.673796
 30
0.0
 40
0.252246
100
AcDbArc
 50
259.264387
 51
261.276588
  0
ARC
  5
364
330
18
100
AcDbEntity
  8
0
100
AcDbCircle
 10
7.967984
 20
4.483556
 30
0.0
 40
0.059779
100
AcDbArc
 50
261.276588
 51
265.410688
  0
ARC
  5
365
330
18
100
AcDbEntity
  8
0
100
AcDbCircle
 10
7.963836
 20
4.431878
 30
0.0
 40
0.007935
100
AcDbArc
 50
265.410688
 51
298.63321
  0
ARC
  5
366
330
18
100
AcDbEntity
  8
0
100
AcDbCircle
 10
7.95492
 20
4.448208
 30
0.0
 40
0.026541
100
AcDbArc
 50
298.63321
 51
316.619175
  0
ARC
  5
367
330
18
100
AcDbEntity
  8
0
100
AcDbCircle
 10
7.961703999999999
 20
4.441796
 30
0.0
 40
0.017206
100
AcDbArc
 50
316.619175
 51
345.986507
  0
ARC
  5
368
330
18
100
AcDbEntity
  8
0
100
AcDbCircle
 10
7.973911999999999
 20
4.43875
 30
0.0
 40
0.004624
100
AcDbArc
 50
345.986507
 51
44.53319000000001
  0
ARC
  5
369
330
18
100
AcDbEntity
  8
0
100
AcDbCircle
 10
7.968230999999999
 20
4.433161
 30
0.0
 40
0.012593
100
AcDbArc
 50
44.53319000000001
 51
63.4577
  0
ARC
  5
36A
330
18
100
AcDbEntity
  8
0
100
AcDbCircle
 10
7.965924
 20
4.428542
 30
0.0
 40
0.017756
100
AcDbArc
 50
63.4577
 51
79.37396099999999
  0
LINE
  5
36B
330
18
100
AcDbEntity
  8
0
100
AcDbLine
 10
1.902499999999999
 20
5.847512000000002
 30
0.0
 11
1.898633
 21
5.923874000000001
 31
0.0
  0
LINE
  5
36C
330
18
100
AcDbEntity
  8
0
100
AcDbLine
 10
1.898633
 20
5.923874000000001
 30
0.0
 11
1.855575
 21
5.957892000000001
 31
0.0
  0
LINE
  5
36D
330
18
100
AcDbEntity
  8
0
100
AcDbLine
 10
1.855575
 20
5.957892000000001
 30
0.0
 11
1.863559999999999
 21
6.015955000000002
 31
0.0
  0
LINE
  5
36E
330
18
100
AcDbEntity
  8
0
100
AcDbLine
 10
1.863559999999999
 20
6.015955000000002
 30
0.0
 11
1.832482
 21
6.132061000000001
 31
0.0
  0
LINE
  5
36F
330
18
100
AcDbEntity
  8
0
100
AcDbLine
 10
1.832482
 20
6.132061000000001
 30
0.0
 11
1.798045
 21
6.175944000000001
 31
0.0
  0
LINE
  5
370
330
18
100
AcDbEntity
  8
0
100
AcDbLine
 10
3.133525
 20
6.23291
 30
0.0
 11
3.319723
 21
6.305917
 31
0.0
  0
ARC
  5
371
330
18
100
AcDbEntity
  8
0
100
AcDbCircle
 10
3.175915
 20
6.672689
 30
0.0
 40
0.393957
100
AcDbArc
 50
291.409799
 51
331.10389
  0
ARC
  5
372
330
18
100
AcDbEntity
  8
0
100
AcDbCircle
 10
3.947095
 20
5.708987000000001
 30
0.0
 40
0.007369
100
AcDbArc
 50
90.0
 51
120.305654
  0
ARC
  5
373
330
18
100
AcDbEntity
  8
0
100
AcDbCircle
 10
3.94908
 20
5.705591
 30
0.0
 40
0.011302
100
AcDbArc
 50
120.305654
 51
144.675524
  0
ARC
  5
374
330
18
100
AcDbEntity
  8
0
100
AcDbCircle
 10
3.952216
 20
5.703369
 30
0.0
 40
0.015146
100
AcDbArc
 50
144.675524
 51
163.640647
  0
ARC
  5
375
330
18
100
AcDbEntity
  8
0
100
AcDbCircle
 10
3.957169
 20
5.701915000000001
 30
0.0
 40
0.020308
100
AcDbArc
 50
163.640647
 51
180.0
  0
ARC
  5
376
330
18
100
AcDbEntity
  8
0
100
AcDbCircle
 10
3.957169
 20
5.701915000000001
 30
0.0
 40
0.020308
100
AcDbArc
 50
180.0
 51
196.359353
  0
ARC
  5
377
330
18
100
AcDbEntity
  8
0
100
AcDbCircle
 10
3.952216
 20
5.700461
 30
0.0
 40
0.015146
100
AcDbArc
 50
196.359353
 51
215.324476
  0
ARC
  5
378
330
18
100
AcDbEntity
  8
0
100
AcDbCircle
 10
3.94908
 20
5.698238
 30
0.0
 40
0.011302
100
AcDbArc
 50
215.324476
 51
239.694346
  0
ARC
  5
379
330
18
100
AcDbEntity
  8
0
100
AcDbCircle
 10
3.947095
 20
5.694843
 30
0.0
 40
0.007369
100
AcDbArc
 50
239.694346
 51
270.0
  0
ARC
  5
37A
330
18
100
AcDbEntity
  8
0
100
AcDbCircle
 10
3.947095
 20
5.694843
 30
0.0
 40
0.007369
100
AcDbArc
 50
270.0
 51
300.305654
  0
ARC
  5
37B
330
18
100
AcDbEntity
  8
0
100
AcDbCircle
 10
3.94511
 20
5.698238
 30
0.0
 40
0.011302
100
AcDbArc
 50
300.305654
 51
324.675524
  0
ARC
  5
37C
330
18
100
AcDbEntity
  8
0
100
AcDbCircle
 10
3.941974
 20
5.700461
 30
0.0
 40
0.015146
100
AcDbArc
 50
324.675524
 51
343.640647
  0
ARC
  5
37D
330
18
100
AcDbEntity
  8
0
100
AcDbCircle
 10
3.937021
 20
5.701915000000001
 30
0.0
 40
0.020308
100
AcDbArc
 50
343.640647
 51
0.0
  0
ARC
  5
37E
330
18
100
AcDbEntity
  8
0
100
AcDbCircle
 10
3.937021
 20
5.701915000000001
 30
0.0
 40
0.020308
100
AcDbArc
 50
0.0
 51
16.359353
  0
ARC
  5
37F
330
18
100
AcDbEntity
  8
0
100
AcDbCircle
 10
3.941974
 20
5.703369
 30
0.0
 40
0.015146
100
AcDbArc
 50
16.359353
 51
35.324476
  0
ARC
  5
380
330
18
100
AcDbEntity
  8
0
100
AcDbCircle
 10
3.94511
 20
5.705591
 30
0.0
 40
0.011302
100
AcDbArc
 50
35.324476
 51
59.694346
  0
ARC
  5
381
330
18
100
AcDbEntity
  8
0
100
AcDbCircle
 10
3.947095
 20
5.708987000000001
 30
0.0
 40
0.007369
100
AcDbArc
 50
59.694346
 51
90.0
  0
ARC
  5
382
330
18
100
AcDbEntity
  8
0
100
AcDbCircle
 10
3.923305000000001
 20
5.758253
 30
0.0
 40
0.007369
100
AcDbArc
 50
90.0
 51
120.305654
  0
ARC
  5
383
330
18
100
AcDbEntity
  8
0
100
AcDbCircle
 10
3.92529
 20
5.754857
 30
0.0
 40
0.011302
100
AcDbArc
 50
120.305654
 51
144.675524
  0
ARC
  5
384
330
18
100
AcDbEntity
  8
0
100
AcDbCircle
 10
3.928426
 20
5.752634
 30
0.0
 40
0.015146
100
AcDbArc
 50
144.675524
 51
163.640647
  0
ARC
  5
385
330
18
100
AcDbEntity
  8
0
100
AcDbCircle
 10
3.933379
 20
5.751180000000001
 30
0.0
 40
0.020308
100
AcDbArc
 50
163.640647
 51
180.0
  0
ARC
  5
386
330
18
100
AcDbEntity
  8
0
100
AcDbCircle
 10
3.933379
 20
5.751180000000001
 30
0.0
 40
0.020308
100
AcDbArc
 50
180.0
 51
196.359353
  0
ARC
  5
387
330
18
100
AcDbEntity
  8
0
100
AcDbCircle
 10
3.928426
 20
5.749727
 30
0.0
 40
0.015146
100
AcDbArc
 50
196.359353
 51
215.324476
  0
ARC
  5
388
330
18
100
AcDbEntity
  8
0
100
AcDbCircle
 10
3.92529
 20
5.747504
 30
0.0
 40
0.011302
100
AcDbArc
 50
215.324476
 51
239.694346
  0
ARC
  5
389
330
18
100
AcDbEntity
  8
0
100
AcDbCircle
 10
3.923305000000001
 20
5.744108
 30
0.0
 40
0.007369
100
AcDbArc
 50
239.694346
 51
270.0
  0
ARC
  5
38A
330
18
100
AcDbEntity
  8
0
100
AcDbCircle
 10
3.923305000000001
 20
5.744108
 30
0.0
 40
0.007369
100
AcDbArc
 50
270.0
 51
300.305654
  0
ARC
  5
38B
330
18
100
AcDbEntity
  8
0
100
AcDbCircle
 10
3.921321
 20
5.747504
 30
0.0
 40
0.011302
100
AcDbArc
 50
300.305654
 51
324.675524
  0
ARC
  5
38C
330
18
100
AcDbEntity
  8
0
100
AcDbCircle
 10
3.918184
 20
5.749727
 30
0.0
 40
0.015146
100
AcDbArc
 50
324.675524
 51
343.640647
  0
ARC
  5
38D
330
18
100
AcDbEntity
  8
0
100
AcDbCircle
 10
3.913232
 20
5.751180000000001
 30
0.0
 40
0.020308
100
AcDbArc
 50
343.640647
 51
0.0
  0
ARC
  5
38E
330
18
100
AcDbEntity
  8
0
100
AcDbCircle
 10
3.913232
 20
5.751180000000001
 30
0.0
 40
0.020308
100
AcDbArc
 50
0.0
 51
16.359353
  0
ARC
  5
38F
330
18
100
AcDbEntity
  8
0
100
AcDbCircle
 10
3.918184
 20
5.752634
 30
0.0
 40
0.015146
100
AcDbArc
 50
16.359353
 51
35.324476
  0
ARC
  5
390
330
18
100
AcDbEntity
  8
0
100
AcDbCircle
 10
3.921321
 20
5.754857
 30
0.0
 40
0.011302
100
AcDbArc
 50
35.324476
 51
59.694346
  0
ARC
  5
391
330
18
100
AcDbEntity
  8
0
100
AcDbCircle
 10
3.923305000000001
 20
5.758253
 30
0.0
 40
0.007369
100
AcDbArc
 50
59.694346
 51
90.0
  0
ARC
  5
392
330
18
100
AcDbEntity
  8
0
100
AcDbCircle
 10
3.975995
 20
5.654624
 30
0.0
 40
0.007369
100
AcDbArc
 50
90.0
 51
120.305654
  0
ARC
  5
393
330
18
100
AcDbEntity
  8
0
100
AcDbCircle
 10
3.977979
 20
5.651228
 30
0.0
 40
0.011302
100
AcDbArc
 50
120.305654
 51
144.675524
  0
ARC
  5
394
330
18
100
AcDbEntity
  8
0
100
AcDbCircle
 10
3.981116000000001
 20
5.649005000000001
 30
0.0
 40
0.015146
100
AcDbArc
 50
144.675524
 51
163.640647
  0
ARC
  5
395
330
18
100
AcDbEntity
  8
0
100
AcDbCircle
 10
3.986068
 20
5.647551
 30
0.0
 40
0.020308
100
AcDbArc
 50
163.640647
 51
180.0
  0
ARC
  5
396
330
18
100
AcDbEntity
  8
0
100
AcDbCircle
 10
3.986068
 20
5.647551
 30
0.0
 40
0.020308
100
AcDbArc
 50
180.0
 51
196.359353
  0
ARC
  5
397
330
18
100
AcDbEntity
  8
0
100
AcDbCircle
 10
3.981116000000001
 20
5.646098
 30
0.0
 40
0.015146
100
AcDbArc
 50
196.359353
 51
215.324476
  0
ARC
  5
398
330
18
100
AcDbEntity
  8
0
100
AcDbCircle
 10
3.977979
 20
5.643875
 30
0.0
 40
0.011302
100
AcDbArc
 50
215.324476
 51
239.694346
  0
ARC
  5
399
330
18
100
AcDbEntity
  8
0
100
AcDbCircle
 10
3.975995
 20
5.640479
 30
0.0
 40
0.007369
100
AcDbArc
 50
239.694346
 51
270.0
  0
ARC
  5
39A
330
18
100
AcDbEntity
  8
0
100
AcDbCircle
 10
3.975995
 20
5.640479
 30
0.0
 40
0.007369
100
AcDbArc
 50
270.0
 51
300.305654
  0
ARC
  5
39B
330
18
100
AcDbEntity
  8
0
100
AcDbCircle
 10
3.97401
 20
5.643875
 30
0.0
 40
0.011302
100
AcDbArc
 50
300.305654
 51
324.675524
  0
ARC
  5
39C
330
18
100
AcDbEntity
  8
0
100
AcDbCircle
 10
3.970874
 20
5.646098
 30
0.0
 40
0.015146
100
AcDbArc
 50
324.675524
 51
343.640647
  0
ARC
  5
39D
330
18
100
AcDbEntity
  8
0
100
AcDbCircle
 10
3.965921
 20
5.647551
 30
0.0
 40
0.020308
100
AcDbArc
 50
343.640647
 51
0.0
  0
ARC
  5
39E
330
18
100
AcDbEntity
  8
0
100
AcDbCircle
 10
3.965921
 20
5.647551
 30
0.0
 40
0.020308
100
AcDbArc
 50
0.0
 51
16.359353
  0
ARC
  5
39F
330
18
100
AcDbEntity
  8
0
100
AcDbCircle
 10
3.970874
 20
5.649005000000001
 30
0.0
 40
0.015146
100
AcDbArc
 50
16.359353
 51
35.324476
  0
ARC
  5
3A0
330
18
100
AcDbEntity
  8
0
100
AcDbCircle
 10
3.97401
 20
5.651228
 30
0.0
 40
0.011302
100
AcDbArc
 50
35.324476
 51
59.694346
  0
ARC
  5
3A1
330
18
100
AcDbEntity
  8
0
100
AcDbCircle
 10
3.975995
 20
5.654624
 30
0.0
 40
0.007369
100
AcDbArc
 50
59.694346
 51
90.0
  0
ARC
  5
3A2
330
18
100
AcDbEntity
  8
0
100
AcDbCircle
 10
3.975995
 20
5.790536
 30
0.0
 40
0.007369
100
AcDbArc
 50
90.0
 51
120.305654
  0
ARC
  5
3A3
330
18
100
AcDbEntity
  8
0
100
AcDbCircle
 10
3.977979
 20
5.787141
 30
0.0
 40
0.011302
100
AcDbArc
 50
120.305654
 51
144.675524
  0
ARC
  5
3A4
330
18
100
AcDbEntity
  8
0
100
AcDbCircle
 10
3.981116000000001
 20
5.784918
 30
0.0
 40
0.015146
100
AcDbArc
 50
144.675524
 51
163.640647
  0
ARC
  5
3A5
330
18
100
AcDbEntity
  8
0
100
AcDbCircle
 10
3.986068
 20
5.783464
 30
0.0
 40
0.020308
100
AcDbArc
 50
163.640647
 51
180.0
  0
ARC
  5
3A6
330
18
100
AcDbEntity
  8
0
100
AcDbCircle
 10
3.986068
 20
5.783464
 30
0.0
 40
0.020308
100
AcDbArc
 50
180.0
 51
196.359353
  0
ARC
  5
3A7
330
18
100
AcDbEntity
  8
0
100
AcDbCircle
 10
3.981116000000001
 20
5.78201
 30
0.0
 40
0.015146
100
AcDbArc
 50
196.359353
 51
215.324476
  0
ARC
  5
3A8
330
18
100
AcDbEntity
  8
0
100
AcDbCircle
 10
3.977979
 20
5.779788
 30
0.0
 40
0.011302
100
AcDbArc
 50
215.324476
 51
239.694346
  0
ARC
  5
3A9
330
18
100
AcDbEntity
  8
0
100
AcDbCircle
 10
3.975995
 20
5.776392
 30
0.0
 40
0.007369
100
AcDbArc
 50
239.694346
 51
270.0
  0
ARC
  5
3AA
330
18
100
AcDbEntity
  8
0
100
AcDbCircle
 10
3.975995
 20
5.776392
 30
0.0
 40
0.007369
100
AcDbArc
 50
270.0
 51
300.305654
  0
ARC
  5
3AB
330
18
100
AcDbEntity
  8
0
100
AcDbCircle
 10
3.97401
 20
5.779788
 30
0.0
 40
0.011302
100
AcDbArc
 50
300.305654
 51
324.675524
  0
ARC
  5
3AC
330
18
100
AcDbEntity
  8
0
100
AcDbCircle
 10
3.970874
 20
5.78201
 30
0.0
 40
0.015146
100
AcDbArc
 50
324.675524
 51
343.640647
  0
ARC
  5
3AD
330
18
100
AcDbEntity
  8
0
100
AcDbCircle
 10
3.965921
 20
5.783464
 30
0.0
 40
0.020308
100
AcDbArc
 50
343.640647
 51
0.0
  0
ARC
  5
3AE
330
18
100
AcDbEntity
  8
0
100
AcDbCircle
 10
3.965921
 20
5.783464
 30
0.0
 40
0.020308
100
AcDbArc
 50
0.0
 51
16.359353
  0
ARC
  5
3AF
330
18
100
AcDbEntity
  8
0
100
AcDbCircle
 10
3.970874
 20
5.784918
 30
0.0
 40
0.015146
100
AcDbArc
 50
16.359353
 51
35.324476
  0
ARC
  5
3B0
330
18
100
AcDbEntity
  8
0
100
AcDbCircle
 10
3.97401
 20
5.787141
 30
0.0
 40
0.011302
100
AcDbArc
 50
35.324476
 51
59.694346
  0
ARC
  5
3B1
330
18
100
AcDbEntity
  8
0
100
AcDbCircle
 10
3.975995
 20
5.790536
 30
0.0
 40
0.007369
100
AcDbArc
 50
59.694346
 51
90.0
  0
SOLID
  5
3B2
330
18
100
AcDbEntity
  8
0
100
AcDbTrace
 10
3.332173000000001
 20
6.273529
 30
0.0
 11
3.308261
 21
6.33576
 31
0.0
 12
3.133525
 22
6.23291
 32
0.0
 13
3.133525
 23
6.23291
 33
0.0
  0
ARC
  5
3B3
330
18
100
AcDbEntity
  8
0
100
AcDbCircle
 10
2.883929
 20
5.364666000000001
 30
0.0
 40
0.084352
100
AcDbArc
 50
245.217823
 51
250.511658
  0
ARC
  5
3B4
330
18
100
AcDbEntity
  8
0
100
AcDbCircle
 10
2.929256
 20
5.462844000000001
 30
0.0
 40
0.192489
100
AcDbArc
 50
210.82669
 51
225.977018
  0
ARC
  5
3B5
330
18
100
AcDbEntity
  8
0
100
AcDbCircle
 10
2.807663
 20
5.390283
 30
0.0
 40
0.050891
100
AcDbArc
 50
73.661264
 51
114.638461
  0
ARC
  5
3B6
330
18
100
AcDbEntity
  8
0
100
AcDbCircle
 10
2.741091
 20
5.163195
 30
0.0
 40
0.287536
100
AcDbArc
 50
61.112565
 51
67.92702800000001
  0
ARC
  5
3B7
330
18
100
AcDbEntity
  8
0
100
AcDbCircle
 10
2.807663
 20
5.390283
 30
0.0
 40
0.050891
100
AcDbArc
 50
145.126962
 51
184.974031
  0
ARC
  5
3B8
330
18
100
AcDbEntity
  8
0
100
AcDbCircle
 10
2.929256
 20
5.462844000000001
 30
0.0
 40
0.192489
100
AcDbArc
 50
235.499759
 51
245.217823
  0
ARC
  5
3B9
330
18
100
AcDbEntity
  8
0
100
AcDbCircle
 10
2.883929
 20
5.364666000000001
 30
0.0
 40
0.084352
100
AcDbArc
 50
267.275622
 51
298.883318
  0
ARC
  5
3BA
330
18
100
AcDbEntity
  8
0
100
AcDbCircle
 10
2.883929
 20
5.364666000000001
 30
0.0
 40
0.084352
100
AcDbArc
 50
319.301821
 51
343.024759
  0
LINE
  5
3BB
330
18
100
AcDbEntity
  8
0
100
AcDbLine
 10
2.602845
 20
4.691127
 30
0.0
 11
4.828018
 21
7.565607000000001
 31
0.0
  0
ARC
  5
3BC
330
18
100
AcDbEntity
  8
0
100
AcDbCircle
 10
6.720617999999999
 20
4.146798
 30
0.0
 40
0.192489
100
AcDbArc
 50
210.82669
 51
225.977018
  0
ARC
  5
3BD
330
18
100
AcDbEntity
  8
0
100
AcDbCircle
 10
6.720617999999999
 20
4.146798
 30
0.0
 40
0.192489
100
AcDbArc
 50
235.499759
 51
245.217823
  0
ARC
  5
3BE
330
18
100
AcDbEntity
  8
0
100
AcDbCircle
 10
6.67529
 20
4.04862
 30
0.0
 40
0.084352
100
AcDbArc
 50
319.301821
 51
343.024759
  0
ARC
  5
3BF
330
18
100
AcDbEntity
  8
0
100
AcDbCircle
 10
6.67529
 20
4.04862
 30
0.0
 40
0.084352
100
AcDbArc
 50
267.275622
 51
298.883318
  0
ARC
  5
3C0
330
18
100
AcDbEntity
  8
0
100
AcDbCircle
 10
6.67529
 20
4.04862
 30
0.0
 40
0.084352
100
AcDbArc
 50
245.217823
 51
250.511658
  0
ARC
  5
3C1
330
18
100
AcDbEntity
  8
0
100
AcDbCircle
 10
6.599025
 20
4.074237
 30
0.0
 40
0.050891
100
AcDbArc
 50
145.126962
 51
184.974031
  0
ARC
  5
3C2
330
18
100
AcDbEntity
  8
0
100
AcDbCircle
 10
6.599025
 20
4.074237
 30
0.0
 40
0.050891
100
AcDbArc
 50
73.661264
 51
114.638461
  0
ARC
  5
3C3
330
18
100
AcDbEntity
  8
0
100
AcDbCircle
 10
6.532453
 20
3.847149
 30
0.0
 40
0.287536
100
AcDbArc
 50
61.112565
 51
67.92702800000001
  0
LINE
  5
3C4
330
18
100
AcDbEntity
  8
0
  6
HIDDEN
100
AcDbLine
 10
6.388579
 20
5.402778
 30
0.0
 11
6.663392999999999
 21
5.617678
 31
0.0
  0
ARC
  5
3C5
330
18
100
AcDbEntity
  8
0
100
AcDbCircle
 10
6.075844999999999
 20
4.877455
 30
0.0
 40
0.015305
100
AcDbArc
 50
136.090439
 51
166.056436
  0
ARC
  5
3C6
330
18
100
AcDbEntity
  8
0
100
AcDbCircle
 10
6.083332
 20
4.875596
 30
0.0
 40
0.023018
100
AcDbArc
 50
166.056436
 51
190.396095
  0
ARC
  5
3C7
330
18
100
AcDbEntity
  8
0
100
AcDbCircle
 10
6.090699
 20
4.876948000000001
 30
0.0
 40
0.030509
100
AcDbArc
 50
190.396095
 51
209.518452
  0
ARC
  5
3C8
330
18
100
AcDbEntity
  8
0
100
AcDbCircle
 10
6.099417
 20
4.881883999999999
 30
0.0
 40
0.040528
100
AcDbArc
 50
209.518452
 51
226.090439
  0
ARC
  5
3C9
330
18
100
AcDbEntity
  8
0
100
AcDbCircle
 10
6.099417
 20
4.881883999999999
 30
0.0
 40
0.040528
100
AcDbArc
 50
226.090439
 51
242.662425
  0
ARC
  5
3CA
330
18
100
AcDbEntity
  8
0
100
AcDbCircle
 10
6.094816000000001
 20
4.872984
 30
0.0
 40
0.030509
100
AcDbArc
 50
242.662425
 51
261.784783
  0
ARC
  5
3CB
330
18
100
AcDbEntity
  8
0
100
AcDbCircle
 10
6.093746
 20
4.865571
 30
0.0
 40
0.023018
100
AcDbArc
 50
261.784783
 51
286.124441
  0
ARC
  5
3CC
330
18
100
AcDbEntity
  8
0
100
AcDbCircle
 10
6.095888
 20
4.858161
 30
0.0
 40
0.015305
100
AcDbArc
 50
286.124441
 51
316.090439
  0
ARC
  5
3CD
330
18
100
AcDbEntity
  8
0
100
AcDbCircle
 10
6.095888
 20
4.858161
 30
0.0
 40
0.015305
100
AcDbArc
 50
316.090439
 51
346.056436
  0
ARC
  5
3CE
330
18
100
AcDbEntity
  8
0
100
AcDbCircle
 10
6.088401999999999
 20
4.860019
 30
0.0
 40
0.023018
100
AcDbArc
 50
346.056436
 51
10.396095
  0
ARC
  5
3CF
330
18
100
AcDbEntity
  8
0
100
AcDbCircle
 10
6.081035
 20
4.858668
 30
0.0
 40
0.030509
100
AcDbArc
 50
10.396095
 51
29.518452
  0
ARC
  5
3D0
330
18
100
AcDbEntity
  8
0
100
AcDbCircle
 10
6.072316000000001
 20
4.853731
 30
0.0
 40
0.040528
100
AcDbArc
 50
29.518452
 51
46.090439
  0
ARC
  5
3D1
330
18
100
AcDbEntity
  8
0
100
AcDbCircle
 10
6.072316000000001
 20
4.853731
 30
0.0
 40
0.040528
100
AcDbArc
 50
46.090439
 51
62.66242500000001
  0
ARC
  5
3D2
330
18
100
AcDbEntity
  8
0
100
AcDbCircle
 10
6.076917
 20
4.862631
 30
0.0
 40
0.030509
100
AcDbArc
 50
62.66242500000001
 51
81.78478299999999
  0
ARC
  5
3D3
330
18
100
AcDbEntity
  8
0
100
AcDbCircle
 10
6.077988
 20
4.870044999999999
 30
0.0
 40
0.023018
100
AcDbArc
 50
81.78478299999999
 51
106.124441
  0
ARC
  5
3D4
330
18
100
AcDbEntity
  8
0
100
AcDbCircle
 10
6.075844999999999
 20
4.877455
 30
0.0
 40
0.015305
100
AcDbArc
 50
106.124441
 51
136.090439
  0
LINE
  5
3D5
330
18
100
AcDbEntity
  8
0
100
AcDbLine
 10
8.166408000000001
 20
4.5091
 30
0.0
 11
8.242512
 21
4.590062000000001
 31
0.0
  0
LINE
  5
3D6
330
18
100
AcDbEntity
  8
0
100
AcDbLine
 10
7.895281
 20
4.220665
 30
0.0
 11
8.129838000000001
 21
4.470196
 31
0.0
  0
ARC
  5
3D7
330
18
100
AcDbEntity
  8
0
100
AcDbCircle
 10
8.150253999999999
 20
4.169979
 30
0.0
 40
0.01
100
AcDbArc
 50
186.031757
 51
251.844732
  0
ARC
  5
3D8
330
18
100
AcDbEntity
  8
0
100
AcDbCircle
 10
8.213281
 20
4.149312
 30
0.0
 40
0.01
100
AcDbArc
 50
251.844732
 51
296.587802
  0
ARC
  5
3D9
330
18
100
AcDbEntity
  8
0
100
AcDbCircle
 10
8.192335999999999
 20
4.073826
 30
0.0
 40
0.01
100
AcDbArc
 50
14.954168
 51
72.497013
  0
ARC
  5
3DA
330
18
100
AcDbEntity
  8
0
100
AcDbCircle
 10
8.132437
 20
4.092715
 30
0.0
 40
0.01
100
AcDbArc
 50
72.497013
 51
115.891148
  0
ARC
  5
3DB
330
18
100
AcDbEntity
  8
0
100
AcDbCircle
 10
8.115210000000001
 20
4.106585
 30
0.0
 40
0.01
100
AcDbArc
 50
253.372645
 51
295.891148
  0
ARC
  5
3DC
330
18
100
AcDbEntity
  8
0
100
AcDbCircle
 10
8.22932
 20
4.134974
 30
0.0
 40
0.01
100
AcDbArc
 50
71.88466899999999
 51
116.587802
  0
ARC
  5
3DD
330
18
100
AcDbEntity
  8
0
100
AcDbCircle
 10
8.263254
 20
4.089165
 30
0.0
 40
0.035759
100
AcDbArc
 50
249.347275
 51
356.80648
  0
ARC
  5
3DE
330
18
100
AcDbEntity
  8
0
100
AcDbCircle
 10
8.311844000000001
 20
4.097512
 30
0.0
 40
0.01
100
AcDbArc
 50
271.491551
 51
11.290808
  0
TEXT
  5
3DF
330
18
100
AcDbEntity
  8
0
100
AcDbText
 10
3.82820719047619
 20
2.01633
 30
0.0
 40
0.2
  1
H4
 72
     1
 11
4.037731
 21
2.01633
 31
0.0
100
AcDbText
  0
TEXT
  5
3E0
330
18
100
AcDbEntity
  8
0
100
AcDbText
 10
5.582537238095238
 20
1.7024
 30
0.0
 40
0.2
  1
Two H3
 72
     1
 11
6.144442
 21
1.7024
 31
0.0
100
AcDbText
  0
TEXT
  5
3E1
330
18
100
AcDbEntity
  8
0
100
AcDbText
 10
3.525610095238095
 20
6.612336999999999
 30
0.0
 40
0.2
  1
BP
 72
     1
 11
3.730372
 21
6.612336999999999
 31
0.0
100
AcDbText
  0
TEXT
  5
3E2
330
18
100
AcDbEntity
  8
0
100
AcDbText
 10
7.444428095238094
 20
5.357979
 30
0.0
 40
0.2
  1
BP
 72
     1
 11
7.649189999999999
 21
5.357979
 31
0.0
100
AcDbText
  0
TEXT
  5
3E3
330
18
100
AcDbEntity
  8
0
100
AcDbText
 10
1.108289
 20
1.422183
 30
0.0
 40
0.225
  1
Simpson Strong-Tie
100
AcDbText
  0
TEXT
  5
3E4
330
18
100
AcDbEntity
  8
0
100
AcDbText
 10
1.108289
 20
1.057898
 30
0.0
 40
0.225
  1
Truss/Rafter to
100
AcDbText
  0
TEXT
  5
3E5
330
18
100
AcDbEntity
  8
0
100
AcDbText
 10
5.796155000000001
 20
6.218734
 30
0.0
 40
0.2
  1
F
100
AcDbText
  0
TEXT
  5
3E6
330
18
100
AcDbEntity
  8
0
100
AcDbText
 10
5.943082
 20
6.174338
 30
0.0
 40
0.15
  1
2
100
AcDbText
  0
TEXT
  5
3E7
330
18
100
AcDbEntity
  8
0
100
AcDbText
 10
5.604808
 20
5.880645
 30
0.0
 40
0.15
  1
1
100
AcDbText
  0
TEXT
  5
3E8
330
18
100
AcDbEntity
  8
0
100
AcDbText
 10
5.468132
 20
5.925041
 30
0.0
 40
0.2
  1
F
100
AcDbText
  0
LINE
  5
3E9
330
18
100
AcDbEntity
  8
0
100
AcDbLine
 10
3.443309
 20
5.776838
 30
0.0
 11
1.798045
 21
6.341034000000001
 31
0.0
  0
LINE
  5
3EA
330
18
100
AcDbEntity
  8
0
100
AcDbLine
 10
3.331299
 20
5.632144
 30
0.0
 11
1.798045
 21
6.175944000000001
 31
0.0
  0
LINE
  5
3EB
330
18
100
AcDbEntity
  8
0
100
AcDbLine
 10
1.924192263522617
 20
4.966920307697027
 30
0.0
 11
1.920248480690657
 21
5.039281771338026
 31
0.0
  0
LINE
  5
3EC
330
18
100
AcDbEntity
  8
0
100
AcDbLine
 10
1.920248480690657
 20
5.039281771338026
 30
0.0
 11
1.907852266539096
 21
5.07645253681328
 31
0.0
  0
LINE
  5
3ED
330
18
100
AcDbEntity
  8
0
100
AcDbLine
 10
1.907852266539096
 20
5.07645253681328
 30
0.0
 11
1.920248480690657
 21
5.163184372477229
 31
0.0
  0
LINE
  5
3EE
330
18
100
AcDbEntity
  8
0
100
AcDbLine
 10
1.920248480690657
 20
5.163184372477229
 30
0.0
 11
1.969833411629437
 21
5.200355175118751
 31
0.0
  0
LINE
  5
3EF
330
18
100
AcDbEntity
  8
0
100
AcDbLine
 10
1.969833411629437
 20
5.200355175118751
 30
0.0
 11
1.969833411629437
 21
5.225135710213099
 31
0.0
  0
LINE
  5
3F0
330
18
100
AcDbEntity
  8
0
100
AcDbLine
 10
1.969833411629437
 20
5.225135710213099
 30
0.0
 11
1.982229625780998
 21
5.2870870107827
 31
0.0
  0
LINE
  5
3F1
330
18
100
AcDbEntity
  8
0
100
AcDbLine
 10
1.982229625780998
 20
5.2870870107827
 30
0.0
 11
1.982229625780998
 21
5.349038311352302
 31
0.0
  0
LINE
  5
3F2
330
18
100
AcDbEntity
  8
0
100
AcDbLine
 10
1.982229625780998
 20
5.349038311352302
 30
0.0
 11
1.957437160311608
 21
5.386209113993823
 31
0.0
  0
LINE
  5
3F3
330
18
100
AcDbEntity
  8
0
100
AcDbLine
 10
1.957437160311608
 20
5.386209113993823
 30
0.0
 11
1.920248480690657
 21
5.448160414563425
 31
0.0
  0
LINE
  5
3F4
330
18
100
AcDbEntity
  8
0
100
AcDbLine
 10
1.920248480690657
 20
5.448160414563425
 30
0.0
 11
1.920248480690657
 21
5.510111752299294
 31
0.0
  0
LINE
  5
3F5
330
18
100
AcDbEntity
  8
0
100
AcDbLine
 10
1.920248480690657
 20
5.510111752299294
 30
0.0
 11
1.945040946160047
 21
5.609233855510418
 31
0.0
  0
LINE
  5
3F6
330
18
100
AcDbEntity
  8
0
100
AcDbLine
 10
1.945040946160047
 20
5.609233855510418
 30
0.0
 11
1.969833411629437
 21
5.695965691174367
 31
0.0
  0
LINE
  5
3F7
330
18
100
AcDbEntity
  8
0
100
AcDbLine
 10
1.969833411629437
 20
5.695965691174367
 30
0.0
 11
1.957437160311608
 21
5.757916991743969
 31
0.0
  0
LINE
  5
3F8
330
18
100
AcDbEntity
  8
0
100
AcDbLine
 10
1.957437160311608
 20
5.757916991743969
 30
0.0
 11
1.945040946160047
 21
5.782697526838316
 31
0.0
  0
LINE
  5
3F9
330
18
100
AcDbEntity
  8
0
100
AcDbLine
 10
1.945040946160047
 20
5.782697526838316
 30
0.0
 11
1.902499999999999
 21
5.847512000000002
 31
0.0
  0
LINE
  5
3FA
330
18
100
AcDbEntity
  8
0
100
AcDbLine
 10
5.790762
 20
8.428156494360044
 30
0.0
 11
5.821408142025359
 21
8.417700625813877
 31
0.0
  0
LINE
  5
3FB
330
18
100
AcDbEntity
  8
0
100
AcDbLine
 10
5.821408142025359
 20
8.417700625813877
 30
0.0
 11
5.768381949132754
 21
8.386675860305443
 31
0.0
  0
LINE
  5
3FC
330
18
100
AcDbEntity
  8
0
100
AcDbLine
 10
5.768381949132754
 20
8.386675860305443
 30
0.0
 11
5.792620545531342
 21
8.374075386755505
 31
0.0
  0
LINE
  5
3FD
330
18
100
AcDbEntity
  8
0
100
AcDbLine
 10
7.607603999999999
 20
8.074852832372423
 30
0.0
 11
7.638250142025359
 21
8.064396963826257
 31
0.0
  0
LINE
  5
3FE
330
18
100
AcDbEntity
  8
0
100
AcDbLine
 10
7.638250142025359
 20
8.064396963826257
 30
0.0
 11
7.585223949132754
 21
8.033372198317823
 31
0.0
  0
LINE
  5
3FF
330
18
100
AcDbEntity
  8
0
100
AcDbLine
 10
7.585223949132754
 20
8.033372198317823
 30
0.0
 11
7.609462545531342
 21
8.020771724767885
 31
0.0
  0
LINE
  5
400
330
18
100
AcDbEntity
  8
0
100
AcDbLine
 10
4.775973290381088
 20
6.388518424509234
 30
0.0
 11
4.357111058702815
 21
6.144606649673254
 31
0.0
  0
LINE
  5
401
330
18
100
AcDbEntity
  8
0
100
AcDbLine
 10
4.775973290381088
 20
6.728480408264172
 30
0.0
 11
4.357111058702815
 21
6.484568633428192
 31
0.0
  0
LINE
  5
402
330
18
100
AcDbEntity
  8
0
100
AcDbLine
 10
4.357111058702815
 20
6.484568633428192
 30
0.0
 11
4.357111058702815
 21
6.144606649673254
 31
0.0
  0
LINE
  5
403
330
18
100
AcDbEntity
  8
0
100
AcDbLine
 10
4.775973290381087
 20
6.728480408264172
 30
0.0
 11
4.775973290381088
 21
6.388518424509234
 31
0.0
  0
LINE
  5
404
330
18
100
AcDbEntity
  8
0
100
AcDbLine
 10
4.775973290381087
 20
6.671870625607332
 30
0.0
 11
5.461583999999999
 21
7.606832000000001
 31
0.0
  0
LINE
  5
405
330
18
100
AcDbEntity
  8
0
100
AcDbLine
 10
4.775973290381088
 20
6.664047292958778
 30
0.0
 11
4.719965136749615
 21
6.63143263562192
 31
0.0
  0
LINE
  5
406
330
18
100
AcDbEntity
  8
0
100
AcDbLine
 10
4.775973290381088
 20
6.550522294436425
 30
0.0
 11
4.719965136749615
 21
6.517907637099567
 31
0.0
  0
LINE
  5
407
330
18
100
AcDbEntity
  8
0
100
AcDbLine
 10
4.775973290381088
 20
6.444156522688833
 30
0.0
 11
4.719965136749615
 21
6.411541865351975
 31
0.0
  0
LINE
  5
408
330
18
100
AcDbEntity
  8
0
100
AcDbLine
 10
4.421575207849826
 20
6.502675186881334
 30
0.0
 11
4.378599108418485
 21
6.477649352859904
 31
0.0
  0
LINE
  5
409
330
18
100
AcDbEntity
  8
0
100
AcDbLine
 10
4.521038517483089
 20
6.560594642370326
 30
0.0
 11
4.471306862666458
 21
6.53163491462583
 31
0.0
  0
LINE
  5
40A
330
18
100
AcDbEntity
  8
0
100
AcDbLine
 10
4.620501827116352
 20
6.618514097859319
 30
0.0
 11
4.570770172299722
 21
6.589554370114823
 31
0.0
  0
LINE
  5
40B
330
18
100
AcDbEntity
  8
0
100
AcDbLine
 10
4.719965136749616
 20
6.676433553348312
 30
0.0
 11
4.670233481932984
 21
6.647473825603815
 31
0.0
  0
LINE
  5
40C
330
18
100
AcDbEntity
  8
0
100
AcDbLine
 10
4.670233481932985
 20
6.602472907877424
 30
0.0
 11
4.620501827116352
 21
6.573513180132927
 31
0.0
  0
LINE
  5
40D
330
18
100
AcDbEntity
  8
0
100
AcDbLine
 10
4.570770172299722
 20
6.54455345238843
 30
0.0
 11
4.521038517483089
 21
6.515593724643933
 31
0.0
  0
LINE
  5
40E
330
18
100
AcDbEntity
  8
0
100
AcDbLine
 10
4.471306862666458
 20
6.486633996899438
 30
0.0
 11
4.421575207849826
 21
6.457674269154942
 31
0.0
  0
LINE
  5
40F
330
18
100
AcDbEntity
  8
0
100
AcDbLine
 10
4.378599108418485
 20
6.432648435133513
 30
0.0
 11
4.357111058702815
 21
6.420135518122798
 31
0.0
  0
LINE
  5
410
330
18
100
AcDbEntity
  8
0
100
AcDbLine
 10
4.421575207849826
 20
6.404491383281147
 30
0.0
 11
4.378599108418485
 21
6.379465549259717
 31
0.0
  0
LINE
  5
411
330
18
100
AcDbEntity
  8
0
100
AcDbLine
 10
4.521038517483089
 20
6.462410838770139
 30
0.0
 11
4.471306862666458
 21
6.433451111025643
 31
0.0
  0
LINE
  5
412
330
18
100
AcDbEntity
  8
0
100
AcDbLine
 10
4.620501827116352
 20
6.520330294259132
 30
0.0
 11
4.570770172299722
 21
6.491370566514636
 31
0.0
  0
LINE
  5
413
330
18
100
AcDbEntity
  8
0
100
AcDbLine
 10
4.719965136749616
 20
6.578249749748125
 30
0.0
 11
4.670233481932984
 21
6.549290022003628
 31
0.0
  0
LINE
  5
414
330
18
100
AcDbEntity
  8
0
100
AcDbLine
 10
4.670233481932985
 20
6.488947909355071
 30
0.0
 11
4.620501827116352
 21
6.459988181610575
 31
0.0
  0
LINE
  5
415
330
18
100
AcDbEntity
  8
0
100
AcDbLine
 10
4.570770172299721
 20
6.431028453866078
 30
0.0
 11
4.521038517483089
 21
6.402068726121581
 31
0.0
  0
LINE
  5
416
330
18
100
AcDbEntity
  8
0
100
AcDbLine
 10
4.471306862666458
 20
6.373108998377085
 30
0.0
 11
4.421575207849826
 21
6.344149270632588
 31
0.0
  0
LINE
  5
417
330
18
100
AcDbEntity
  8
0
100
AcDbLine
 10
4.378599108418485
 20
6.319123436611159
 30
0.0
 11
4.357111058702815
 21
6.306610519600445
 31
0.0
  0
LINE
  5
418
330
18
100
AcDbEntity
  8
0
100
AcDbLine
 10
4.421575207849826
 20
6.287898160640867
 30
0.0
 11
4.378599108418485
 21
6.262872326619438
 31
0.0
  0
LINE
  5
419
330
18
100
AcDbEntity
  8
0
100
AcDbLine
 10
4.521038517483089
 20
6.345817616129859
 30
0.0
 11
4.471306862666458
 21
6.316857888385363
 31
0.0
  0
LINE
  5
41A
330
18
100
AcDbEntity
  8
0
100
AcDbLine
 10
4.620501827116352
 20
6.403737071618852
 30
0.0
 11
4.570770172299722
 21
6.374777343874357
 31
0.0
  0
LINE
  5
41B
330
18
100
AcDbEntity
  8
0
100
AcDbLine
 10
4.719965136749616
 20
6.461656527107846
 30
0.0
 11
4.670233481932984
 21
6.432696799363349
 31
0.0
  0
LINE
  5
41C
330
18
100
AcDbEntity
  8
0
100
AcDbLine
 10
4.670233481932985
 20
6.382582137607479
 30
0.0
 11
4.620501827116352
 21
6.353622409862981
 31
0.0
  0
LINE
  5
41D
330
18
100
AcDbEntity
  8
0
100
AcDbLine
 10
4.570770172299721
 20
6.324662682118485
 30
0.0
 11
4.521038517483089
 21
6.295702954373989
 31
0.0
  0
LINE
  5
41E
330
18
100
AcDbEntity
  8
0
100
AcDbLine
 10
4.471306862666458
 20
6.266743226629493
 30
0.0
 11
4.421575207849826
 21
6.237783498884997
 31
0.0
  0
LINE
  5
41F
330
18
100
AcDbEntity
  8
0
100
AcDbLine
 10
4.378599108418485
 20
6.212757664863568
 30
0.0
 11
4.357111058702815
 21
6.200244747852853
 31
0.0
  0
LINE
  5
420
330
18
100
AcDbEntity
  8
0
100
AcDbLine
 10
4.421575207849826
 20
6.196873583815441
 30
0.0
 11
4.378599108418485
 21
6.171847749794012
 31
0.0
  0
LINE
  5
421
330
18
100
AcDbEntity
  8
0
100
AcDbLine
 10
4.521038517483089
 20
6.254793039304434
 30
0.0
 11
4.471306862666458
 21
6.225833311559938
 31
0.0
  0
LINE
  5
422
330
18
100
AcDbEntity
  8
0
100
AcDbLine
 10
4.620501827116352
 20
6.312712494793426
 30
0.0
 11
4.570770172299722
 21
6.283752767048931
 31
0.0
  0
LINE
  5
423
330
18
100
AcDbEntity
  8
0
100
AcDbLine
 10
4.719965136749616
 20
6.37063195028242
 30
0.0
 11
4.670233481932984
 21
6.341672222537923
 31
0.0
  0
LINE
  5
424
330
18
100
AcDbEntity
  8
0
100
AcDbLine
 10
6.741667485829701
 20
5.915959241062975
 30
0.0
 11
6.697178918639543
 21
5.879453478350729
 31
0.0
  0
LINE
  5
425
330
18
100
AcDbEntity
  8
0
100
AcDbLine
 10
6.690667787177279
 20
5.919841921228356
 30
0.0
 11
6.64617921998712
 21
5.88333615851611
 31
0.0
  0
LINE
  5
426
330
18
100
AcDbEntity
  8
0
100
AcDbLine
 10
6.495784577797817
 20
5.878828814522704
 30
0.0
 11
6.45129601060766
 21
5.842323051810458
 31
0.0
  0
LINE
  5
427
330
18
100
AcDbEntity
  8
0
100
AcDbLine
 10
6.79411494080219
 20
5.942531852910172
 30
0.0
 11
6.419412337276389
 21
5.635063997775482
 31
0.0
  0
LINE
  5
428
330
18
100
AcDbEntity
  8
0
100
AcDbLine
 10
6.652690351449385
 20
5.842947715638483
 30
0.0
 11
6.608201784259228
 21
5.806441952926239
 31
0.0
  0
LINE
  5
429
330
18
100
AcDbEntity
  8
0
100
AcDbLine
 10
6.474736082688754
 20
5.696924664789503
 30
0.0
 11
6.436290849081069
 21
5.665377850312424
 31
0.0
  0
LINE
  5
42A
330
18
100
AcDbEntity
  8
0
100
AcDbLine
 10
6.460248812671211
 20
5.786788965786543
 30
0.0
 11
6.421803579063527
 21
5.755242151309465
 31
0.0
  0
LINE
  5
42B
330
18
100
AcDbEntity
  8
0
100
AcDbLine
 10
6.563713217069069
 20
5.769936190213993
 30
0.0
 11
6.519224649878911
 21
5.733430427501748
 31
0.0
  0
LINE
  5
42C
330
18
100
AcDbEntity
  8
0
100
AcDbLine
 10
6.549225947051527
 20
5.859800491211033
 30
0.0
 11
6.504737379861369
 21
5.823294728498788
 31
0.0
  0
LINE
  5
42D
330
18
100
AcDbEntity
  8
0
100
AcDbLine
 10
6.512713518416646
 20
5.773818870379375
 30
0.0
 11
6.468224951226489
 21
5.73731310766713
 31
0.0
  0
LINE
  5
42E
330
18
100
AcDbEntity
  8
0
100
AcDbLine
 10
6.601690652796963
 20
5.846830395803865
 30
0.0
 11
6.557202085606805
 21
5.81032463309162
 31
0.0
  0
LINE
  5
42F
330
18
100
AcDbEntity
  8
0
100
AcDbLine
 10
6.638203081431843
 20
5.932812016635523
 30
0.0
 11
6.593714514241685
 21
5.896306253923279
 31
0.0
  0
LINE
  5
430
330
18
100
AcDbEntity
  8
0
100
AcDbLine
 10
6.683684773232093
 20
6.102513749793077
 30
0.0
 11
6.639196206041936
 21
6.066007987080831
 31
0.0
  0
LINE
  5
431
330
18
100
AcDbEntity
  8
0
100
AcDbLine
 10
6.604019645691427
 20
6.144851314223681
 30
0.0
 11
6.559531078501269
 21
6.108345551511436
 31
0.0
  0
LINE
  5
432
330
18
100
AcDbEntity
  8
0
100
AcDbLine
 10
6.79411494080219
 20
6.322559196893011
 30
0.0
 11
6.419412337276389
 21
6.015091341758322
 31
0.0
  0
LINE
  5
433
330
18
100
AcDbEntity
  8
0
100
AcDbLine
 10
6.505730504471461
 20
5.956490698944096
 30
0.0
 11
6.467285270863777
 21
5.924943884467018
 31
0.0
  0
LINE
  5
434
330
18
100
AcDbEntity
  8
0
100
AcDbLine
 10
6.772626091833673
 20
6.275566914032962
 30
0.0
 11
6.734180858225988
 21
6.244020099555883
 31
0.0
  0
LINE
  5
435
330
18
100
AcDbEntity
  8
0
100
AcDbLine
 10
6.594707638851777
 20
6.029502224368586
 30
0.0
 11
6.550219071661619
 21
5.992996461656341
 31
0.0
  0
LINE
  5
436
330
18
100
AcDbEntity
  8
0
100
AcDbLine
 10
6.515042511311111
 20
6.071839788799189
 30
0.0
 11
6.470553944120953
 21
6.035334026086945
 31
0.0
  0
LINE
  5
437
330
18
100
AcDbEntity
  8
0
100
AcDbLine
 10
6.477716190504035
 20
5.9909067279138
 30
0.0
 11
6.433227623313877
 21
5.954400965201555
 31
0.0
  0
LINE
  5
438
330
18
100
AcDbEntity
  8
0
100
AcDbLine
 10
6.584761712178134
 20
5.951840339947194
 30
0.0
 11
6.540273144987975
 21
5.915334577234948
 31
0.0
  0
LINE
  5
439
330
18
100
AcDbEntity
  8
0
100
AcDbLine
 10
6.566693324884351
 20
6.06391825333829
 30
0.0
 11
6.522204757694193
 21
6.027412490626044
 31
0.0
  0
LINE
  5
43A
330
18
100
AcDbEntity
  8
0
100
AcDbLine
 10
6.785259704340764
 20
5.997460741086202
 30
0.0
 11
6.735156354367436
 21
5.9563476839406
 31
0.0
  0
LINE
  5
43B
330
18
100
AcDbEntity
  8
0
100
AcDbLine
 10
6.768330763721935
 20
6.102470685229531
 30
0.0
 11
6.718227413748607
 21
6.06135762808393
 31
0.0
  0
LINE
  5
43C
330
18
100
AcDbEntity
  8
0
100
AcDbLine
 10
6.750262376428153
 20
6.214548598620628
 30
0.0
 11
6.700159026454824
 21
6.173435541475026
 31
0.0
  0
LINE
  5
43D
330
18
100
AcDbEntity
  8
0
100
AcDbLine
 10
6.77266190761241
 20
6.175525275217567
 30
0.0
 11
6.72817334042225
 21
6.139019512505321
 31
0.0
  0
LINE
  5
43E
330
18
100
AcDbEntity
  8
0
100
AcDbLine
 10
6.655670459264667
 20
6.136929778762781
 30
0.0
 11
6.611181892074509
 21
6.100424016050535
 31
0.0
  0
LINE
  5
43F
330
18
100
AcDbEntity
  8
0
100
AcDbLine
 10
6.67373884655845
 20
6.024851865371685
 30
0.0
 11
6.629250279368291
 21
5.98834610265944
 31
0.0
  0
LINE
  5
440
330
18
100
AcDbEntity
  8
0
100
AcDbLine
 10
6.727180215812159
 20
6.005823542060015
 30
0.0
 11
6.682691648622001
 21
5.969317779347769
 31
0.0
  0
LINE
  5
441
330
18
100
AcDbEntity
  8
0
100
AcDbLine
 10
6.692996780071743
 20
6.217862839648172
 30
0.0
 11
6.648508212881585
 21
6.181357076935925
 31
0.0
  0
LINE
  5
442
330
18
100
AcDbEntity
  8
0
100
AcDbLine
 10
6.79411494080219
 20
6.27311316940111
 30
0.0
 11
7.484458
 21
7.450435000000001
 31
0.0
  0
LINE
  5
443
330
18
100
AcDbEntity
  8
0
100
AcDbLine
 10
6.79411494080219
 20
5.942531852910172
 30
0.0
 11
6.79411494080219
 21
6.322559196893011
 31
0.0
  0
LINE
  5
444
330
18
100
AcDbEntity
  8
0
100
AcDbLine
 10
6.419412337276389
 20
5.635063997775482
 30
0.0
 11
6.419412337276389
 21
6.015091341758322
 31
0.0
  0
TEXT
  5
445
330
18
100
AcDbEntity
  8
0
100
AcDbText
 10
1.108289
 20
0.7129823924086507
 30
0.0
 40
0.225
  1
CMU Single Top Plate
100
AcDbText
  0
ENDSEC
  0
SECTION
  2
OBJECTS
  0
DICTIONARY
  5
C
330
0
100
AcDbDictionary
281
     1
  3
ACAD_COLOR
350
44B
  3
ACAD_GROUP
350
D
  3
ACAD_LAYOUT
350
15
  3
ACAD_MATERIAL
350
44D
  3
ACAD_MLINESTYLE
350
12
  3
ACAD_PLOTSETTINGS
350
14
  3
ACAD_PLOTSTYLENAME
350
E
  3
ACDBHEADERROUNDTRIPXREC
350
44A
  0
DICTIONARY
  5
44B
102
{ACAD_REACTORS
330
C
102
}
330
C
100
AcDbDictionary
281
     1
  0
DICTIONARY
  5
D
102
{ACAD_REACTORS
330
C
102
}
330
C
100
AcDbDictionary
281
     1
  0
DICTIONARY
  5
15
102
{ACAD_REACTORS
330
C
102
}
330
C
100
AcDbDictionary
281
     1
  3
Layout1
350
17
  3
Model
350
19
  0
DICTIONARY
  5
44D
102
{ACAD_REACTORS
330
C
102
}
330
C
100
AcDbDictionary
281
     1
  0
DICTIONARY
  5
12
102
{ACAD_REACTORS
330
C
102
}
330
C
100
AcDbDictionary
281
     1
  3
Standard
350
13
  0
DICTIONARY
  5
14
102
{ACAD_REACTORS
330
C
102
}
330
C
100
AcDbDictionary
281
     1
  0
ACDBDICTIONARYWDFLT
  5
E
102
{ACAD_REACTORS
330
C
102
}
330
C
100
AcDbDictionary
281
     1
  3
Normal
350
F
100
AcDbDictionaryWithDefault
340
F
  0
DICTIONARY
  5
44A
102
{ACAD_REACTORS
330
C
102
}
330
C
100
AcDbDictionary
281
     1
  3
COLORDICT
350
44C
  3
MATERIALDICT
350
44E
  0
LAYOUT
  5
17
102
{ACAD_REACTORS
330
15
102
}
102
{ACAD_XDICTIONARY
360
44F
102
}
330
15
100
AcDbPlotSettings
  1

  2

  4

  6

 40
0.0
 41
0.0
 42
0.0
 43
0.0
 44
0.0
 45
0.0
 46
0.0
 47
0.0
 48
0.0
 49
0.0
140
0.0
141
0.0
142
1.0
143
1.0
 70
   688
 72
     0
 73
     0
 74
     5
  7

 75
    16
147
1.0
148
0.0
149
0.0
100
AcDbLayout
  1
Layout1
 70
     1
 71
     1
 10
0.0
 20
0.0
 11
12.0
 21
9.0
 12
0.0
 22
0.0
 32
0.0
 14
1.000000000000000E+20
 24
1.000000000000000E+20
 34
1.000000000000000E+20
 15
-1.000000000000000E+20
 25
-1.000000000000000E+20
 35
-1.000000000000000E+20
146
0.0
 13
0.0
 23
0.0
 33
0.0
 16
1.0
 26
0.0
 36
0.0
 17
0.0
 27
1.0
 37
0.0
 76
     0
330
16
  0
LAYOUT
  5
19
102
{ACAD_REACTORS
330
15
102
}
102
{ACAD_XDICTIONARY
360
451
102
}
330
15
100
AcDbPlotSettings
  1

  2

  4

  6

 40
0.0
 41
0.0
 42
0.0
 43
0.0
 44
0.0
 45
0.0
 46
0.0
 47
0.0
 48
0.0
 49
0.0
140
0.0
141
0.0
142
1.0
143
1.0
 70
  1712
 72
     0
 73
     0
 74
     0
  7

 75
     0
147
1.0
148
0.0
149
0.0
100
AcDbLayout
  1
Model
 70
     1
 71
     0
 10
0.0
 20
0.0
 11
0.0
 21
0.0
 12
0.0
 22
0.0
 32
0.0
 14
0.0
 24
0.0
 34
0.0
 15
0.0
 25
0.0
 35
0.0
146
0.0
 13
0.0
 23
0.0
 33
0.0
 16
1.0
 26
0.0
 36
0.0
 17
0.0
 27
1.0
 37
0.0
 76
     0
330
18
  0
MLINESTYLE
  5
13
102
{ACAD_REACTORS
330
12
102
}
330
12
100
AcDbMlineStyle
  2
Standard
 70
     0
  3

 62
   256
 51
90.0
 52
90.0
 71
     2
 49
0.5
 62
   256
  6
BYLAYER
 49
-0.5
 62
   256
  6
BYLAYER
  0
ACDBPLACEHOLDER
  5
F
102
{ACAD_REACTORS
330
E
102
}
330
E
  0
XRECORD
  5
44C
102
{ACAD_REACTORS
330
44A
102
}
330
44A
100
AcDbXrecord
340
44B
  0
XRECORD
  5
44E
102
{ACAD_REACTORS
330
44A
102
}
330
44A
100
AcDbXrecord
340
44D
  0
DICTIONARY
  5
44F
330
17
100
AcDbDictionary
280
     1
281
     1
  3
ACAD_XREC_ROUNDTRIP
360
450
  0
DICTIONARY
  5
451
330
19
100
AcDbDictionary
280
     1
281
     1
  3
ACAD_XREC_ROUNDTRIP
360
452
  0
XRECORD
  5
450
102
{ACAD_REACTORS
330
44F
102
}
330
44F
100
AcDbXrecord
102
SHADEPLOT
 70
     0
102
SHADEPLOTRESLEVEL
 70
     0
102
SHADEPLOTCUSTOMDPI
 70
     0
  0
XRECORD
  5
452
102
{ACAD_REACTORS
330
451
102
}
330
451
100
AcDbXrecord
102
SHADEPLOT
 70
     0
102
SHADEPLOTRESLEVEL
 70
     0
102
SHADEPLOTCUSTOMDPI
 70
     0
  0
ENDSEC
  0
EOF
