  0
SECTION
  2
HEADER
  9
$ACADVER
  1
AC1015
  9
$ACADMAINTVER
 70
     6
  9
$DWGCODEPAGE
  3
ASCII
  9
$INSBASE
 10
0.0
 20
0.0
 30
0.0
  9
$EXTMIN
 10
0.768493
 20
2.11922033333334
 30
0.0
  9
$EXTMAX
 10
10.35031363754197
 20
9.105537
 30
0.0
  9
$LIMMIN
 10
0.0
 20
0.0
  9
$LIMMAX
 10
8.5
 20
11.0
  9
$ORTHOMODE
 70
     1
  9
$REGENMODE
 70
     0
  9
$FILLMODE
 70
     1
  9
$QTEXTMODE
 70
     0
  9
$MIRRTEXT
 70
     1
  9
$LTSCALE
 40
0.2
  9
$ATTMODE
 70
     1
  9
$TEXTSIZE
 40
0.2
  9
$TRACEWID
 40
0.05
  9
$TEXTSTYLE
  7
STANDARD
  9
$CLAYER
  8
0
  9
$CELTYPE
  6
ByLayer
  9
$CECOLOR
 62
   256
  9
$CELTSCALE
 40
1.0
  9
$DISPSILH
 70
     0
  9
$DIMSCALE
 40
1.0
  9
$DIMASZ
 40
0.2
  9
$DIMEXO
 40
0.0625
  9
$DIMDLI
 40
0.38
  9
$DIMRND
 40
0.0
  9
$DIMDLE
 40
0.0
  9
$DIMEXE
 40
0.075
  9
$DIMTP
 40
0.0
  9
$DIMTM
 40
0.0
  9
$DIMTXT
 40
0.1
  9
$DIMCEN
 40
0.09
  9
$DIMTSZ
 40
0.0
  9
$DIMTOL
 70
     0
  9
$DIMLIM
 70
     0
  9
$DIMTIH
 70
     0
  9
$DIMTOH
 70
     0
  9
$DIMSE1
 70
     0
  9
$DIMSE2
 70
     0
  9
$DIMTAD
 70
     1
  9
$DIMZIN
 70
     0
  9
$DIMBLK
  1

  9
$DIMASO
 70
     0
  9
$DIMSHO
 70
     1
  9
$DIMPOST
  1

  9
$DIMAPOST
  1

  9
$DIMALT
 70
     0
  9
$DIMALTD
 70
     2
  9
$DIMALTF
 40
25.4
  9
$DIMLFAC
 40
1.0
  9
$DIMTOFL
 70
     0
  9
$DIMTVP
 40
0.0
  9
$DIMTIX
 70
     0
  9
$DIMSOXD
 70
     0
  9
$DIMSAH
 70
     0
  9
$DIMBLK1
  1

  9
$DIMBLK2
  1

  9
$DIMSTYLE
  2
Standard
  9
$DIMCLRD
 70
     0
  9
$DIMCLRE
 70
     0
  9
$DIMCLRT
 70
     0
  9
$DIMTFAC
 40
1.0
  9
$DIMGAP
 40
0.09
  9
$DIMJUST
 70
     0
  9
$DIMSD1
 70
     0
  9
$DIMSD2
 70
     0
  9
$DIMTOLJ
 70
     1
  9
$DIMTZIN
 70
     0
  9
$DIMALTZ
 70
     0
  9
$DIMALTTZ
 70
     0
  9
$DIMUPT
 70
     0
  9
$DIMDEC
 70
     4
  9
$DIMTDEC
 70
     4
  9
$DIMALTU
 70
     2
  9
$DIMALTTD
 70
     2
  9
$DIMTXSTY
  7
STANDARD
  9
$DIMAUNIT
 70
     0
  9
$DIMADEC
 70
     0
  9
$DIMALTRND
 40
0.0
  9
$DIMAZIN
 70
     0
  9
$DIMDSEP
 70
    46
  9
$DIMATFIT
 70
     3
  9
$DIMFRAC
 70
     0
  9
$DIMLDRBLK
  1

  9
$DIMLUNIT
 70
     2
  9
$DIMLWD
 70
    -2
  9
$DIMLWE
 70
    -2
  9
$DIMTMOVE
 70
     0
  9
$LUNITS
 70
     2
  9
$LUPREC
 70
     4
  9
$SKETCHINC
 40
0.1
  9
$FILLETRAD
 40
0.02
  9
$AUNITS
 70
     0
  9
$AUPREC
 70
     0
  9
$MENU
  1
acad
  9
$ELEVATION
 40
0.0
  9
$PELEVATION
 40
0.0
  9
$THICKNESS
 40
0.0
  9
$LIMCHECK
 70
     0
  9
$CHAMFERA
 40
0.0
  9
$CHAMFERB
 40
0.0
  9
$CHAMFERC
 40
1.0
  9
$CHAMFERD
 40
0.0
  9
$SKPOLY
 70
     0
  9
$TDCREATE
 40
2453955.560358935
  9
$TDUCREATE
 40
2453955.893692269
  9
$TDUPDATE
 40
2453955.602025614
  9
$TDUUPDATE
 40
2453955.89369228
  9
$TDINDWG
 40
0.0000000116
  9
$TDUSRTIMER
 40
0.0000000116
  9
$USRTIMER
 70
     1
  9
$ANGBASE
 50
0.0
  9
$ANGDIR
 70
     0
  9
$PDMODE
 70
     0
  9
$PDSIZE
 40
0.0
  9
$PLINEWID
 40
0.0
  9
$SPLFRAME
 70
     0
  9
$SPLINETYPE
 70
     6
  9
$SPLINESEGS
 70
     8
  9
$HANDSEED
  5
5CB
  9
$SURFTAB1
 70
     6
  9
$SURFTAB2
 70
     6
  9
$SURFTYPE
 70
     6
  9
$SURFU
 70
     6
  9
$SURFV
 70
     6
  9
$UCSBASE
  2

  9
$UCSNAME
  2

  9
$UCSORG
 10
0.0
 20
0.0
 30
0.0
  9
$UCSXDIR
 10
1.0
 20
0.0
 30
0.0
  9
$UCSYDIR
 10
0.0
 20
1.0
 30
0.0
  9
$UCSORTHOREF
  2

  9
$UCSORTHOVIEW
 70
     0
  9
$UCSORGTOP
 10
0.0
 20
0.0
 30
0.0
  9
$UCSORGBOTTOM
 10
0.0
 20
0.0
 30
0.0
  9
$UCSORGLEFT
 10
0.0
 20
0.0
 30
0.0
  9
$UCSORGRIGHT
 10
0.0
 20
0.0
 30
0.0
  9
$UCSORGFRONT
 10
0.0
 20
0.0
 30
0.0
  9
$UCSORGBACK
 10
0.0
 20
0.0
 30
0.0
  9
$PUCSBASE
  2

  9
$PUCSNAME
  2

  9
$PUCSORG
 10
0.0
 20
0.0
 30
0.0
  9
$PUCSXDIR
 10
1.0
 20
0.0
 30
0.0
  9
$PUCSYDIR
 10
0.0
 20
1.0
 30
0.0
  9
$PUCSORTHOREF
  2

  9
$PUCSORTHOVIEW
 70
     0
  9
$PUCSORGTOP
 10
0.0
 20
0.0
 30
0.0
  9
$PUCSORGBOTTOM
 10
0.0
 20
0.0
 30
0.0
  9
$PUCSORGLEFT
 10
0.0
 20
0.0
 30
0.0
  9
$PUCSORGRIGHT
 10
0.0
 20
0.0
 30
0.0
  9
$PUCSORGFRONT
 10
0.0
 20
0.0
 30
0.0
  9
$PUCSORGBACK
 10
0.0
 20
0.0
 30
0.0
  9
$USERI1
 70
     0
  9
$USERI2
 70
     0
  9
$USERI3
 70
     0
  9
$USERI4
 70
     0
  9
$USERI5
 70
     0
  9
$USERR1
 40
0.0
  9
$USERR2
 40
0.0
  9
$USERR3
 40
0.0
  9
$USERR4
 40
0.0
  9
$USERR5
 40
0.0
  9
$WORLDVIEW
 70
     1
  9
$SHADEDGE
 70
     3
  9
$SHADEDIF
 70
    70
  9
$TILEMODE
 70
     1
  9
$MAXACTVP
 70
    16
  9
$PINSBASE
 10
0.0
 20
0.0
 30
0.0
  9
$PLIMCHECK
 70
     0
  9
$PEXTMIN
 10
1.000000000000000E+20
 20
1.000000000000000E+20
 30
1.000000000000000E+20
  9
$PEXTMAX
 10
-1.000000000000000E+20
 20
-1.000000000000000E+20
 30
-1.000000000000000E+20
  9
$PLIMMIN
 10
0.0
 20
0.0
  9
$PLIMMAX
 10
12.0
 20
9.0
  9
$UNITMODE
 70
     0
  9
$VISRETAIN
 70
     0
  9
$PLINEGEN
 70
     0
  9
$PSLTSCALE
 70
     1
  9
$TREEDEPTH
 70
  3020
  9
$CMLSTYLE
  2
Standard
  9
$CMLJUST
 70
     0
  9
$CMLSCALE
 40
1.0
  9
$PROXYGRAPHICS
 70
     1
  9
$MEASUREMENT
 70
     0
  9
$CELWEIGHT
370
    -1
  9
$ENDCAPS
280
     0
  9
$JOINSTYLE
280
     0
  9
$LWDISPLAY
290
     0
  9
$INSUNITS
 70
     1
  9
$HYPERLINKBASE
  1

  9
$STYLESHEET
  1

  9
$XEDIT
290
     1
  9
$CEPSNTYPE
380
     0
  9
$PSTYLEMODE
290
     0
  9
$FINGERPRINTGUID
  2
{FAEB1C30-E019-11D5-929B-00C0DF256EC4}
  9
$VERSIONGUID
  2
{FAEB1C32-E019-11D5-929B-00C0DF256EC4}
  9
$EXTNAMES
290
     1
  9
$PSVPSCALE
 40
0.0
  9
$OLESTARTUP
290
     0
  0
ENDSEC
  0
SECTION
  2
CLASSES
  0
CLASS
  1
ACDBDICTIONARYWDFLT
  2
AcDbDictionaryWithDefault
  3
AutoCAD 2000
 90
        0
280
     0
281
     0
  0
CLASS
  1
ACDBPLACEHOLDER
  2
AcDbPlaceHolder
  3
ObjectDBX Classes
 90
        0
280
     0
281
     0
  0
CLASS
  1
LAYOUT
  2
AcDbLayout
  3
ObjectDBX Classes
 90
        0
280
     0
281
     0
  0
ENDSEC
  0
SECTION
  2
TABLES
  0
TABLE
  2
VPORT
  5
8
330
0
100
AcDbSymbolTable
 70
     2
  0
VPORT
  5
1F
330
8
100
AcDbSymbolTableRecord
100
AcDbViewportTableRecord
  2
*ACTIVE
 70
     0
 10
0.0
 20
0.0
 11
1.0
 21
1.0
 12
6.039284207391206
 22
5.591950464396287
 13
0.0
 23
0.0
 14
1.0
 24
1.0
 15
0.0
 25
0.0
 16
0.0
 26
0.0
 36
1.0
 17
0.0
 27
0.0
 37
0.0
 40
8.653851160792335
 41
0.6891025641025641
 42
50.0
 43
0.0
 44
0.0
 50
0.0
 51
0.0
 71
     0
 72
  2000
 73
     1
 74
     0
 75
     0
 76
     0
 77
     0
 78
     0
281
     0
 65
     1
110
0.0
120
0.0
130
0.0
111
1.0
121
0.0
131
0.0
112
0.0
122
1.0
132
0.0
 79
     0
146
0.0
  0
ENDTAB
  0
TABLE
  2
LTYPE
  5
5
330
0
100
AcDbSymbolTable
 70
     2
  0
LTYPE
  5
10
330
5
100
AcDbSymbolTableRecord
100
AcDbLinetypeTableRecord
  2
ByBlock
 70
     0
  3

 72
    65
 73
     0
 40
0.0
  0
LTYPE
  5
11
330
5
100
AcDbSymbolTableRecord
100
AcDbLinetypeTableRecord
  2
ByLayer
 70
     0
  3

 72
    65
 73
     0
 40
0.0
  0
LTYPE
  5
1B
330
5
100
AcDbSymbolTableRecord
100
AcDbLinetypeTableRecord
  2
CONTINUOUS
 70
     0
  3
Solid line
 72
    65
 73
     0
 40
0.0
  0
LTYPE
  5
1C
330
5
100
AcDbSymbolTableRecord
100
AcDbLinetypeTableRecord
  2
HIDDEN
 70
     0
  3
__ __ __ __ __ __ __ __ __ __ __ __ __ __ __ __
 72
    65
 73
     2
 40
0.375
 49
0.25
 74
     0
 49
-0.125
 74
     0
  0
ENDTAB
  0
TABLE
  2
LAYER
  5
2
330
0
100
AcDbSymbolTable
 70
     1
  0
LAYER
  5
1D
330
2
100
AcDbSymbolTableRecord
100
AcDbLayerTableRecord
  2
0
 70
     0
 62
     7
  6
CONTINUOUS
370
    -3
390
F
  0
ENDTAB
  0
TABLE
  2
STYLE
  5
3
330
0
100
AcDbSymbolTable
 70
     1
  0
STYLE
  5
22
330
3
100
AcDbSymbolTableRecord
100
AcDbTextStyleTableRecord
  2
STANDARD
 70
     0
 40
0.0
 41
1.0
 50
0.0
 71
     0
 42
0.2
  3
ROMANS.SHX
  4

  0
ENDTAB
  0
TABLE
  2
VIEW
  5
6
330
0
100
AcDbSymbolTable
 70
     1
  0
VIEW
  5
21
330
6
100
AcDbSymbolTableRecord
100
AcDbViewTableRecord
  2
1
 70
     0
 40
11.0
 10
7.225941000000001
 20
5.5
 41
14.451883
 11
0.0
 21
0.0
 31
1.0
 12
0.0
 22
0.0
 32
0.0
 42
50.0
 43
0.0
 44
0.0
 50
0.0
 71
     0
281
     0
 72
     0
  0
ENDTAB
  0
TABLE
  2
UCS
  5
7
330
0
100
AcDbSymbolTable
 70
     0
  0
ENDTAB
  0
TABLE
  2
APPID
  5
9
330
0
100
AcDbSymbolTable
 70
     1
  0
APPID
  5
20
330
9
100
AcDbSymbolTableRecord
100
AcDbRegAppTableRecord
  2
ACAD
 70
     0
  0
ENDTAB
  0
TABLE
  2
DIMSTYLE
  5
A
330
0
100
AcDbSymbolTable
 70
     1
100
AcDbDimStyleTable
  0
DIMSTYLE
105
23
330
A
100
AcDbSymbolTableRecord
100
AcDbDimStyleTableRecord
  2
Standard
 70
     0
  3

  4

340
22
  0
ENDTAB
  0
TABLE
  2
BLOCK_RECORD
  5
1
330
0
100
AcDbSymbolTable
 70
     0
  0
BLOCK_RECORD
  5
18
330
1
100
AcDbSymbolTableRecord
100
AcDbBlockTableRecord
  2
*Model_Space
340
19
  0
BLOCK_RECORD
  5
16
330
1
100
AcDbSymbolTableRecord
100
AcDbBlockTableRecord
  2
*Paper_Space
340
17
  0
ENDTAB
  0
ENDSEC
  0
SECTION
  2
BLOCKS
  0
BLOCK
  5
5C0
330
18
100
AcDbEntity
  8
0
100
AcDbBlockBegin
  2
*Model_Space
 70
     0
 10
0.0
 20
0.0
 30
0.0
  3
*Model_Space
  1

  4

  0
ENDBLK
  5
5C1
330
18
100
AcDbEntity
  8
0
100
AcDbBlockEnd
  0
BLOCK
  5
5BE
330
16
100
AcDbEntity
 67
     1
  8
0
100
AcDbBlockBegin
  2
*Paper_Space
 70
     0
 10
0.0
 20
0.0
 30
0.0
  3
*Paper_Space
  1

  4

  0
ENDBLK
  5
5BF
330
16
100
AcDbEntity
 67
     1
  8
0
100
AcDbBlockEnd
  0
ENDSEC
  0
SECTION
  2
ENTITIES
  0
TEXT
  5
24
330
18
100
AcDbEntity
  8
0
100
AcDbText
 10
1.087512285714286
 20
4.864955999999999
 30
0.0
 40
0.2
  1
THA218
 41
0.8
 72
     1
 11
1.521798
 21
4.864955999999999
 31
0.0
100
AcDbText
  0
LINE
  5
25
330
18
100
AcDbEntity
  8
0
100
AcDbLine
 10
0.824139
 20
7.358397
 30
0.0
 11
0.9938809999999999
 21
7.324697000000001
 31
0.0
  0
LINE
  5
26
330
18
100
AcDbEntity
  8
0
100
AcDbLine
 10
10.128836
 20
5.511034
 30
0.0
 11
10.128836
 21
5.739156
 31
0.0
  0
LINE
  5
27
330
18
100
AcDbEntity
  8
0
100
AcDbLine
 10
10.128836
 20
5.739156
 30
0.0
 11
8.767671000000002
 21
5.996845981812394
 31
0.0
  0
LINE
  5
28
330
18
100
AcDbEntity
  8
0
100
AcDbLine
 10
0.768493
 20
7.511219000000001
 30
0.0
 11
0.768493
 21
7.652256
 31
0.0
  0
LINE
  5
29
330
18
100
AcDbEntity
  8
0
100
AcDbLine
 10
0.768493
 20
7.652256
 30
0.0
 11
1.159928
 21
7.580205
 31
0.0
  0
LINE
  5
2A
330
18
100
AcDbEntity
  8
0
100
AcDbLine
 10
10.001978
 20
5.95266
 30
0.0
 11
10.001978
 21
5.763172
 31
0.0
  0
LINE
  5
2B
330
18
100
AcDbEntity
  8
0
100
AcDbLine
 10
10.128836
 20
5.739156
 30
0.0
 11
10.189708
 21
5.788626
 31
0.0
  0
LINE
  5
2C
330
18
100
AcDbEntity
  8
0
100
AcDbLine
 10
10.350232
 20
5.690958999999999
 30
0.0
 11
10.350232
 21
5.91908
 31
0.0
  0
LINE
  5
2D
330
18
100
AcDbEntity
  8
0
100
AcDbLine
 10
10.001978
 20
5.95266
 30
0.0
 11
10.066283
 21
6.011663
 31
0.0
  0
LINE
  5
2E
330
18
100
AcDbEntity
  8
0
100
AcDbLine
 10
10.201292
 20
6.13554
 30
0.0
 11
8.896849000000001
 21
6.365176
 31
0.0
  0
LINE
  5
2F
330
18
100
AcDbEntity
  8
0
100
AcDbLine
 10
1.122696
 20
7.73375
 30
0.0
 11
1.041929
 21
7.715167
 31
0.0
  0
LINE
  5
30
330
18
100
AcDbEntity
  8
0
100
AcDbLine
 10
0.824139
 20
7.358397
 30
0.0
 11
0.824139
 21
7.500685000000001
 31
0.0
  0
LINE
  5
31
330
18
100
AcDbEntity
  8
0
100
AcDbLine
 10
2.4289
 20
5.114247
 30
0.0
 11
2.4289
 21
7.039785949812389
 31
0.0
  0
LINE
  5
32
330
18
100
AcDbEntity
  8
0
100
AcDbLine
 10
2.576181
 20
5.057833000000001
 30
0.0
 11
2.576181
 21
7.010545
 31
0.0
  0
LINE
  5
33
330
18
100
AcDbEntity
  8
0
100
AcDbLine
 10
2.860691
 20
5.186291000000001
 30
0.0
 11
2.860691
 21
6.954058
 31
0.0
  0
LINE
  5
34
330
18
100
AcDbEntity
  8
0
100
AcDbLine
 10
3.927229
 20
4.669258
 30
0.0
 11
3.927229
 21
6.742307
 31
0.0
  0
LINE
  5
35
330
18
100
AcDbEntity
  8
0
100
AcDbLine
 10
4.096476
 20
4.622938
 30
0.0
 11
4.096476
 21
6.70870414389687
 31
0.0
  0
LINE
  5
36
330
18
100
AcDbEntity
  8
0
100
AcDbLine
 10
4.368978
 20
4.766106
 30
0.0
 11
4.368978
 21
6.654602000000001
 31
0.0
  0
LINE
  5
37
330
18
100
AcDbEntity
  8
0
100
AcDbLine
 10
6.06958
 20
4.027851999999999
 30
0.0
 11
6.06958
 21
6.316962999999999
 31
0.0
  0
LINE
  5
38
330
18
100
AcDbEntity
  8
0
100
AcDbLine
 10
6.232796
 20
3.98851
 30
0.0
 11
6.232796
 21
6.284557
 31
0.0
  0
LINE
  5
39
330
18
100
AcDbEntity
  8
0
100
AcDbLine
 10
6.47808
 20
4.182583
 30
0.0
 11
6.47808
 21
6.235859
 31
0.0
  0
LINE
  5
3A
330
18
100
AcDbEntity
  8
0
100
AcDbLine
 10
6.06958
 20
4.027851999999999
 30
0.0
 11
6.232796
 21
3.98851
 31
0.0
  0
LINE
  5
3B
330
18
100
AcDbEntity
  8
0
100
AcDbLine
 10
6.232796
 20
3.98851
 30
0.0
 11
6.316865
 21
4.055026
 31
0.0
  0
LINE
  5
3C
330
18
100
AcDbEntity
  8
0
100
AcDbLine
 10
3.927229
 20
4.669258
 30
0.0
 11
4.096476
 21
4.622938
 31
0.0
  0
LINE
  5
3D
330
18
100
AcDbEntity
  8
0
100
AcDbLine
 10
4.096476
 20
4.622938
 30
0.0
 11
4.167689
 21
4.660352
 31
0.0
  0
LINE
  5
3E
330
18
100
AcDbEntity
  8
0
100
AcDbLine
 10
2.4289
 20
5.114247
 30
0.0
 11
2.576181
 21
5.057833000000001
 31
0.0
  0
LINE
  5
3F
330
18
100
AcDbEntity
  8
0
100
AcDbLine
 10
2.576181
 20
5.057833000000001
 30
0.0
 11
2.654691
 21
5.093281
 31
0.0
  0
LINE
  5
40
330
18
100
AcDbEntity
  8
0
100
AcDbLine
 10
2.654691
 20
5.093281
 30
0.0
 11
2.66481
 21
5.15523
 31
0.0
  0
LINE
  5
41
330
18
100
AcDbEntity
  8
0
100
AcDbLine
 10
2.66481
 20
5.15523
 30
0.0
 11
2.752208
 21
5.06556
 31
0.0
  0
LINE
  5
42
330
18
100
AcDbEntity
  8
0
100
AcDbLine
 10
2.752208
 20
5.06556
 30
0.0
 11
2.75975
 21
5.140716
 31
0.0
  0
LINE
  5
43
330
18
100
AcDbEntity
  8
0
100
AcDbLine
 10
2.75975
 20
5.140716
 30
0.0
 11
2.860691
 21
5.186291000000001
 31
0.0
  0
LINE
  5
44
330
18
100
AcDbEntity
  8
0
100
AcDbLine
 10
7.536796000000001
 20
3.607744
 30
0.0
 11
7.536796
 21
6.025660013013215
 31
0.0
  0
LINE
  5
45
330
18
100
AcDbEntity
  8
0
100
AcDbLine
 10
7.741017
 20
3.570571
 30
0.0
 11
7.741016999999999
 21
5.985113788906014
 31
0.0
  0
LINE
  5
46
330
18
100
AcDbEntity
  8
0
100
AcDbLine
 10
7.938249000000001
 20
3.773449
 30
0.0
 11
7.938249000000001
 21
5.945955000000001
 31
0.0
  0
LINE
  5
47
330
18
100
AcDbEntity
  8
0
100
AcDbLine
 10
6.316865
 20
4.055026
 30
0.0
 11
6.339242
 21
4.131995
 31
0.0
  0
LINE
  5
48
330
18
100
AcDbEntity
  8
0
100
AcDbLine
 10
6.339242
 20
4.131995
 30
0.0
 11
6.391624
 21
4.043181
 31
0.0
  0
LINE
  5
49
330
18
100
AcDbEntity
  8
0
100
AcDbLine
 10
6.391624
 20
4.043181
 30
0.0
 11
6.398731
 21
4.1198
 31
0.0
  0
LINE
  5
4A
330
18
100
AcDbEntity
  8
0
100
AcDbLine
 10
6.398731
 20
4.1198
 30
0.0
 11
6.47808
 21
4.182583
 31
0.0
  0
LINE
  5
4B
330
18
100
AcDbEntity
  8
0
100
AcDbLine
 10
6.318543
 20
4.060797
 30
0.0
 11
6.391624
 21
4.043181
 31
0.0
  0
LINE
  5
4C
330
18
100
AcDbEntity
  8
0
100
AcDbLine
 10
6.325552
 20
4.084908
 30
0.0
 11
6.343291000000001
 21
4.054831
 31
0.0
  0
LINE
  5
4D
330
18
100
AcDbEntity
  8
0
100
AcDbLine
 10
7.536796000000001
 20
3.607744
 30
0.0
 11
7.741017
 21
3.570571
 31
0.0
  0
LINE
  5
4E
330
18
100
AcDbEntity
  8
0
100
AcDbLine
 10
7.741017
 20
3.570571
 30
0.0
 11
7.799144999999999
 21
3.630363
 31
0.0
  0
LINE
  5
4F
330
18
100
AcDbEntity
  8
0
100
AcDbLine
 10
7.799144999999999
 20
3.630363
 30
0.0
 11
7.81148
 21
3.706906
 31
0.0
  0
LINE
  5
50
330
18
100
AcDbEntity
  8
0
100
AcDbLine
 10
7.81148
 20
3.706906
 30
0.0
 11
7.882910000000001
 21
3.608167
 31
0.0
  0
LINE
  5
51
330
18
100
AcDbEntity
  8
0
100
AcDbLine
 10
7.882910000000001
 20
3.608167
 30
0.0
 11
7.878547999999999
 21
3.712039
 31
0.0
  0
LINE
  5
52
330
18
100
AcDbEntity
  8
0
100
AcDbLine
 10
7.878547999999999
 20
3.712039
 30
0.0
 11
7.938249000000001
 21
3.773449
 31
0.0
  0
LINE
  5
53
330
18
100
AcDbEntity
  8
0
100
AcDbLine
 10
9.257392999999999
 20
3.115653
 30
0.0
 11
9.257392999999999
 21
5.684051254848378
 31
0.0
  0
LINE
  5
54
330
18
100
AcDbEntity
  8
0
100
AcDbLine
 10
9.451701
 20
3.056432
 30
0.0
 11
9.451701
 21
5.645473
 31
0.0
  0
LINE
  5
55
330
18
100
AcDbEntity
  8
0
100
AcDbLine
 10
9.66663
 20
3.334408
 30
0.0
 11
9.66663
 21
5.602800889279562
 31
0.0
  0
LINE
  5
56
330
18
100
AcDbEntity
  8
0
100
AcDbLine
 10
9.257392999999999
 20
3.115653
 30
0.0
 11
9.451701
 21
3.056432
 31
0.0
  0
LINE
  5
57
330
18
100
AcDbEntity
  8
0
100
AcDbLine
 10
9.451701
 20
3.056432
 30
0.0
 11
9.521089
 21
3.146175
 31
0.0
  0
LINE
  5
58
330
18
100
AcDbEntity
  8
0
100
AcDbLine
 10
9.521089
 20
3.146175
 30
0.0
 11
9.533999
 21
3.23383
 31
0.0
  0
LINE
  5
59
330
18
100
AcDbEntity
  8
0
100
AcDbLine
 10
9.533999
 20
3.23383
 30
0.0
 11
9.594438
 21
3.132044
 31
0.0
  0
LINE
  5
5A
330
18
100
AcDbEntity
  8
0
100
AcDbLine
 10
9.594438
 20
3.132044
 30
0.0
 11
9.608503000000001
 21
3.259231
 31
0.0
  0
LINE
  5
5B
330
18
100
AcDbEntity
  8
0
100
AcDbLine
 10
9.608503000000001
 20
3.259231
 30
0.0
 11
9.66663
 21
3.334408
 31
0.0
  0
LINE
  5
5C
330
18
100
AcDbEntity
  8
0
100
AcDbLine
 10
9.522249
 20
3.154046
 30
0.0
 11
9.594438
 21
3.132044
 31
0.0
  0
LINE
  5
5D
330
18
100
AcDbEntity
  8
0
100
AcDbLine
 10
9.52679
 20
3.184878
 30
0.0
 11
9.550146
 21
3.145543
 31
0.0
  0
LINE
  5
5E
330
18
100
AcDbEntity
  8
0
100
AcDbLine
 10
7.793405
 20
3.624458999999999
 30
0.0
 11
7.882910000000001
 21
3.608167
 31
0.0
  0
LINE
  5
5F
330
18
100
AcDbEntity
  8
0
100
AcDbLine
 10
7.804789
 20
3.665387
 30
0.0
 11
7.840614
 21
3.615865
 31
0.0
  0
LINE
  5
60
330
18
100
AcDbEntity
  8
0
100
AcDbLine
 10
4.167689
 20
4.660352
 30
0.0
 11
4.197051
 21
4.734389
 31
0.0
  0
LINE
  5
61
330
18
100
AcDbEntity
  8
0
100
AcDbLine
 10
4.197051
 20
4.734389
 30
0.0
 11
4.278447
 21
4.644694
 31
0.0
  0
LINE
  5
62
330
18
100
AcDbEntity
  8
0
100
AcDbLine
 10
4.278447
 20
4.644694
 30
0.0
 11
4.298583
 21
4.729122
 31
0.0
  0
LINE
  5
63
330
18
100
AcDbEntity
  8
0
100
AcDbLine
 10
4.298583
 20
4.729122
 30
0.0
 11
4.368978
 21
4.766106
 31
0.0
  0
LINE
  5
64
330
18
100
AcDbEntity
  8
0
100
AcDbLine
 10
4.172931
 20
4.673571
 30
0.0
 11
4.278447
 21
4.644694
 31
0.0
  0
LINE
  5
65
330
18
100
AcDbEntity
  8
0
100
AcDbLine
 10
4.183005000000001
 20
4.698972
 30
0.0
 11
4.217
 21
4.661511
 31
0.0
  0
LINE
  5
66
330
18
100
AcDbEntity
  8
0
100
AcDbLine
 10
2.656171
 20
5.102345
 30
0.0
 11
2.752208
 21
5.06556
 31
0.0
  0
LINE
  5
67
330
18
100
AcDbEntity
  8
0
100
AcDbLine
 10
2.659231
 20
5.121076
 30
0.0
 11
2.690187
 21
5.089316
 31
0.0
  0
LINE
  5
68
330
18
100
AcDbEntity
  8
0
100
AcDbLine
 10
0.9938809999999999
 20
7.435121000000001
 30
0.0
 11
0.9938809999999999
 21
6.974983
 31
0.0
  0
LINE
  5
69
330
18
100
AcDbEntity
  8
0
100
AcDbLine
 10
0.9938809999999999
 20
6.974983
 30
0.0
 11
1.156013
 21
6.929619000000001
 31
0.0
  0
LINE
  5
6A
330
18
100
AcDbEntity
  8
0
100
AcDbLine
 10
1.156013
 20
6.929619000000001
 30
0.0
 11
1.721084
 21
7.452394
 31
0.0
  0
LINE
  5
6B
330
18
100
AcDbEntity
  8
0
100
AcDbLine
 10
3.138135
 20
8.763378999999999
 30
0.0
 11
3.101551
 21
8.906767
 31
0.0
  0
LINE
  5
6C
330
18
100
AcDbEntity
  8
0
100
AcDbLine
 10
3.054763
 20
9.090145
 30
0.0
 11
2.905651
 21
9.105537
 31
0.0
  0
LINE
  5
6D
330
18
100
AcDbEntity
  8
0
100
AcDbLine
 10
2.905651
 20
9.105537
 30
0.0
 11
1.39746
 21
7.787749000000001
 31
0.0
  0
LINE
  5
6E
330
18
100
AcDbEntity
  8
0
100
AcDbLine
 10
1.156013
 20
6.929619000000001
 30
0.0
 11
1.156013
 21
7.395728999999999
 31
0.0
  0
LINE
  5
6F
330
18
100
AcDbEntity
  8
0
100
AcDbLine
 10
1.156013
 20
7.395728999999999
 30
0.0
 11
0.9938809999999999
 21
7.435121000000001
 31
0.0
  0
LINE
  5
70
330
18
100
AcDbEntity
  8
0
100
AcDbLine
 10
1.156013
 20
7.395728999999999
 30
0.0
 11
1.438422
 21
7.647747
 31
0.0
  0
LINE
  5
71
330
18
100
AcDbEntity
  8
0
100
AcDbLine
 10
9.819496000000001
 20
7.51443
 30
0.0
 11
9.962607
 21
7.499013000000001
 31
0.0
  0
LINE
  5
72
330
18
100
AcDbEntity
  8
0
100
AcDbLine
 10
9.962607
 20
7.499013000000001
 30
0.0
 11
9.962607
 21
7.371957000000001
 31
0.0
  0
LINE
  5
73
330
18
100
AcDbEntity
  8
0
100
AcDbLine
 10
9.962607
 20
7.06882
 30
0.0
 11
8.767671
 21
6.279889
 31
0.0
  0
LINE
  5
74
330
18
100
AcDbEntity
  8
0
100
AcDbLine
 10
9.962607
 20
7.499013000000001
 30
0.0
 11
8.900409
 21
6.79772
 31
0.0
  0
LINE
  5
75
330
18
100
AcDbEntity
  8
0
100
AcDbLine
 10
9.819496000000001
 20
7.51443
 30
0.0
 11
8.980777999999999
 21
6.960685000000001
 31
0.0
  0
LINE
  5
76
330
18
100
AcDbEntity
  8
0
100
AcDbLine
 10
8.042904
 20
5.448193
 30
0.0
 11
8.211648
 21
5.401116
 31
0.0
  0
LINE
  5
77
330
18
100
AcDbEntity
  8
0
100
AcDbLine
 10
8.211648
 20
5.401116
 30
0.0
 11
8.211648
 21
6.007328
 31
0.0
  0
LINE
  5
78
330
18
100
AcDbEntity
  8
0
100
AcDbLine
 10
8.211648
 20
6.007328
 30
0.0
 11
9.444545
 21
8.445199000000001
 31
0.0
  0
LINE
  5
79
330
18
100
AcDbEntity
  8
0
100
AcDbLine
 10
9.444545
 20
8.445199000000001
 30
0.0
 11
9.300376
 21
8.474616000000001
 31
0.0
  0
LINE
  5
7A
330
18
100
AcDbEntity
  8
0
100
AcDbLine
 10
9.300376
 20
8.474616000000001
 30
0.0
 11
8.042904
 21
6.054405
 31
0.0
  0
LINE
  5
7B
330
18
100
AcDbEntity
  8
0
100
AcDbLine
 10
8.211648
 20
5.401116
 30
0.0
 11
8.595742
 21
6.179946
 31
0.0
  0
LINE
  5
7C
330
18
100
AcDbEntity
  8
0
100
AcDbLine
 10
9.513232
 20
8.040346000000001
 30
0.0
 11
9.496093999999999
 21
8.141363999999999
 31
0.0
  0
LINE
  5
7D
330
18
100
AcDbEntity
  8
0
100
AcDbLine
 10
9.460666
 20
8.350180999999999
 30
0.0
 11
9.527036000000001
 21
8.332500999999999
 31
0.0
  0
LINE
  5
7E
330
18
100
AcDbEntity
  8
0
100
AcDbLine
 10
9.527036000000001
 20
8.332500999999999
 30
0.0
 11
9.426810000000002
 21
8.136023
 31
0.0
  0
LINE
  5
7F
330
18
100
AcDbEntity
  8
0
100
AcDbLine
 10
9.426810000000002
 20
8.136023
 30
0.0
 11
9.496093999999999
 21
8.141363999999999
 31
0.0
  0
LINE
  5
80
330
18
100
AcDbEntity
  8
0
100
AcDbLine
 10
9.460666
 20
8.350180999999999
 30
0.0
 11
9.444545
 21
8.445199000000001
 31
0.0
  0
LINE
  5
81
330
18
100
AcDbEntity
  8
0
100
AcDbLine
 10
9.962607
 20
7.371957000000001
 30
0.0
 11
10.025219
 21
7.355223
 31
0.0
  0
LINE
  5
82
330
18
100
AcDbEntity
  8
0
100
AcDbLine
 10
10.025219
 20
7.355223
 30
0.0
 11
9.907606
 21
7.251705
 31
0.0
  0
LINE
  5
83
330
18
100
AcDbEntity
  8
0
100
AcDbLine
 10
9.907606
 20
7.251705
 30
0.0
 11
9.962607
 21
7.224935
 31
0.0
  0
LINE
  5
84
330
18
100
AcDbEntity
  8
0
100
AcDbLine
 10
9.962607
 20
7.224935
 30
0.0
 11
9.962607
 21
7.06882
 31
0.0
  0
LINE
  5
85
330
18
100
AcDbEntity
  8
0
100
AcDbLine
 10
8.080582000000002
 20
6.126923000000001
 30
0.0
 11
7.897031
 21
6.161672
 31
0.0
  0
LINE
  5
86
330
18
100
AcDbEntity
  8
0
100
AcDbLine
 10
8.206032
 20
6.523467
 30
0.0
 11
8.206032
 21
6.368374
 31
0.0
  0
LINE
  5
87
330
18
100
AcDbEntity
  8
0
100
AcDbLine
 10
8.206032
 20
6.523467
 30
0.0
 11
8.283646000000001
 21
6.623819
 31
0.0
  0
LINE
  5
88
330
18
100
AcDbEntity
  8
0
100
AcDbLine
 10
8.283646000000001
 20
6.623819
 30
0.0
 11
8.333150999999999
 21
6.613034
 31
0.0
  0
LINE
  5
89
330
18
100
AcDbEntity
  8
0
100
AcDbLine
 10
8.206032
 20
6.486789
 30
0.0
 11
5.88279
 21
6.895776
 31
0.0
  0
LINE
  5
8A
330
18
100
AcDbEntity
  8
0
100
AcDbLine
 10
8.237202999999999
 20
6.484582
 30
0.0
 11
8.314816
 21
6.584934
 31
0.0
  0
LINE
  5
8B
330
18
100
AcDbEntity
  8
0
100
AcDbLine
 10
8.042904
 20
6.054405
 30
0.0
 11
8.042904
 21
5.448193
 31
0.0
  0
LINE
  5
8C
330
18
100
AcDbEntity
  8
0
100
AcDbLine
 10
8.432001
 20
5.847925
 30
0.0
 11
9.133217
 21
5.708705
 31
0.0
  0
LINE
  5
8D
330
18
100
AcDbEntity
  8
0
100
AcDbLine
 10
10.201292
 20
6.13554
 30
0.0
 11
10.201292
 21
5.942504000000001
 31
0.0
  0
LINE
  5
8E
330
18
100
AcDbEntity
  8
0
100
AcDbLine
 10
10.201292
 20
5.942504000000001
 30
0.0
 11
10.163807
 21
5.908777
 31
0.0
  0
LINE
  5
8F
330
18
100
AcDbEntity
  8
0
100
AcDbLine
 10
10.201292
 20
5.942504000000001
 30
0.0
 11
10.350232
 21
5.91908
 31
0.0
  0
LINE
  5
90
330
18
100
AcDbEntity
  8
0
100
AcDbLine
 10
10.066283
 20
6.011663
 30
0.0
 11
10.163807
 21
6.007343
 31
0.0
  0
LINE
  5
91
330
18
100
AcDbEntity
  8
0
100
AcDbLine
 10
10.163807
 20
6.007343
 30
0.0
 11
10.034523
 21
6.065831
 31
0.0
  0
LINE
  5
92
330
18
100
AcDbEntity
  8
0
100
AcDbLine
 10
10.034523
 20
6.065831
 30
0.0
 11
10.12935
 21
6.06953
 31
0.0
  0
LINE
  5
93
330
18
100
AcDbEntity
  8
0
100
AcDbLine
 10
10.12935
 20
6.06953
 30
0.0
 11
10.201292
 21
6.13554
 31
0.0
  0
LINE
  5
94
330
18
100
AcDbEntity
  8
0
100
AcDbLine
 10
10.066283
 20
6.011663
 30
0.0
 11
10.066283
 21
5.82103
 31
0.0
  0
LINE
  5
95
330
18
100
AcDbEntity
  8
0
100
AcDbLine
 10
10.163807
 20
6.007343
 30
0.0
 11
10.163807
 21
5.816711
 31
0.0
  0
LINE
  5
96
330
18
100
AcDbEntity
  8
0
100
AcDbLine
 10
10.066283
 20
5.82103
 30
0.0
 11
10.163807
 21
5.816711
 31
0.0
  0
LINE
  5
97
330
18
100
AcDbEntity
  8
0
100
AcDbLine
 10
10.066283
 20
5.82103
 30
0.0
 11
10.001978
 21
5.763172
 31
0.0
  0
LINE
  5
98
330
18
100
AcDbEntity
  8
0
100
AcDbLine
 10
10.12935
 20
6.06953
 30
0.0
 11
10.12935
 21
6.022932
 31
0.0
  0
LINE
  5
99
330
18
100
AcDbEntity
  8
0
100
AcDbLine
 10
10.189708
 20
5.788626
 30
0.0
 11
10.301661
 21
5.810845
 31
0.0
  0
LINE
  5
9A
330
18
100
AcDbEntity
  8
0
100
AcDbLine
 10
10.301661
 20
5.810845
 30
0.0
 11
10.192412
 21
5.862413
 31
0.0
  0
LINE
  5
9B
330
18
100
AcDbEntity
  8
0
100
AcDbLine
 10
10.192412
 20
5.862413
 30
0.0
 11
10.284639
 21
5.865774
 31
0.0
  0
LINE
  5
9C
330
18
100
AcDbEntity
  8
0
100
AcDbLine
 10
10.284639
 20
5.865774
 30
0.0
 11
10.350232
 21
5.91908
 31
0.0
  0
LINE
  5
9D
330
18
100
AcDbEntity
  8
0
100
AcDbLine
 10
10.301661
 20
5.651486
 30
0.0
 11
10.350232
 21
5.690958999999999
 31
0.0
  0
LINE
  5
9E
330
18
100
AcDbEntity
  8
0
100
AcDbLine
 10
10.189708
 20
5.560504
 30
0.0
 11
10.301661
 21
5.582723000000001
 31
0.0
  0
LINE
  5
9F
330
18
100
AcDbEntity
  8
0
100
AcDbLine
 10
10.128836
 20
5.511034
 30
0.0
 11
10.189708
 21
5.560504
 31
0.0
  0
LINE
  5
A0
330
18
100
AcDbEntity
  8
0
100
AcDbLine
 10
10.301661
 20
5.582723000000001
 30
0.0
 11
10.301661
 21
5.810845
 31
0.0
  0
LINE
  5
A1
330
18
100
AcDbEntity
  8
0
100
AcDbLine
 10
10.284639
 20
5.865774
 30
0.0
 11
10.284639
 21
5.818879
 31
0.0
  0
LINE
  5
A2
330
18
100
AcDbEntity
  8
0
100
AcDbLine
 10
10.189708
 20
5.788626
 30
0.0
 11
10.189708
 21
5.560504
 31
0.0
  0
LINE
  5
A3
330
18
100
AcDbEntity
  8
0
100
AcDbLine
 10
10.104544
 20
6.034154
 30
0.0
 11
10.12935
 21
6.035122
 31
0.0
  0
LINE
  5
A4
330
18
100
AcDbEntity
  8
0
100
AcDbLine
 10
10.255635
 20
5.83257
 30
0.0
 11
10.284639
 21
5.833627
 31
0.0
  0
LINE
  5
A5
330
18
100
AcDbEntity
  8
0
100
AcDbLine
 10
4.858323
 20
6.667752
 30
0.0
 11
4.858323
 21
6.118599
 31
0.0
  0
LINE
  5
A6
330
18
100
AcDbEntity
  8
0
100
AcDbLine
 10
4.858323
 20
6.118599
 30
0.0
 11
5.056833
 21
6.07337
 31
0.0
  0
LINE
  5
A7
330
18
100
AcDbEntity
  8
0
100
AcDbLine
 10
5.056833
 20
6.07337
 30
0.0
 11
5.553287999999999
 21
6.743894
 31
0.0
  0
LINE
  5
A8
330
18
100
AcDbEntity
  8
0
100
AcDbLine
 10
6.73209
 20
8.336010999999999
 30
0.0
 11
6.701136999999999
 21
8.481233999999999
 31
0.0
  0
LINE
  5
A9
330
18
100
AcDbEntity
  8
0
100
AcDbLine
 10
6.645388000000001
 20
8.742791
 30
0.0
 11
6.486330000000001
 21
8.744137
 31
0.0
  0
LINE
  5
AA
330
18
100
AcDbEntity
  8
0
100
AcDbLine
 10
6.486330000000001
 20
8.744137
 30
0.0
 11
5.600409
 21
7.614219
 31
0.0
  0
LINE
  5
AB
330
18
100
AcDbEntity
  8
0
100
AcDbLine
 10
5.056833
 20
6.07337
 30
0.0
 11
5.056833
 21
6.628513000000001
 31
0.0
  0
LINE
  5
AC
330
18
100
AcDbEntity
  8
0
100
AcDbLine
 10
5.056833
 20
6.628513000000001
 30
0.0
 11
4.858323
 21
6.667752
 31
0.0
  0
LINE
  5
AD
330
18
100
AcDbEntity
  8
0
100
AcDbLine
 10
5.056833
 20
6.628513000000001
 30
0.0
 11
5.601453
 21
7.353371000000001
 31
0.0
  0
LINE
  5
AE
330
18
100
AcDbEntity
  8
0
100
AcDbLine
 10
6.668457000000001
 20
8.634560000000001
 30
0.0
 11
6.736923
 21
8.620125999999999
 31
0.0
  0
LINE
  5
AF
330
18
100
AcDbEntity
  8
0
100
AcDbLine
 10
6.736923
 20
8.620125999999999
 30
0.0
 11
6.641419
 21
8.491691000000001
 31
0.0
  0
LINE
  5
B0
330
18
100
AcDbEntity
  8
0
100
AcDbLine
 10
6.641419
 20
8.491691000000001
 30
0.0
 11
6.701136999999999
 21
8.481233999999999
 31
0.0
  0
LINE
  5
B1
330
18
100
AcDbEntity
  8
0
100
AcDbLine
 10
6.668457000000001
 20
8.634560000000001
 30
0.0
 11
6.645388000000001
 21
8.742791
 31
0.0
  0
LINE
  5
B2
330
18
100
AcDbEntity
  8
0
100
AcDbLine
 10
6.01565
 20
7.368371000000001
 30
0.0
 11
7.329314
 21
7.843302
 31
0.0
  0
LINE
  5
B3
330
18
100
AcDbEntity
  8
0
100
AcDbLine
 10
7.329314
 20
7.843302
 30
0.0
 11
7.329314
 21
7.746247
 31
0.0
  0
LINE
  5
B4
330
18
100
AcDbEntity
  8
0
100
AcDbLine
 10
7.329314
 20
7.455133999999999
 30
0.0
 11
5.696644
 21
6.823795
 31
0.0
  0
LINE
  5
B5
330
18
100
AcDbEntity
  8
0
100
AcDbLine
 10
7.329314
 20
7.843302
 30
0.0
 11
7.177192
 21
7.860683
 31
0.0
  0
LINE
  5
B6
330
18
100
AcDbEntity
  8
0
100
AcDbLine
 10
6.088825
 20
7.467204
 30
0.0
 11
7.177192
 21
7.860683
 31
0.0
  0
LINE
  5
B7
330
18
100
AcDbEntity
  8
0
100
AcDbLine
 10
7.329314
 20
7.746247
 30
0.0
 11
7.381857000000001
 21
7.715476
 31
0.0
  0
LINE
  5
B8
330
18
100
AcDbEntity
  8
0
100
AcDbLine
 10
7.381857000000001
 20
7.715476
 30
0.0
 11
7.274234
 21
7.615
 31
0.0
  0
LINE
  5
B9
330
18
100
AcDbEntity
  8
0
100
AcDbLine
 10
7.274234
 20
7.615
 30
0.0
 11
7.329314
 21
7.602230000000001
 31
0.0
  0
LINE
  5
BA
330
18
100
AcDbEntity
  8
0
100
AcDbLine
 10
7.329314
 20
7.602230000000001
 30
0.0
 11
7.329314
 21
7.455133999999999
 31
0.0
  0
LINE
  5
BB
330
18
100
AcDbEntity
  8
0
100
AcDbLine
 10
6.136878
 20
7.366241000000001
 30
0.0
 11
6.136878
 21
7.114145
 31
0.0
  0
LINE
  5
BC
330
18
100
AcDbEntity
  8
0
100
AcDbLine
 10
6.136878
 20
7.114145
 30
0.0
 11
5.792303
 21
6.9917
 31
0.0
  0
LINE
  5
BD
330
18
100
AcDbEntity
  8
0
100
AcDbLine
 10
5.792303
 20
6.9917
 30
0.0
 11
5.792303
 21
7.241762
 31
0.0
  0
LINE
  5
BE
330
18
100
AcDbEntity
  8
0
100
AcDbLine
 10
5.792303
 20
7.241762
 30
0.0
 11
6.136878
 21
7.366241000000001
 31
0.0
  0
LINE
  5
BF
330
18
100
AcDbEntity
  8
0
100
AcDbLine
 10
5.969233
 20
7.305679
 30
0.0
 11
6.73209
 21
8.336010999999999
 31
0.0
  0
LINE
  5
C0
330
18
100
AcDbEntity
  8
0
100
AcDbLine
 10
5.834053
 20
7.055892999999999
 30
0.0
 11
5.897842
 21
7.079826
 31
0.0
  0
LINE
  5
C1
330
18
100
AcDbEntity
  8
0
100
AcDbLine
 10
6.068597000000001
 20
7.1859
 30
0.0
 11
6.020837
 21
7.167471000000001
 31
0.0
  0
LINE
  5
C2
330
18
100
AcDbEntity
  8
0
100
AcDbLine
 10
5.844731
 20
7.134963000000001
 30
0.0
 11
5.899525
 21
7.156544
 31
0.0
  0
LINE
  5
C3
330
18
100
AcDbEntity
  8
0
100
AcDbLine
 10
6.0793
 20
7.258969
 30
0.0
 11
6.031962
 21
7.24187
 31
0.0
  0
LINE
  5
C4
330
18
100
AcDbEntity
  8
0
100
AcDbLine
 10
5.829426
 20
7.207924
 30
0.0
 11
5.877930999999999
 21
7.225368
 31
0.0
  0
LINE
  5
C5
330
18
100
AcDbEntity
  8
0
100
AcDbLine
 10
6.033119999999999
 20
7.281175999999999
 30
0.0
 11
6.060162
 21
7.290901
 31
0.0
  0
LINE
  5
C6
330
18
100
AcDbEntity
  8
0
100
AcDbLine
 10
5.915219
 20
7.238777000000001
 30
0.0
 11
5.976773000000001
 21
7.260913
 31
0.0
  0
LINE
  5
C7
330
18
100
AcDbEntity
  8
0
100
AcDbLine
 10
5.884059
 20
7.188447999999999
 30
0.0
 11
5.835581
 21
7.170937
 31
0.0
  0
LINE
  5
C8
330
18
100
AcDbEntity
  8
0
100
AcDbLine
 10
5.982535
 20
7.224017
 30
0.0
 11
5.925957
 21
7.203581
 31
0.0
  0
LINE
  5
C9
330
18
100
AcDbEntity
  8
0
100
AcDbLine
 10
6.026524
 20
7.128108
 30
0.0
 11
6.08475
 21
7.149955
 31
0.0
  0
LINE
  5
CA
330
18
100
AcDbEntity
  8
0
100
AcDbLine
 10
5.945203
 20
7.097596
 30
0.0
 11
5.987067
 21
7.113303999999999
 31
0.0
  0
LINE
  5
CB
330
18
100
AcDbEntity
  8
0
100
AcDbLine
 10
5.891101
 20
7.117408
 30
0.0
 11
5.845876000000001
 21
7.099956
 31
0.0
  0
LINE
  5
CC
330
18
100
AcDbEntity
  8
0
100
AcDbLine
 10
5.985787
 20
7.153946
 30
0.0
 11
5.922619999999999
 21
7.129569999999999
 31
0.0
  0
LINE
  5
CD
330
18
100
AcDbEntity
  8
0
100
AcDbLine
 10
6.031425
 20
7.208495
 30
0.0
 11
6.083425
 21
7.228975999999999
 31
0.0
  0
LINE
  5
CE
330
18
100
AcDbEntity
  8
0
100
AcDbLine
 10
5.933741
 20
7.170021
 30
0.0
 11
5.993692
 21
7.193633
 31
0.0
  0
LINE
  5
CF
330
18
100
AcDbEntity
  8
0
100
AcDbLine
 10
6.837457000000001
 20
7.039012
 30
0.0
 11
6.837457000000001
 21
6.830926
 31
0.0
  0
LINE
  5
D0
330
18
100
AcDbEntity
  8
0
100
AcDbLine
 10
6.837457000000001
 20
6.830926
 30
0.0
 11
6.724783
 21
6.95052
 31
0.0
  0
LINE
  5
D1
330
18
100
AcDbEntity
  8
0
100
AcDbLine
 10
6.724783
 20
6.95052
 30
0.0
 11
6.837457000000001
 21
7.039012
 31
0.0
  0
LINE
  5
D2
330
18
100
AcDbEntity
  8
0
100
AcDbLine
 10
7.788342
 20
6.900875
 30
0.0
 11
7.788342
 21
6.67077
 31
0.0
  0
LINE
  5
D3
330
18
100
AcDbEntity
  8
0
100
AcDbLine
 10
7.788342
 20
6.67077
 30
0.0
 11
7.923939999999999
 21
6.766388
 31
0.0
  0
LINE
  5
D4
330
18
100
AcDbEntity
  8
0
100
AcDbLine
 10
7.923939999999999
 20
6.766388
 30
0.0
 11
7.788342
 21
6.900875
 31
0.0
  0
LINE
  5
D5
330
18
100
AcDbEntity
  8
0
100
AcDbLine
 10
7.788342
 20
6.815823
 30
0.0
 11
6.837457000000001
 21
6.964969
 31
0.0
  0
LINE
  5
D6
330
18
100
AcDbEntity
  8
0
100
AcDbLine
 10
7.788342
 20
6.755823
 30
0.0
 11
6.837457000000001
 21
6.904969
 31
0.0
  0
SOLID
  5
D7
330
18
100
AcDbEntity
  8
0
100
AcDbTrace
 10
6.837457000000001
 20
6.830926
 30
0.0
 11
6.724783
 21
6.95052
 31
0.0
 12
6.837457000000001
 22
7.039012
 32
0.0
 13
6.837457000000001
 23
7.039012
 33
0.0
  0
SOLID
  5
D8
330
18
100
AcDbEntity
  8
0
100
AcDbTrace
 10
7.788342
 20
6.67077
 30
0.0
 11
7.923939999999999
 21
6.766388
 31
0.0
 12
7.788342
 22
6.900875
 32
0.0
 13
7.788342
 23
6.900875
 33
0.0
  0
SOLID
  5
D9
330
18
100
AcDbEntity
  8
0
100
AcDbTrace
 10
6.837457000000001
 20
6.904969
 30
0.0
 11
7.788342
 21
6.755823
 31
0.0
 12
6.837457000000001
 22
6.964969
 32
0.0
 13
7.788342
 23
6.815823
 33
0.0
  0
LINE
  5
DA
330
18
100
AcDbEntity
  8
0
100
AcDbLine
 10
7.697889999999999
 20
7.246619
 30
0.0
 11
7.697889999999999
 21
6.996548
 31
0.0
  0
LINE
  5
DB
330
18
100
AcDbEntity
  8
0
100
AcDbLine
 10
7.697889999999999
 20
6.996548
 30
0.0
 11
7.585574
 21
7.071099
 31
0.0
  0
LINE
  5
DC
330
18
100
AcDbEntity
  8
0
100
AcDbLine
 10
7.585574
 20
7.071099
 30
0.0
 11
7.697889999999999
 21
7.246619
 31
0.0
  0
LINE
  5
DD
330
18
100
AcDbEntity
  8
0
100
AcDbLine
 10
8.433745
 20
7.584757000000001
 30
0.0
 11
8.433745
 21
7.36372
 31
0.0
  0
LINE
  5
DE
330
18
100
AcDbEntity
  8
0
100
AcDbLine
 10
8.433745
 20
7.36372
 30
0.0
 11
8.539091000000001
 21
7.509164999999999
 31
0.0
  0
LINE
  5
DF
330
18
100
AcDbEntity
  8
0
100
AcDbLine
 10
8.539091000000001
 20
7.509164999999999
 30
0.0
 11
8.433745
 21
7.584757000000001
 31
0.0
  0
LINE
  5
E0
330
18
100
AcDbEntity
  8
0
100
AcDbLine
 10
8.433745
 20
7.504238000000001
 30
0.0
 11
7.697889999999999
 21
7.151583000000001
 31
0.0
  0
LINE
  5
E1
330
18
100
AcDbEntity
  8
0
100
AcDbLine
 10
8.433745
 20
7.444238
 30
0.0
 11
7.697889999999999
 21
7.091583
 31
0.0
  0
SOLID
  5
E2
330
18
100
AcDbEntity
  8
0
100
AcDbTrace
 10
7.697889999999999
 20
6.996548
 30
0.0
 11
7.585574
 21
7.071099
 31
0.0
 12
7.697889999999999
 22
7.246619
 32
0.0
 13
7.697889999999999
 23
7.246619
 33
0.0
  0
SOLID
  5
E3
330
18
100
AcDbEntity
  8
0
100
AcDbTrace
 10
7.697889999999999
 20
7.091583
 30
0.0
 11
8.433745
 21
7.444238
 31
0.0
 12
7.697889999999999
 22
7.151583000000001
 32
0.0
 13
8.433745
 23
7.504238000000001
 33
0.0
  0
SOLID
  5
E4
330
18
100
AcDbEntity
  8
0
100
AcDbTrace
 10
8.433745
 20
7.36372
 30
0.0
 11
8.539091000000001
 21
7.509164999999999
 31
0.0
 12
8.433745
 22
7.584757000000001
 32
0.0
 13
8.433745
 23
7.584757000000001
 33
0.0
  0
LINE
  5
E5
330
18
100
AcDbEntity
  8
0
100
AcDbLine
 10
8.43200020305895
 20
5.847925651565509
 30
0.0
 11
10.128836
 21
5.511034
 31
0.0
  0
LINE
  5
E6
330
18
100
AcDbEntity
  8
0
100
AcDbLine
 10
9.132666
 20
5.927747
 30
0.0
 11
8.767671
 21
5.996846
 31
0.0
  0
LINE
  5
E7
330
18
100
AcDbEntity
  8
0
100
AcDbLine
 10
8.042904
 20
6.054405
 30
0.0
 11
8.211648
 21
6.007328
 31
0.0
  0
LINE
  5
E8
330
18
100
AcDbEntity
  8
0
100
AcDbLine
 10
8.509305
 20
6.4817
 30
0.0
 11
8.590973
 21
6.569064999999999
 31
0.0
  0
LINE
  5
E9
330
18
100
AcDbEntity
  8
0
100
AcDbLine
 10
8.590973
 20
6.569064999999999
 30
0.0
 11
8.701144000000001
 21
6.536507
 31
0.0
  0
LINE
  5
EA
330
18
100
AcDbEntity
  8
0
100
AcDbLine
 10
8.701144000000001
 20
6.536507
 30
0.0
 11
8.761697999999999
 21
6.406712000000001
 31
0.0
  0
LINE
  5
EB
330
18
100
AcDbEntity
  8
0
100
AcDbLine
 10
8.761697999999999
 20
6.406712000000001
 30
0.0
 11
8.761697999999999
 21
5.943619
 31
0.0
  0
LINE
  5
EC
330
18
100
AcDbEntity
  8
0
100
AcDbLine
 10
8.761697999999999
 20
5.943619
 30
0.0
 11
8.679864
 21
5.873198
 31
0.0
  0
LINE
  5
ED
330
18
100
AcDbEntity
  8
0
100
AcDbLine
 10
8.679864
 20
5.873198
 30
0.0
 11
8.464319
 21
5.913458
 31
0.0
  0
LINE
  5
EE
330
18
100
AcDbEntity
  8
0
100
AcDbLine
 10
8.592080000000001
 20
6.527083999999999
 30
0.0
 11
8.592080000000001
 21
6.23099
 31
0.0
  0
LINE
  5
EF
330
18
100
AcDbEntity
  8
0
100
AcDbLine
 10
8.509305
 20
6.4817
 30
0.0
 11
8.509305
 21
6.145593
 31
0.0
  0
LINE
  5
F0
330
18
100
AcDbEntity
  8
0
100
AcDbLine
 10
8.509305
 20
6.145593
 30
0.0
 11
8.581296
 21
6.192735
 31
0.0
  0
LINE
  5
F1
330
18
100
AcDbEntity
  8
0
100
AcDbLine
 10
8.703659
 20
6.654556
 30
0.0
 11
8.993027
 21
6.831805
 31
0.0
  0
LINE
  5
F2
330
18
100
AcDbEntity
  8
0
100
AcDbLine
 10
8.993027
 20
6.831805
 30
0.0
 11
8.993027
 21
6.531698
 31
0.0
  0
LINE
  5
F3
330
18
100
AcDbEntity
  8
0
100
AcDbLine
 10
8.993027
 20
6.531698
 30
0.0
 11
8.767671
 21
6.394492
 31
0.0
  0
LINE
  5
F4
330
18
100
AcDbEntity
  8
0
100
AcDbLine
 10
8.884405000000001
 20
6.76527
 30
0.0
 11
9.513232
 21
8.040346000000001
 31
0.0
  0
ARC
  5
F5
330
18
100
AcDbEntity
  8
0
100
AcDbCircle
 10
8.586774
 20
6.184369
 30
0.0
 40
0.01
100
AcDbArc
 50
333.748967
 51
123.21808
  0
LINE
  5
F6
330
18
100
AcDbEntity
  8
0
100
AcDbLine
 10
8.59253
 20
6.577397
 30
0.0
 11
8.707117
 21
6.543533
 31
0.0
  0
LINE
  5
F7
330
18
100
AcDbEntity
  8
0
100
AcDbLine
 10
8.510862
 20
6.490032
 30
0.0
 11
8.59253
 21
6.577397
 31
0.0
  0
LINE
  5
F8
330
18
100
AcDbEntity
  8
0
100
AcDbLine
 10
8.767671
 20
6.413739
 30
0.0
 11
8.767671
 21
5.950646
 31
0.0
  0
LINE
  5
F9
330
18
100
AcDbEntity
  8
0
100
AcDbLine
 10
8.707117
 20
6.543533
 30
0.0
 11
8.767671
 21
6.413739
 31
0.0
  0
LINE
  5
FA
330
18
100
AcDbEntity
  8
0
100
AcDbLine
 10
8.761697999999999
 20
5.943619
 30
0.0
 11
8.767671
 21
5.950646
 31
0.0
  0
LINE
  5
FB
330
18
100
AcDbEntity
  8
0
100
AcDbLine
 10
8.701144000000001
 20
6.536507
 30
0.0
 11
8.707117
 21
6.543533
 31
0.0
  0
LINE
  5
FC
330
18
100
AcDbEntity
  8
0
100
AcDbLine
 10
8.590973
 20
6.569064999999999
 30
0.0
 11
8.59253
 21
6.577397
 31
0.0
  0
LINE
  5
FD
330
18
100
AcDbEntity
  8
0
100
AcDbLine
 10
8.509305
 20
6.4817
 30
0.0
 11
8.510862
 21
6.490032
 31
0.0
  0
LINE
  5
FE
330
18
100
AcDbEntity
  8
0
100
AcDbLine
 10
8.761697999999999
 20
6.406712000000001
 30
0.0
 11
8.767671
 21
6.413739
 31
0.0
  0
LINE
  5
FF
330
18
100
AcDbEntity
  8
0
100
AcDbLine
 10
8.767671
 20
6.179857
 30
0.0
 11
10.001978
 21
5.95266
 31
0.0
  0
LINE
  5
100
330
18
100
AcDbEntity
  8
0
100
AcDbLine
 10
8.628960000000001
 20
6.332142
 30
0.0
 11
8.712595
 21
6.184436
 31
0.0
  0
ARC
  5
101
330
18
100
AcDbEntity
  8
0
100
AcDbCircle
 10
8.724731
 20
6.191308
 30
0.0
 40
0.013946
100
AcDbArc
 50
209.519806
 51
277.821345
  0
ARC
  5
102
330
18
100
AcDbEntity
  8
0
100
AcDbCircle
 10
8.649991999999999
 20
6.342152
 30
0.0
 40
0.023292
100
AcDbArc
 50
153.075679
 51
205.45147
  0
ARC
  5
103
330
18
100
AcDbEntity
  8
0
100
AcDbCircle
 10
8.724731
 20
6.370816000000001
 30
0.0
 40
0.013946
100
AcDbArc
 50
209.519806
 51
277.821345
  0
LINE
  5
104
330
18
100
AcDbEntity
  8
0
100
AcDbLine
 10
8.628960000000001
 20
6.51165
 30
0.0
 11
8.712595
 21
6.363944
 31
0.0
  0
ARC
  5
105
330
18
100
AcDbEntity
  8
0
100
AcDbCircle
 10
8.649991999999999
 20
6.52166
 30
0.0
 40
0.023292
100
AcDbArc
 50
153.075679
 51
205.45147
  0
LINE
  5
106
330
18
100
AcDbEntity
  8
0
100
AcDbLine
 10
8.703659
 20
6.654556
 30
0.0
 11
8.703659
 21
6.544555
 31
0.0
  0
LINE
  5
107
330
18
100
AcDbEntity
  8
0
100
AcDbLine
 10
8.754713000000001
 20
6.645763000000001
 30
0.0
 11
8.789694000000001
 21
6.666084
 31
0.0
  0
LINE
  5
108
330
18
100
AcDbEntity
  8
0
100
AcDbLine
 10
8.942501
 20
6.712558000000001
 30
0.0
 11
8.896299000000001
 21
6.683449
 31
0.0
  0
LINE
  5
109
330
18
100
AcDbEntity
  8
0
100
AcDbLine
 10
8.757092
 20
6.553742
 30
0.0
 11
8.798027000000001
 21
6.579130999999999
 31
0.0
  0
LINE
  5
10A
330
18
100
AcDbEntity
  8
0
100
AcDbLine
 10
8.938845000000001
 20
6.628514
 30
0.0
 11
8.907017999999999
 21
6.608077000000001
 31
0.0
  0
LINE
  5
10B
330
18
100
AcDbEntity
  8
0
100
AcDbLine
 10
8.765382000000001
 20
6.483753
 30
0.0
 11
8.788814
 21
6.497783999999999
 31
0.0
  0
LINE
  5
10C
330
18
100
AcDbEntity
  8
0
100
AcDbLine
 10
8.948177000000001
 20
6.548526
 30
0.0
 11
8.918032
 21
6.530092
 31
0.0
  0
LINE
  5
10D
330
18
100
AcDbEntity
  8
0
100
AcDbLine
 10
8.79551
 20
6.455168000000001
 30
0.0
 11
8.778547
 21
6.444794
 31
0.0
  0
LINE
  5
10E
330
18
100
AcDbEntity
  8
0
100
AcDbLine
 10
8.888750999999999
 20
6.512186
 30
0.0
 11
8.844828999999999
 21
6.485327
 31
0.0
  0
LINE
  5
10F
330
18
100
AcDbEntity
  8
0
100
AcDbLine
 10
8.914633
 20
6.573124000000001
 30
0.0
 11
8.942005999999999
 21
6.589514
 31
0.0
  0
LINE
  5
110
330
18
100
AcDbEntity
  8
0
100
AcDbLine
 10
8.844299000000001
 20
6.531008
 30
0.0
 11
8.880805000000001
 21
6.552867
 31
0.0
  0
LINE
  5
111
330
18
100
AcDbEntity
  8
0
100
AcDbLine
 10
8.789911999999999
 20
6.532876
 30
0.0
 11
8.763249999999999
 21
6.515755
 31
0.0
  0
LINE
  5
112
330
18
100
AcDbEntity
  8
0
100
AcDbLine
 10
8.882616000000001
 20
6.592407000000001
 30
0.0
 11
8.838265
 21
6.563926
 31
0.0
  0
LINE
  5
113
330
18
100
AcDbEntity
  8
0
100
AcDbLine
 10
8.904786999999999
 20
6.645344000000001
 30
0.0
 11
8.935696
 21
6.664514
 31
0.0
  0
LINE
  5
114
330
18
100
AcDbEntity
  8
0
100
AcDbLine
 10
8.841353999999999
 20
6.606002
 30
0.0
 11
8.878667999999999
 21
6.629144999999999
 31
0.0
  0
LINE
  5
115
330
18
100
AcDbEntity
  8
0
100
AcDbLine
 10
8.797613999999999
 20
6.621273
 30
0.0
 11
8.761908
 21
6.598777
 31
0.0
  0
LINE
  5
116
330
18
100
AcDbEntity
  8
0
100
AcDbLine
 10
8.864452999999999
 20
6.663384
 30
0.0
 11
8.837444999999999
 21
6.646367999999999
 31
0.0
  0
LINE
  5
117
330
18
100
AcDbEntity
  8
0
100
AcDbLine
 10
8.897728000000001
 20
6.728842
 30
0.0
 11
8.933346
 21
6.749532
 31
0.0
  0
LINE
  5
118
330
18
100
AcDbEntity
  8
0
100
AcDbLine
 10
8.830015
 20
6.689507000000001
 30
0.0
 11
8.870994
 21
6.713311999999999
 31
0.0
  0
LINE
  5
119
330
18
100
AcDbEntity
  8
0
100
AcDbLine
 10
5.343868
 20
6.461046
 30
0.0
 11
5.57166
 21
6.41582
 31
0.0
  0
LINE
  5
11A
330
18
100
AcDbEntity
  8
0
100
AcDbLine
 10
5.139677
 20
7.026595
 30
0.0
 11
3.960709
 21
7.234141999999999
 31
0.0
  0
LINE
  5
11B
330
18
100
AcDbEntity
  8
0
100
AcDbLine
 10
4.905565
 20
6.728005000000001
 30
0.0
 11
3.798358999999999
 21
6.937616100969122
 31
0.0
  0
LINE
  5
11C
330
18
100
AcDbEntity
  8
0
100
AcDbLine
 10
2.940121
 20
7.047992999999999
 30
0.0
 11
2.940121
 21
6.558772
 31
0.0
  0
LINE
  5
11D
330
18
100
AcDbEntity
  8
0
100
AcDbLine
 10
2.940121
 20
6.558772
 30
0.0
 11
3.104299
 21
6.531496
 31
0.0
  0
LINE
  5
11E
330
18
100
AcDbEntity
  8
0
100
AcDbLine
 10
3.104299
 20
6.531496
 30
0.0
 11
3.630758
 21
7.113777000000001
 31
0.0
  0
LINE
  5
11F
330
18
100
AcDbEntity
  8
0
100
AcDbLine
 10
4.953507
 20
8.576779999999999
 30
0.0
 11
4.925033
 21
8.682300999999999
 31
0.0
  0
LINE
  5
120
330
18
100
AcDbEntity
  8
0
100
AcDbLine
 10
4.866147
 20
8.900528
 30
0.0
 11
4.723011
 21
8.921946999999999
 31
0.0
  0
LINE
  5
121
330
18
100
AcDbEntity
  8
0
100
AcDbLine
 10
4.723011
 20
8.921946999999999
 30
0.0
 11
2.940121
 21
7.047992999999999
 31
0.0
  0
LINE
  5
122
330
18
100
AcDbEntity
  8
0
100
AcDbLine
 10
2.940121
 20
7.047992999999999
 30
0.0
 11
3.104299
 21
7.015252
 31
0.0
  0
LINE
  5
123
330
18
100
AcDbEntity
  8
0
100
AcDbLine
 10
3.104299
 20
6.531496
 30
0.0
 11
3.104299
 21
7.015252
 31
0.0
  0
LINE
  5
124
330
18
100
AcDbEntity
  8
0
100
AcDbLine
 10
3.104299
 20
7.015252
 30
0.0
 11
4.866147
 21
8.900528
 31
0.0
  0
LINE
  5
125
330
18
100
AcDbEntity
  8
0
100
AcDbLine
 10
4.89166
 20
8.805978
 30
0.0
 11
4.950527
 21
8.814847
 31
0.0
  0
LINE
  5
126
330
18
100
AcDbEntity
  8
0
100
AcDbLine
 10
4.950527
 20
8.814847
 30
0.0
 11
4.867035
 21
8.684460000000001
 31
0.0
  0
LINE
  5
127
330
18
100
AcDbEntity
  8
0
100
AcDbLine
 10
4.867035
 20
8.684460000000001
 30
0.0
 11
4.925033
 21
8.682300999999999
 31
0.0
  0
LINE
  5
128
330
18
100
AcDbEntity
  8
0
100
AcDbLine
 10
4.89166
 20
8.805978
 30
0.0
 11
4.866147
 21
8.900528
 31
0.0
  0
LINE
  5
129
330
18
100
AcDbEntity
  8
0
100
AcDbLine
 10
3.745556
 20
7.170595
 30
0.0
 11
5.637219
 21
7.729308000000001
 31
0.0
  0
LINE
  5
12A
330
18
100
AcDbEntity
  8
0
100
AcDbLine
 10
5.637219
 20
7.729308000000001
 30
0.0
 11
5.637219
 21
7.857353
 31
0.0
  0
LINE
  5
12B
330
18
100
AcDbEntity
  8
0
100
AcDbLine
 10
5.637219
 20
8.048425
 30
0.0
 11
4.094086
 21
7.626233
 31
0.0
  0
LINE
  5
12C
330
18
100
AcDbEntity
  8
0
100
AcDbLine
 10
5.637219
 20
8.048425
 30
0.0
 11
5.472723
 21
8.079749000000001
 31
0.0
  0
LINE
  5
12D
330
18
100
AcDbEntity
  8
0
100
AcDbLine
 10
5.472723
 20
8.079749000000001
 30
0.0
 11
4.185779
 21
7.727647999999999
 31
0.0
  0
LINE
  5
12E
330
18
100
AcDbEntity
  8
0
100
AcDbLine
 10
3.797703
 20
7.094672999999999
 30
0.0
 11
3.969201
 21
7.063105999999999
 31
0.0
  0
LINE
  5
12F
330
18
100
AcDbEntity
  8
0
100
AcDbLine
 10
2.982126
 20
7.092142999999999
 30
0.0
 11
2.350681060815836
 21
7.211686051600967
 31
0.0
  0
LINE
  5
130
330
18
100
AcDbEntity
  8
0
100
AcDbLine
 10
3.23823
 20
7.361328
 30
0.0
 11
2.248841924164388
 21
7.535502158556907
 31
0.0
  0
LINE
  5
131
330
18
100
AcDbEntity
  8
0
100
AcDbLine
 10
3.391133
 20
6.848744
 30
0.0
 11
3.967512
 21
6.734309
 31
0.0
  0
LINE
  5
132
330
18
100
AcDbEntity
  8
0
100
AcDbLine
 10
5.637219
 20
7.975345
 30
0.0
 11
5.694319999999999
 21
7.952617
 31
0.0
  0
LINE
  5
133
330
18
100
AcDbEntity
  8
0
100
AcDbLine
 10
5.694319999999999
 20
7.952617
 30
0.0
 11
5.581601
 21
7.875128
 31
0.0
  0
LINE
  5
134
330
18
100
AcDbEntity
  8
0
100
AcDbLine
 10
5.581601
 20
7.875128
 30
0.0
 11
5.637219
 21
7.857353
 31
0.0
  0
LINE
  5
135
330
18
100
AcDbEntity
  8
0
100
AcDbLine
 10
5.637219
 20
7.975345
 30
0.0
 11
5.637219
 21
8.048425
 31
0.0
  0
LINE
  5
136
330
18
100
AcDbEntity
  8
0
100
AcDbLine
 10
2.307815
 20
7.995209
 30
0.0
 11
3.796255
 21
8.300930000000001
 31
0.0
  0
LINE
  5
137
330
18
100
AcDbEntity
  8
0
100
AcDbLine
 10
3.796255
 20
8.300930000000001
 30
0.0
 11
3.947492
 21
8.255537
 31
0.0
  0
LINE
  5
138
330
18
100
AcDbEntity
  8
0
100
AcDbLine
 10
3.947492
 20
8.255537
 30
0.0
 11
3.947492
 21
8.170502000000001
 31
0.0
  0
LINE
  5
139
330
18
100
AcDbEntity
  8
0
100
AcDbLine
 10
3.947492
 20
8.170502000000001
 30
0.0
 11
3.998335
 21
8.160257000000001
 31
0.0
  0
LINE
  5
13A
330
18
100
AcDbEntity
  8
0
100
AcDbLine
 10
3.809996
 20
7.962299000000001
 30
0.0
 11
2.094737
 21
7.570456
 31
0.0
  0
LINE
  5
13B
330
18
100
AcDbEntity
  8
0
100
AcDbLine
 10
1.854722
 20
7.599943
 30
0.0
 11
2.130311
 21
7.66587
 31
0.0
  0
LINE
  5
13C
330
18
100
AcDbEntity
  8
0
100
AcDbLine
 10
2.130311
 20
7.66587
 30
0.0
 11
2.130311
 21
7.839916000000001
 31
0.0
  0
LINE
  5
13D
330
18
100
AcDbEntity
  8
0
100
AcDbLine
 10
2.130311
 20
7.839916000000001
 30
0.0
 11
1.854722
 21
7.786777000000001
 31
0.0
  0
LINE
  5
13E
330
18
100
AcDbEntity
  8
0
100
AcDbLine
 10
1.854722
 20
7.786777000000001
 30
0.0
 11
1.854722
 21
7.599943
 31
0.0
  0
LINE
  5
13F
330
18
100
AcDbEntity
  8
0
100
AcDbLine
 10
1.566624
 20
7.210984
 30
0.0
 11
1.729984
 21
7.17855
 31
0.0
  0
LINE
  5
140
330
18
100
AcDbEntity
  8
0
100
AcDbLine
 10
1.025326
 20
7.462597
 30
0.0
 11
0.768493
 21
7.511219000000001
 31
0.0
  0
LINE
  5
141
330
18
100
AcDbEntity
  8
0
100
AcDbLine
 10
1.848523
 20
7.453456
 30
0.0
 11
2.427591
 21
7.346868
 31
0.0
  0
LINE
  5
142
330
18
100
AcDbEntity
  8
0
100
AcDbLine
 10
2.130311
 20
7.830989999999999
 30
0.0
 11
3.138135
 21
8.763378999999999
 31
0.0
  0
LINE
  5
143
330
18
100
AcDbEntity
  8
0
100
AcDbLine
 10
2.201589
 20
7.896933
 30
0.0
 11
3.947492
 21
8.255537
 31
0.0
  0
LINE
  5
144
330
18
100
AcDbEntity
  8
0
100
AcDbLine
 10
3.076237
 20
9.005981
 30
0.0
 11
3.124156
 21
9.000400000000001
 31
0.0
  0
LINE
  5
145
330
18
100
AcDbEntity
  8
0
100
AcDbLine
 10
3.124156
 20
9.000400000000001
 30
0.0
 11
3.043504
 21
8.909038000000001
 31
0.0
  0
LINE
  5
146
330
18
100
AcDbEntity
  8
0
100
AcDbLine
 10
3.043504
 20
8.909038000000001
 30
0.0
 11
3.101551
 21
8.906767
 31
0.0
  0
LINE
  5
147
330
18
100
AcDbEntity
  8
0
100
AcDbLine
 10
3.076237
 20
9.005981
 30
0.0
 11
3.054763
 21
9.090145
 31
0.0
  0
LINE
  5
148
330
18
100
AcDbEntity
  8
0
100
AcDbLine
 10
0.887329
 20
7.679597
 30
0.0
 11
0.880632
 21
7.729753
 31
0.0
  0
LINE
  5
149
330
18
100
AcDbEntity
  8
0
100
AcDbLine
 10
0.880632
 20
7.729753
 30
0.0
 11
1.075932
 21
7.672536999999999
 31
0.0
  0
LINE
  5
14A
330
18
100
AcDbEntity
  8
0
100
AcDbLine
 10
1.075932
 20
7.672536999999999
 30
0.0
 11
1.041929
 21
7.715167
 31
0.0
  0
LINE
  5
14B
330
18
100
AcDbEntity
  8
0
100
AcDbLine
 10
0.887329
 20
7.679597
 30
0.0
 11
0.768493
 21
7.652256
 31
0.0
  0
LINE
  5
14C
330
18
100
AcDbEntity
  8
0
100
AcDbLine
 10
1.041929
 20
7.715167
 30
0.0
 11
1.041929
 21
7.682499000000001
 31
0.0
  0
TEXT
  5
14D
330
18
100
AcDbEntity
  8
0
100
AcDbText
 10
3.360139761904762
 20
4.051943
 30
0.0
 40
0.2
  1
H2.5
 41
0.8
 72
     1
 11
3.638235
 21
4.051943
 31
0.0
100
AcDbText
  0
LINE
  5
14E
330
18
100
AcDbEntity
  8
0
100
AcDbLine
 10
5.601657
 20
7.612367
 30
0.0
 11
5.712116
 21
7.508957000000001
 31
0.0
  0
LINE
  5
14F
330
18
100
AcDbEntity
  8
0
100
AcDbLine
 10
5.723196
 20
7.483407000000001
 30
0.0
 11
5.723196
 21
7.117335000000001
 31
0.0
  0
LINE
  5
150
330
18
100
AcDbEntity
  8
0
100
AcDbLine
 10
5.719844999999999
 20
7.102389
 30
0.0
 11
5.640273000000001
 21
6.933886
 31
0.0
  0
LINE
  5
151
330
18
100
AcDbEntity
  8
0
100
AcDbLine
 10
5.567223
 20
6.993295
 30
0.0
 11
5.567223
 21
6.781704
 31
0.0
  0
LINE
  5
152
330
18
100
AcDbEntity
  8
0
100
AcDbLine
 10
5.729727
 20
6.39901
 30
0.0
 11
5.729376
 21
6.751496
 31
0.0
  0
LINE
  5
153
330
18
100
AcDbEntity
  8
0
100
AcDbLine
 10
5.725082
 20
6.768257000000001
 30
0.0
 11
5.588283000000001
 21
7.035419999999999
 31
0.0
  0
LINE
  5
154
330
18
100
AcDbEntity
  8
0
100
AcDbLine
 10
5.604021
 20
7.069585000000001
 30
0.0
 11
5.604021
 21
7.340210000000001
 31
0.0
  0
LINE
  5
155
330
18
100
AcDbEntity
  8
0
100
AcDbLine
 10
5.599244000000001
 20
7.357862
 30
0.0
 11
5.514391000000001
 21
7.503139
 31
0.0
  0
LINE
  5
156
330
18
100
AcDbEntity
  8
0
100
AcDbLine
 10
5.601928
 20
7.619903
 30
0.0
 11
5.514774
 21
7.508744999999999
 31
0.0
  0
ARC
  5
157
330
18
100
AcDbEntity
  8
0
100
AcDbCircle
 10
5.605074
 20
7.616017
 30
0.0
 40
0.005
100
AcDbArc
 50
78.137574
 51
82.730726
  0
ARC
  5
158
330
18
100
AcDbEntity
  8
0
100
AcDbCircle
 10
5.605074
 20
7.616017
 30
0.0
 40
0.005
100
AcDbArc
 50
82.730726
 51
226.887931
  0
ARC
  5
159
330
18
100
AcDbEntity
  8
0
100
AcDbCircle
 10
5.518708999999999
 20
7.505660000000001
 30
0.0
 40
0.005
100
AcDbArc
 50
141.901494
 51
210.288074
  0
LINE
  5
15A
330
18
100
AcDbEntity
  8
0
100
AcDbLine
 10
5.513992
 20
7.504002000000001
 30
0.0
 11
4.858323
 21
6.667752
 31
0.0
  0
ARC
  5
15B
330
18
100
AcDbEntity
  8
0
100
AcDbCircle
 10
5.569021
 20
7.340210000000001
 30
0.0
 40
0.035
100
AcDbArc
 50
0.0
 51
30.288074
  0
ARC
  5
15C
330
18
100
AcDbEntity
  8
0
100
AcDbCircle
 10
5.688196
 20
7.483407000000001
 30
0.0
 40
0.035
100
AcDbArc
 50
0.0
 51
46.887931
  0
LINE
  5
15D
330
18
100
AcDbEntity
  8
0
100
AcDbLine
 10
5.716101999999999
 20
7.505963
 30
0.0
 11
6.645388000000001
 21
8.742791
 31
0.0
  0
LINE
  5
15E
330
18
100
AcDbEntity
  8
0
100
AcDbLine
 10
5.630115
 20
7.391519000000001
 30
0.0
 11
5.687440000000001
 21
7.467814999999999
 31
0.0
  0
LINE
  5
15F
330
18
100
AcDbEntity
  8
0
  6
HIDDEN
100
AcDbLine
 10
5.977380999999999
 20
6.501297
 30
0.0
 11
5.972011
 21
6.52611
 31
0.0
  0
ARC
  5
160
330
18
100
AcDbEntity
  8
0
100
AcDbCircle
 10
5.759727
 20
6.39904
 30
0.0
 40
0.03
100
AcDbArc
 50
180.057136
 51
302.331275
  0
LINE
  5
161
330
18
100
AcDbEntity
  8
0
100
AcDbLine
 10
5.591381
 20
6.402094
 30
0.0
 11
5.750433999999999
 21
6.370516
 31
0.0
  0
ARC
  5
162
330
18
100
AcDbEntity
  8
0
100
AcDbCircle
 10
5.597223000000001
 20
6.43152
 30
0.0
 40
0.03
100
AcDbArc
 50
180.0
 51
258.770473
  0
LINE
  5
163
330
18
100
AcDbEntity
  8
0
100
AcDbLine
 10
5.734014
 20
6.383586
 30
0.0
 11
8.042904
 21
5.925176867839863
 31
0.0
  0
LINE
  5
164
330
18
100
AcDbEntity
  8
0
  6
HIDDEN
100
AcDbLine
 10
5.786802
 20
6.380673000000001
 30
0.0
 11
5.977380999999999
 21
6.501297
 31
0.0
  0
LINE
  5
165
330
18
100
AcDbEntity
  8
0
100
AcDbLine
 10
5.567223
 20
6.602742
 30
0.0
 11
5.463341000000001
 21
6.622408999999999
 31
0.0
  0
ARC
  5
166
330
18
100
AcDbEntity
  8
0
100
AcDbCircle
 10
5.617448
 20
6.74172
 30
0.0
 40
0.064196
100
AcDbArc
 50
141.476359
 51
218.523641
  0
LINE
  5
167
330
18
100
AcDbEntity
  8
0
100
AcDbLine
 10
5.567223
 20
6.701736
 30
0.0
 11
5.567223
 21
6.43152
 31
0.0
  0
ARC
  5
168
330
18
100
AcDbEntity
  8
0
100
AcDbCircle
 10
5.694376
 20
6.751461
 30
0.0
 40
0.035
100
AcDbArc
 50
0.057136
 51
28.678555
  0
LINE
  5
169
330
18
100
AcDbEntity
  8
0
100
AcDbLine
 10
5.729388
 20
6.73911
 30
0.0
 11
8.165659
 21
6.290669
 31
0.0
  0
LINE
  5
16A
330
18
100
AcDbEntity
  8
0
100
AcDbLine
 10
5.573126
 20
7.012745
 30
0.0
 11
5.598119000000001
 21
7.050135000000001
 31
0.0
  0
ARC
  5
16B
330
18
100
AcDbEntity
  8
0
100
AcDbCircle
 10
5.569021
 20
7.069585000000001
 30
0.0
 40
0.035
100
AcDbArc
 50
326.239167
 51
0.0
  0
ARC
  5
16C
330
18
100
AcDbEntity
  8
0
100
AcDbCircle
 10
5.602223
 20
6.993295
 30
0.0
 40
0.035
100
AcDbArc
 50
146.239167
 51
180.0
  0
ARC
  5
16D
330
18
100
AcDbEntity
  8
0
100
AcDbCircle
 10
5.688196
 20
7.117335000000001
 30
0.0
 40
0.035
100
AcDbArc
 50
334.722065
 51
0.0
  0
LINE
  5
16E
330
18
100
AcDbEntity
  8
0
100
AcDbLine
 10
5.649108999999999
 20
6.784042
 30
0.0
 11
5.651192
 21
6.764044
 31
0.0
  0
LINE
  5
16F
330
18
100
AcDbEntity
  8
0
100
AcDbLine
 10
5.651192
 20
6.764044
 30
0.0
 11
5.671301000000001
 21
6.739118
 31
0.0
  0
LINE
  5
170
330
18
100
AcDbEntity
  8
0
100
AcDbLine
 10
5.669136
 20
6.779122999999999
 30
0.0
 11
5.654308
 21
6.736047
 31
0.0
  0
LINE
  5
171
330
18
100
AcDbEntity
  8
0
  6
HIDDEN
100
AcDbLine
 10
5.749354
 20
6.489356
 30
0.0
 11
5.845154
 21
6.545768
 31
0.0
  0
LINE
  5
172
330
18
100
AcDbEntity
  8
0
100
AcDbLine
 10
5.662221
 20
6.891022
 30
0.0
 11
5.792303
 21
7.066713
 31
0.0
  0
LINE
  5
173
330
18
100
AcDbEntity
  8
0
100
AcDbLine
 10
8.080582211453011
 20
6.126922894489026
 30
0.0
 11
5.729555
 21
6.572010000000001
 31
0.0
  0
LINE
  5
174
330
18
100
AcDbEntity
  8
0
100
AcDbLine
 10
7.916942
 20
5.950186
 30
0.0
 11
8.042904
 21
5.925177
 31
0.0
  0
LINE
  5
175
330
18
100
AcDbEntity
  8
0
100
AcDbLine
 10
3.797702201646761
 20
7.09467266658276
 30
0.0
 11
5.017074
 21
6.870225
 31
0.0
  0
LINE
  5
176
330
18
100
AcDbEntity
  8
0
100
AcDbLine
 10
3.927229000000001
 20
6.742306452277837
 30
0.0
 11
4.858323
 21
6.557447
 31
0.0
  0
LINE
  5
177
330
18
100
AcDbEntity
  8
0
100
AcDbLine
 10
3.967512
 20
6.905594000000001
 30
0.0
 11
3.798359
 21
6.937617
 31
0.0
  0
LINE
  5
178
330
18
100
AcDbEntity
  8
0
100
AcDbLine
 10
1.267612
 20
7.678653
 30
0.0
 11
1.459291
 21
7.643971000000001
 31
0.0
  0
LINE
  5
179
330
18
100
AcDbEntity
  8
0
100
AcDbLine
 10
1.466808
 20
7.637813
 30
0.0
 11
1.477548
 21
7.610696000000001
 31
0.0
  0
LINE
  5
17A
330
18
100
AcDbEntity
  8
0
100
AcDbLine
 10
1.49482
 20
7.598105
 30
0.0
 11
1.587173
 21
7.591983
 31
0.0
  0
LINE
  5
17B
330
18
100
AcDbEntity
  8
0
100
AcDbLine
 10
1.59512
 20
7.587092
 30
0.0
 11
1.613498
 21
7.555991000000001
 31
0.0
  0
LINE
  5
17C
330
18
100
AcDbEntity
  8
0
100
AcDbLine
 10
1.613333
 20
7.545547999999999
 30
0.0
 11
1.603788
 21
7.530499000000001
 31
0.0
  0
LINE
  5
17D
330
18
100
AcDbEntity
  8
0
100
AcDbLine
 10
1.603354
 20
7.520542999999999
 30
0.0
 11
1.618973
 21
7.490392999999999
 31
0.0
  0
LINE
  5
17E
330
18
100
AcDbEntity
  8
0
100
AcDbLine
 10
1.624824
 20
7.485461999999999
 30
0.0
 11
1.711674
 21
7.45787
 31
0.0
  0
LINE
  5
17F
330
18
100
AcDbEntity
  8
0
100
AcDbLine
 10
1.729105
 20
7.434044
 30
0.0
 11
1.729105
 21
7.18265
 31
0.0
  0
ARC
  5
180
330
18
100
AcDbEntity
  8
0
100
AcDbCircle
 10
1.627852
 20
7.494992
 30
0.0
 40
0.01
100
AcDbArc
 50
207.385308
 51
252.375532
  0
ARC
  5
181
330
18
100
AcDbEntity
  8
0
100
AcDbCircle
 10
1.612233
 20
7.525142999999999
 30
0.0
 40
0.01
100
AcDbArc
 50
147.616383
 51
207.385308
  0
ARC
  5
182
330
18
100
AcDbEntity
  8
0
100
AcDbCircle
 10
1.604888
 20
7.550903999999999
 30
0.0
 40
0.01
100
AcDbArc
 50
327.616383
 51
30.578875
  0
ARC
  5
183
330
18
100
AcDbEntity
  8
0
100
AcDbCircle
 10
1.586511
 20
7.582004
 30
0.0
 40
0.01
100
AcDbArc
 50
30.578875
 51
86.207363
  0
ARC
  5
184
330
18
100
AcDbEntity
  8
0
100
AcDbCircle
 10
1.457511
 20
7.634131
 30
0.0
 40
0.01
100
AcDbArc
 50
21.606249
 51
79.74415000000001
  0
ARC
  5
185
330
18
100
AcDbEntity
  8
0
100
AcDbCircle
 10
1.496143
 20
7.618061
 30
0.0
 40
0.02
100
AcDbArc
 50
201.606249
 51
266.207363
  0
LINE
  5
186
330
18
100
AcDbEntity
  8
0
100
AcDbLine
 10
1.394442
 20
7.788564
 30
0.0
 11
1.580585
 21
7.73832
 31
0.0
  0
LINE
  5
187
330
18
100
AcDbEntity
  8
0
100
AcDbLine
 10
1.584904
 20
7.73588
 30
0.0
 11
1.603566
 21
7.717967999999999
 31
0.0
  0
LINE
  5
188
330
18
100
AcDbEntity
  8
0
100
AcDbLine
 10
1.611578
 20
7.715242
 30
0.0
 11
1.621419
 21
7.716319
 31
0.0
  0
LINE
  5
189
330
18
100
AcDbEntity
  8
0
100
AcDbLine
 10
1.629276
 20
7.71374
 30
0.0
 11
1.762486
 21
7.593333
 31
0.0
  0
LINE
  5
18A
330
18
100
AcDbEntity
  8
0
100
AcDbLine
 10
1.74262
 20
7.559239999999999
 30
0.0
 11
1.726602
 21
7.562175
 31
0.0
  0
LINE
  5
18B
330
18
100
AcDbEntity
  8
0
100
AcDbLine
 10
1.726602
 20
7.562175
 30
0.0
 11
1.730754
 21
7.543849000000001
 31
0.0
  0
LINE
  5
18C
330
18
100
AcDbEntity
  8
0
100
AcDbLine
 10
1.740451
 20
7.530838
 30
0.0
 11
1.81705
 21
7.487732
 31
0.0
  0
LINE
  5
18D
330
18
100
AcDbEntity
  8
0
100
AcDbLine
 10
1.855268
 20
7.42237
 30
0.0
 11
1.855268
 21
7.164969999999999
 31
0.0
  0
ARC
  5
18E
330
18
100
AcDbEntity
  8
0
100
AcDbCircle
 10
1.75026
 20
7.548267999999999
 30
0.0
 40
0.02
100
AcDbArc
 50
192.764434
 51
240.631176
  0
ARC
  5
18F
330
18
100
AcDbEntity
  8
0
100
AcDbCircle
 10
1.622507
 20
7.706378
 30
0.0
 40
0.01
100
AcDbArc
 50
47.402541
 51
96.24463199999998
  0
ARC
  5
190
330
18
100
AcDbEntity
  8
0
100
AcDbCircle
 10
1.61049
 20
7.725183
 30
0.0
 40
0.01
100
AcDbArc
 50
226.174817
 51
276.244632
  0
ARC
  5
191
330
18
100
AcDbEntity
  8
0
100
AcDbCircle
 10
1.577979
 20
7.728666000000001
 30
0.0
 40
0.01
100
AcDbArc
 50
46.174817
 51
74.894736
  0
ARC
  5
192
330
18
100
AcDbEntity
  8
0
100
AcDbCircle
 10
1.391836
 20
7.778909
 30
0.0
 40
0.01
100
AcDbArc
 50
74.894736
 51
131.14546
  0
ARC
  5
193
330
18
100
AcDbEntity
  8
0
100
AcDbCircle
 10
1.265832
 20
7.668813
 30
0.0
 40
0.01
100
AcDbArc
 50
79.74415000000001
 51
131.14546
  0
LINE
  5
194
330
18
100
AcDbEntity
  8
0
100
AcDbLine
 10
1.385256
 20
7.78644
 30
0.0
 11
1.259252
 21
7.676342999999999
 31
0.0
  0
LINE
  5
195
330
18
100
AcDbEntity
  8
0
100
AcDbLine
 10
1.259252
 20
7.676342999999999
 30
0.0
 11
1.259252
 21
7.666989999999999
 31
0.0
  0
LINE
  5
196
330
18
100
AcDbEntity
  8
0
100
AcDbLine
 10
1.291037
 20
7.704115
 30
0.0
 11
1.122696
 21
7.73375
 31
0.0
  0
LINE
  5
197
330
18
100
AcDbEntity
  8
0
100
AcDbLine
 10
1.271744
 20
7.677905
 30
0.0
 11
0.9938809999999999
 21
7.435121000000001
 31
0.0
  0
LINE
  5
198
330
18
100
AcDbEntity
  8
0
100
AcDbLine
 10
1.549362
 20
7.746747999999999
 30
0.0
 11
3.054763
 21
9.090145
 31
0.0
  0
LINE
  5
199
330
18
100
AcDbEntity
  8
0
100
AcDbLine
 10
1.521627
 20
7.721997999999999
 30
0.0
 11
1.466157
 21
7.672497
 31
0.0
  0
ARC
  5
19A
330
18
100
AcDbEntity
  8
0
100
AcDbCircle
 10
1.749996
 20
7.577777
 30
0.0
 40
0.01995
100
AcDbArc
 50
248.300847
 51
51.239316
  0
CIRCLE
  5
19B
330
18
100
AcDbEntity
  8
0
100
AcDbCircle
 10
1.749996
 20
7.577777
 30
0.0
 40
0.003829
  0
LINE
  5
19C
330
18
100
AcDbEntity
  8
0
100
AcDbLine
 10
1.645124
 20
7.671877
 30
0.0
 11
1.721967
 21
7.473127000000001
 31
0.0
  0
ARC
  5
19D
330
18
100
AcDbEntity
  8
0
100
AcDbCircle
 10
1.780268
 20
7.42237
 30
0.0
 40
0.075
100
AcDbArc
 50
0.0
 51
60.631176
  0
ARC
  5
19E
330
18
100
AcDbEntity
  8
0
100
AcDbCircle
 10
1.704105
 20
7.434044
 30
0.0
 40
0.025
100
AcDbArc
 50
0.0
 51
72.37553199999999
  0
LINE
  5
19F
330
18
100
AcDbEntity
  8
0
  6
HIDDEN
100
AcDbLine
 10
1.880044
 20
7.145549000000001
 30
0.0
 11
1.887262
 21
7.147324
 31
0.0
  0
LINE
  5
1A0
330
18
100
AcDbEntity
  8
0
  6
HIDDEN
100
AcDbLine
 10
1.868238
 20
7.223878
 30
0.0
 11
2.066144
 21
7.265553
 31
0.0
  0
LINE
  5
1A1
330
18
100
AcDbEntity
  8
0
100
AcDbLine
 10
1.736398
 20
7.173023
 30
0.0
 11
1.864093
 21
7.147671000000001
 31
0.0
  0
ARC
  5
1A2
330
18
100
AcDbEntity
  8
0
100
AcDbCircle
 10
1.739105
 20
7.18265
 30
0.0
 40
0.01
100
AcDbArc
 50
180.0
 51
263.249217
  0
LINE
  5
1A3
330
18
100
AcDbEntity
  8
0
100
AcDbLine
 10
1.859347
 20
7.152866
 30
0.0
 11
2.425076
 21
7.040546000000001
 31
0.0
  0
LINE
  5
1A4
330
18
100
AcDbEntity
  8
0
100
AcDbLine
 10
1.78113
 20
7.507946000000001
 30
0.0
 11
1.889586
 21
7.608283999999999
 31
0.0
  0
LINE
  5
1A5
330
18
100
AcDbEntity
  8
0
100
AcDbLine
 10
1.729105
 20
7.32936
 30
0.0
 11
1.612049
 21
7.351521000000001
 31
0.0
  0
LINE
  5
1A6
330
18
100
AcDbEntity
  8
0
100
AcDbLine
 10
1.750058
 20
7.453235
 30
0.0
 11
1.834146
 21
7.438575999999999
 31
0.0
  0
LINE
  5
1A7
330
18
100
AcDbEntity
  8
0
100
AcDbLine
 10
1.566624
 20
7.309496
 30
0.0
 11
1.566624
 21
7.213678
 31
0.0
  0
LINE
  5
1A8
330
18
100
AcDbEntity
  8
0
  6
HIDDEN
100
AcDbLine
 10
1.580082
 20
7.204295
 30
0.0
 11
1.587165
 21
7.206905
 31
0.0
  0
LINE
  5
1A9
330
18
100
AcDbEntity
  8
0
  6
HIDDEN
100
AcDbLine
 10
1.576637
 20
7.271826
 30
0.0
 11
1.729105
 21
7.328019
 31
0.0
  0
ARC
  5
1AA
330
18
100
AcDbEntity
  8
0
100
AcDbCircle
 10
1.576624
 20
7.213678
 30
0.0
 40
0.01
100
AcDbArc
 50
180.0
 51
290.231534
  0
LINE
  5
1AB
330
18
100
AcDbEntity
  8
0
100
AcDbLine
 10
1.473263
 20
7.223122999999999
 30
0.0
 11
1.574759
 21
7.203853
 31
0.0
  0
LINE
  5
1AC
330
18
100
AcDbEntity
  8
0
100
AcDbLine
 10
2.09624
 20
7.497406
 30
0.0
 11
2.224373
 21
7.544669
 31
0.0
  0
LINE
  5
1AD
330
18
100
AcDbEntity
  8
0
100
AcDbLine
 10
2.234147
 20
7.545700999999999
 30
0.0
 11
2.072698
 21
7.57437
 31
0.0
  0
LINE
  5
1AE
330
18
100
AcDbEntity
  8
0
100
AcDbLine
 10
2.064803
 20
7.574188
 30
0.0
 11
1.894767
 21
7.535858
 31
0.0
  0
LINE
  5
1AF
330
18
100
AcDbEntity
  8
0
100
AcDbLine
 10
1.894767
 20
7.535858
 30
0.0
 11
2.09624
 21
7.497406
 31
0.0
  0
LINE
  5
1B0
330
18
100
AcDbEntity
  8
0
100
AcDbLine
 10
1.894767
 20
7.52385
 30
0.0
 11
2.09624
 21
7.485398
 31
0.0
  0
LINE
  5
1B1
330
18
100
AcDbEntity
  8
0
100
AcDbLine
 10
2.09624
 20
7.485398
 30
0.0
 11
2.232422
 21
7.53563
 31
0.0
  0
LINE
  5
1B2
330
18
100
AcDbEntity
  8
0
100
AcDbLine
 10
1.894767
 20
7.535858
 30
0.0
 11
1.894767
 21
7.52385
 31
0.0
  0
LINE
  5
1B3
330
18
100
AcDbEntity
  8
0
100
AcDbLine
 10
2.04914
 20
7.570657000000001
 30
0.0
 11
1.880924
 21
7.60027
 31
0.0
  0
LINE
  5
1B4
330
18
100
AcDbEntity
  8
0
100
AcDbLine
 10
1.894767
 20
7.524774000000001
 30
0.0
 11
1.792672
 21
7.501450999999999
 31
0.0
  0
LINE
  5
1B5
330
18
100
AcDbEntity
  8
0
  6
HIDDEN
100
AcDbLine
 10
1.933597
 20
7.306308000000001
 30
0.0
 11
1.933597
 21
7.508017999999999
 31
0.0
  0
LINE
  5
1B6
330
18
100
AcDbEntity
  8
0
  6
HIDDEN
100
AcDbLine
 10
1.933597
 20
7.306308000000001
 30
0.0
 11
1.855268
 21
7.320219
 31
0.0
  0
LINE
  5
1B7
330
18
100
AcDbEntity
  8
0
100
AcDbLine
 10
2.09624
 20
7.497406
 30
0.0
 11
2.09624
 21
7.485398
 31
0.0
  0
LINE
  5
1B8
330
18
100
AcDbEntity
  8
0
100
AcDbLine
 10
1.907326
 20
7.643946000000001
 30
0.0
 11
1.956869
 21
7.654399000000001
 31
0.0
  0
LINE
  5
1B9
330
18
100
AcDbEntity
  8
0
100
AcDbLine
 10
2.076113
 20
7.709661
 30
0.0
 11
2.052855
 21
7.704910000000001
 31
0.0
  0
LINE
  5
1BA
330
18
100
AcDbEntity
  8
0
100
AcDbLine
 10
2.090891
 20
7.764741000000001
 30
0.0
 11
2.060771
 21
7.758261
 31
0.0
  0
LINE
  5
1BB
330
18
100
AcDbEntity
  8
0
100
AcDbLine
 10
1.900889
 20
7.749954
 30
0.0
 11
1.956737
 21
7.760844000000001
 31
0.0
  0
LINE
  5
1BC
330
18
100
AcDbEntity
  8
0
100
AcDbLine
 10
2.087993
 20
7.739719999999999
 30
0.0
 11
2.050975
 21
7.731910000000001
 31
0.0
  0
LINE
  5
1BD
330
18
100
AcDbEntity
  8
0
100
AcDbLine
 10
2.058766
 20
7.675899
 30
0.0
 11
2.086231
 21
7.681694
 31
0.0
  0
LINE
  5
1BE
330
18
100
AcDbEntity
  8
0
100
AcDbLine
 10
1.949062
 20
7.683707000000001
 30
0.0
 11
1.906199
 21
7.674950999999999
 31
0.0
  0
LINE
  5
1BF
330
18
100
AcDbEntity
  8
0
100
AcDbLine
 10
2.02599
 20
7.726638
 30
0.0
 11
1.986824
 21
7.718374000000001
 31
0.0
  0
LINE
  5
1C0
330
18
100
AcDbEntity
  8
0
100
AcDbLine
 10
1.96035
 20
7.712788000000001
 30
0.0
 11
1.909089
 21
7.701972000000001
 31
0.0
  0
LINE
  5
1C1
330
18
100
AcDbEntity
  8
0
100
AcDbLine
 10
1.959332
 20
7.736441
 30
0.0
 11
1.905993
 21
7.724967
 31
0.0
  0
LINE
  5
1C2
330
18
100
AcDbEntity
  8
0
100
AcDbLine
 10
2.028686
 20
7.751360000000001
 30
0.0
 11
1.984968
 21
7.741955
 31
0.0
  0
LINE
  5
1C3
330
18
100
AcDbEntity
  8
0
100
AcDbLine
 10
2.054932
 20
7.779991000000001
 30
0.0
 11
2.094798
 21
7.787764
 31
0.0
  0
LINE
  5
1C4
330
18
100
AcDbEntity
  8
0
100
AcDbLine
 10
1.979471
 20
7.765277
 30
0.0
 11
2.027236
 21
7.774591
 31
0.0
  0
LINE
  5
1C5
330
18
100
AcDbEntity
  8
0
100
AcDbLine
 10
1.987574
 20
7.660877
 30
0.0
 11
2.032292
 21
7.670313
 31
0.0
  0
LINE
  5
1C6
330
18
100
AcDbEntity
  8
0
100
AcDbLine
 10
2.027676
 20
7.699767
 30
0.0
 11
1.988272
 21
7.691717
 31
0.0
  0
LINE
  5
1C7
330
18
100
AcDbEntity
  8
0
  6
HIDDEN
100
AcDbLine
 10
1.746455
 20
7.607823
 30
0.0
 11
1.792023
 21
7.621574000000001
 31
0.0
  0
LINE
  5
1C8
330
18
100
AcDbEntity
  8
0
  6
HIDDEN
100
AcDbLine
 10
1.792023
 20
7.621574000000001
 30
0.0
 11
1.922774
 21
7.581931
 31
0.0
  0
LINE
  5
1C9
330
18
100
AcDbEntity
  8
0
  6
HIDDEN
100
AcDbLine
 10
1.922774
 20
7.581931
 30
0.0
 11
1.767763
 21
7.526333
 31
0.0
  0
LINE
  5
1CA
330
18
100
AcDbEntity
  8
0
100
AcDbLine
 10
3.745698
 20
7.459442
 30
0.0
 11
3.745698
 21
7.262363000000001
 31
0.0
  0
LINE
  5
1CB
330
18
100
AcDbEntity
  8
0
100
AcDbLine
 10
3.745698
 20
7.262363000000001
 30
0.0
 11
4.022283
 21
7.339539
 31
0.0
  0
LINE
  5
1CC
330
18
100
AcDbEntity
  8
0
100
AcDbLine
 10
4.022283
 20
7.339539
 30
0.0
 11
4.022283
 21
7.535589
 31
0.0
  0
LINE
  5
1CD
330
18
100
AcDbEntity
  8
0
100
AcDbLine
 10
4.022283
 20
7.535589
 30
0.0
 11
3.745698
 21
7.459442
 31
0.0
  0
LINE
  5
1CE
330
18
100
AcDbEntity
  8
0
100
AcDbLine
 10
3.782355
 20
7.30254
 30
0.0
 11
3.81438
 21
7.311489
 31
0.0
  0
LINE
  5
1CF
330
18
100
AcDbEntity
  8
0
100
AcDbLine
 10
3.974054
 20
7.391358
 30
0.0
 11
3.944565
 21
7.383395
 31
0.0
  0
LINE
  5
1D0
330
18
100
AcDbEntity
  8
0
100
AcDbLine
 10
3.785072
 20
7.371574000000001
 30
0.0
 11
3.822235
 21
7.382031
 31
0.0
  0
LINE
  5
1D1
330
18
100
AcDbEntity
  8
0
100
AcDbLine
 10
3.979776
 20
7.459403999999999
 30
0.0
 11
3.942028
 21
7.449159
 31
0.0
  0
LINE
  5
1D2
330
18
100
AcDbEntity
  8
0
100
AcDbLine
 10
3.775802
 20
7.436558
 30
0.0
 11
3.824241
 21
7.449717999999999
 31
0.0
  0
LINE
  5
1D3
330
18
100
AcDbEntity
  8
0
100
AcDbLine
 10
4.008768
 20
7.531867999999999
 30
0.0
 11
4.953507
 21
8.576779999999999
 31
0.0
  0
LINE
  5
1D4
330
18
100
AcDbEntity
  8
0
100
AcDbLine
 10
3.870674
 20
7.327219
 30
0.0
 11
3.912986
 21
7.339042
 31
0.0
  0
LINE
  5
1D5
330
18
100
AcDbEntity
  8
0
100
AcDbLine
 10
3.907303
 20
7.373333000000001
 30
0.0
 11
3.869546
 21
7.363136999999999
 31
0.0
  0
LINE
  5
1D6
330
18
100
AcDbEntity
  8
0
100
AcDbLine
 10
3.821273
 20
7.350102000000001
 30
0.0
 11
3.782203
 21
7.339552
 31
0.0
  0
LINE
  5
1D7
330
18
100
AcDbEntity
  8
0
100
AcDbLine
 10
3.943061
 20
7.347446000000001
 30
0.0
 11
3.982192
 21
7.35838
 31
0.0
  0
LINE
  5
1D8
330
18
100
AcDbEntity
  8
0
100
AcDbLine
 10
3.944347
 20
7.416386999999999
 30
0.0
 11
3.979912
 21
7.426394
 31
0.0
  0
LINE
  5
1D9
330
18
100
AcDbEntity
  8
0
100
AcDbLine
 10
3.850847
 20
7.39008
 30
0.0
 11
3.902544
 21
7.404626
 31
0.0
  0
LINE
  5
1DA
330
18
100
AcDbEntity
  8
0
100
AcDbLine
 10
3.827044
 20
7.417952000000001
 30
0.0
 11
3.773937
 21
7.403539
 31
0.0
  0
LINE
  5
1DB
330
18
100
AcDbEntity
  8
0
100
AcDbLine
 10
3.90652
 20
7.439522999999999
 30
0.0
 11
3.859567
 21
7.426779
 31
0.0
  0
LINE
  5
1DC
330
18
100
AcDbEntity
  8
0
100
AcDbLine
 10
3.939281
 20
7.480974000000001
 30
0.0
 11
3.992632
 21
7.495469
 31
0.0
  0
LINE
  5
1DD
330
18
100
AcDbEntity
  8
0
100
AcDbLine
 10
3.860122
 20
7.459467
 30
0.0
 11
3.903279
 21
7.471193
 31
0.0
  0
LINE
  5
1DE
330
18
100
AcDbEntity
  8
0
100
AcDbLine
 10
3.638523
 20
7.249931
 30
0.0
 11
3.638523
 21
7.155873
 31
0.0
  0
POINT
  5
1DF
330
18
100
AcDbEntity
  8
0
100
AcDbPoint
 10
3.714448
 20
7.008163000000001
 30
0.0
  0
LINE
  5
1E0
330
18
100
AcDbEntity
  8
0
100
AcDbLine
 10
3.716951
 20
7.209108000000001
 30
0.0
 11
3.771646
 21
7.269603
 31
0.0
  0
LINE
  5
1E1
330
18
100
AcDbEntity
  8
0
100
AcDbLine
 10
3.631034
 20
6.969294000000001
 30
0.0
 11
3.519259
 21
6.990455
 31
0.0
  0
LINE
  5
1E2
330
18
100
AcDbEntity
  8
0
100
AcDbLine
 10
3.66482
 20
7.423097
 30
0.0
 11
3.656822
 21
7.422064
 31
0.0
  0
LINE
  5
1E3
330
18
100
AcDbEntity
  8
0
100
AcDbLine
 10
3.798359
 20
6.847428999999999
 30
0.0
 11
3.790361
 21
6.846396
 31
0.0
  0
LINE
  5
1E4
330
18
100
AcDbEntity
  8
0
100
AcDbLine
 10
2.425076
 20
7.197602000000001
 30
0.0
 11
1.855268
 21
7.305475
 31
0.0
  0
LINE
  5
1E5
330
18
100
AcDbEntity
  8
0
100
AcDbLine
 10
1.887259522094225
 20
7.14732339065077
 30
0.0
 11
2.940121
 21
6.938288000000001
 31
0.0
  0
LINE
  5
1E6
330
18
100
AcDbEntity
  8
0
100
AcDbLine
 10
2.34532018720263
 20
7.362011439793716
 30
0.0
 11
3.105716
 21
7.222046000000001
 31
0.0
  0
LINE
  5
1E7
330
18
100
AcDbEntity
  8
0
100
AcDbLine
 10
2.722138
 20
7.452182000000001
 30
0.0
 11
2.242811
 21
7.536563
 31
0.0
  0
CIRCLE
  5
1E8
330
18
100
AcDbEntity
  8
0
100
AcDbCircle
 10
2.108826
 20
7.295658
 30
0.0
 40
0.004001
  0
CIRCLE
  5
1E9
330
18
100
AcDbEntity
  8
0
100
AcDbCircle
 10
2.198216
 20
7.451077000000001
 30
0.0
 40
0.004001
  0
ARC
  5
1EA
330
18
100
AcDbEntity
  8
0
100
AcDbCircle
 10
2.069201
 20
7.554678
 30
0.0
 40
0.02
100
AcDbArc
 50
79.93078
 51
102.703449
  0
ARC
  5
1EB
330
18
100
AcDbEntity
  8
0
100
AcDbCircle
 10
2.239343
 20
7.516866
 30
0.0
 40
0.02
100
AcDbArc
 50
80.01586500000001
 51
110.247125
  0
ARC
  5
1EC
330
18
100
AcDbEntity
  8
0
100
AcDbCircle
 10
2.231295
 20
7.525905000000001
 30
0.0
 40
0.02
100
AcDbArc
 50
28.673036
 51
110.247125
  0
LINE
  5
1ED
330
18
100
AcDbEntity
  8
0
  6
HIDDEN
100
AcDbLine
 10
2.23063
 20
7.245104
 30
0.0
 11
2.101382
 21
7.268057000000001
 31
0.0
  0
ARC
  5
1EE
330
18
100
AcDbEntity
  8
0
100
AcDbCircle
 10
1.875268
 20
7.164969999999999
 30
0.0
 40
0.02
100
AcDbArc
 50
180.0
 51
283.81597
  0
LINE
  5
1EF
330
18
100
AcDbEntity
  8
0
  6
HIDDEN
100
AcDbLine
 10
1.601527
 20
7.212198
 30
0.0
 11
1.729105
 21
7.259218
 31
0.0
  0
LINE
  5
1F0
330
18
100
AcDbEntity
  8
0
  6
HIDDEN
100
AcDbLine
 10
1.906187
 20
7.151978
 30
0.0
 11
2.236716
 21
7.233261
 31
0.0
  0
LINE
  5
1F1
330
18
100
AcDbEntity
  8
0
  6
HIDDEN
100
AcDbLine
 10
2.242002
 20
7.248189999999999
 30
0.0
 11
2.242002
 21
7.527194000000001
 31
0.0
  0
LINE
  5
1F2
330
18
100
AcDbEntity
  8
0
  6
HIDDEN
100
AcDbLine
 10
2.090177
 20
7.278566000000001
 30
0.0
 11
2.090177
 21
7.476645
 31
0.0
  0
TEXT
  5
1F3
330
18
100
AcDbEntity
  8
0
100
AcDbText
 10
8.237582
 20
2.70793
 30
0.0
 40
0.2
  1
H10
 41
0.8
 72
     1
 11
8.477582
 21
2.70793
 31
0.0
100
AcDbText
  0
ARC
  5
1F4
330
18
100
AcDbEntity
  8
0
100
AcDbCircle
 10
2.043885
 20
7.225036
 30
0.0
 40
0.00385
100
AcDbArc
 50
190.243606
 51
222.336854
  0
ARC
  5
1F5
330
18
100
AcDbEntity
  8
0
100
AcDbCircle
 10
2.045884
 20
7.226857000000001
 30
0.0
 40
0.006554
100
AcDbArc
 50
222.336854
 51
246.799407
  0
ARC
  5
1F6
330
18
100
AcDbEntity
  8
0
100
AcDbCircle
 10
2.04696
 20
7.229369
 30
0.0
 40
0.009287
100
AcDbArc
 50
246.799407
 51
264.942904
  0
ARC
  5
1F7
330
18
100
AcDbEntity
  8
0
100
AcDbCircle
 10
2.04729
 20
7.233095
 30
0.0
 40
0.013027
100
AcDbArc
 50
264.942904
 51
280.243606
  0
ARC
  5
1F8
330
18
100
AcDbEntity
  8
0
100
AcDbCircle
 10
2.04729
 20
7.233095
 30
0.0
 40
0.013027
100
AcDbArc
 50
280.243606
 51
295.544308
  0
ARC
  5
1F9
330
18
100
AcDbEntity
  8
0
100
AcDbCircle
 10
2.048902
 20
7.22972
 30
0.0
 40
0.009287
100
AcDbArc
 50
295.544308
 51
313.687805
  0
ARC
  5
1FA
330
18
100
AcDbEntity
  8
0
100
AcDbCircle
 10
2.05079
 20
7.227744
 30
0.0
 40
0.006554
100
AcDbArc
 50
313.687805
 51
338.150358
  0
ARC
  5
1FB
330
18
100
AcDbEntity
  8
0
100
AcDbCircle
 10
2.0533
 20
7.226738
 30
0.0
 40
0.00385
100
AcDbArc
 50
338.150358
 51
10.243606
  0
ARC
  5
1FC
330
18
100
AcDbEntity
  8
0
100
AcDbCircle
 10
2.0533
 20
7.226738
 30
0.0
 40
0.00385
100
AcDbArc
 50
10.243606
 51
42.336854
  0
ARC
  5
1FD
330
18
100
AcDbEntity
  8
0
100
AcDbCircle
 10
2.051301
 20
7.224916
 30
0.0
 40
0.006554
100
AcDbArc
 50
42.336854
 51
66.79940699999999
  0
ARC
  5
1FE
330
18
100
AcDbEntity
  8
0
100
AcDbCircle
 10
2.050224
 20
7.222405
 30
0.0
 40
0.009287
100
AcDbArc
 50
66.79940699999999
 51
84.942904
  0
ARC
  5
1FF
330
18
100
AcDbEntity
  8
0
100
AcDbCircle
 10
2.049895
 20
7.218678999999999
 30
0.0
 40
0.013027
100
AcDbArc
 50
84.942904
 51
100.243606
  0
ARC
  5
200
330
18
100
AcDbEntity
  8
0
100
AcDbCircle
 10
2.049895
 20
7.218678999999999
 30
0.0
 40
0.013027
100
AcDbArc
 50
100.243606
 51
115.544308
  0
ARC
  5
201
330
18
100
AcDbEntity
  8
0
100
AcDbCircle
 10
2.048282
 20
7.222053999999999
 30
0.0
 40
0.009287
100
AcDbArc
 50
115.544308
 51
133.687805
  0
ARC
  5
202
330
18
100
AcDbEntity
  8
0
100
AcDbCircle
 10
2.046395
 20
7.22403
 30
0.0
 40
0.006554
100
AcDbArc
 50
133.687805
 51
158.150358
  0
ARC
  5
203
330
18
100
AcDbEntity
  8
0
100
AcDbCircle
 10
2.043885
 20
7.225036
 30
0.0
 40
0.00385
100
AcDbArc
 50
158.150358
 51
190.243606
  0
ARC
  5
204
330
18
100
AcDbEntity
  8
0
100
AcDbCircle
 10
1.903939
 20
7.200453
 30
0.0
 40
0.00385
100
AcDbArc
 50
190.243606
 51
222.336854
  0
ARC
  5
205
330
18
100
AcDbEntity
  8
0
100
AcDbCircle
 10
1.905938
 20
7.202274000000001
 30
0.0
 40
0.006554
100
AcDbArc
 50
222.336854
 51
246.799407
  0
ARC
  5
206
330
18
100
AcDbEntity
  8
0
100
AcDbCircle
 10
1.907014
 20
7.204786
 30
0.0
 40
0.009287
100
AcDbArc
 50
246.799407
 51
264.942904
  0
ARC
  5
207
330
18
100
AcDbEntity
  8
0
100
AcDbCircle
 10
1.907344
 20
7.208511
 30
0.0
 40
0.013027
100
AcDbArc
 50
264.942904
 51
280.243606
  0
ARC
  5
208
330
18
100
AcDbEntity
  8
0
100
AcDbCircle
 10
1.907344
 20
7.208511
 30
0.0
 40
0.013027
100
AcDbArc
 50
280.243606
 51
295.544308
  0
ARC
  5
209
330
18
100
AcDbEntity
  8
0
100
AcDbCircle
 10
1.908957
 20
7.205137
 30
0.0
 40
0.009287
100
AcDbArc
 50
295.544308
 51
313.687805
  0
ARC
  5
20A
330
18
100
AcDbEntity
  8
0
100
AcDbCircle
 10
1.910844
 20
7.203161
 30
0.0
 40
0.006554
100
AcDbArc
 50
313.687805
 51
338.150358
  0
ARC
  5
20B
330
18
100
AcDbEntity
  8
0
100
AcDbCircle
 10
1.913354
 20
7.202153999999999
 30
0.0
 40
0.00385
100
AcDbArc
 50
338.150358
 51
10.243606
  0
ARC
  5
20C
330
18
100
AcDbEntity
  8
0
100
AcDbCircle
 10
1.913354
 20
7.202153999999999
 30
0.0
 40
0.00385
100
AcDbArc
 50
10.243606
 51
42.336854
  0
ARC
  5
20D
330
18
100
AcDbEntity
  8
0
100
AcDbCircle
 10
1.911355
 20
7.200333000000001
 30
0.0
 40
0.006554
100
AcDbArc
 50
42.336854
 51
66.79940699999999
  0
ARC
  5
20E
330
18
100
AcDbEntity
  8
0
100
AcDbCircle
 10
1.910279
 20
7.197821
 30
0.0
 40
0.009287
100
AcDbArc
 50
66.79940699999999
 51
84.942904
  0
ARC
  5
20F
330
18
100
AcDbEntity
  8
0
100
AcDbCircle
 10
1.909949
 20
7.194096000000001
 30
0.0
 40
0.013027
100
AcDbArc
 50
84.942904
 51
100.243606
  0
ARC
  5
210
330
18
100
AcDbEntity
  8
0
100
AcDbCircle
 10
1.909949
 20
7.194096000000001
 30
0.0
 40
0.013027
100
AcDbArc
 50
100.243606
 51
115.544308
  0
ARC
  5
211
330
18
100
AcDbEntity
  8
0
100
AcDbCircle
 10
1.908336
 20
7.19747
 30
0.0
 40
0.009287
100
AcDbArc
 50
115.544308
 51
133.687805
  0
ARC
  5
212
330
18
100
AcDbEntity
  8
0
100
AcDbCircle
 10
1.906449
 20
7.199446000000001
 30
0.0
 40
0.006554
100
AcDbArc
 50
133.687805
 51
158.150358
  0
ARC
  5
213
330
18
100
AcDbEntity
  8
0
100
AcDbCircle
 10
1.903939
 20
7.200453
 30
0.0
 40
0.00385
100
AcDbArc
 50
158.150358
 51
190.243606
  0
LINE
  5
214
330
18
100
AcDbEntity
  8
0
100
AcDbLine
 10
3.66482
 20
7.423097
 30
0.0
 11
3.66482
 21
7.290872
 31
0.0
  0
ARC
  5
215
330
18
100
AcDbEntity
  8
0
100
AcDbCircle
 10
3.69982
 20
7.290872
 30
0.0
 40
0.035
100
AcDbArc
 50
180.0
 51
216.602207
  0
LINE
  5
216
330
18
100
AcDbEntity
  8
0
100
AcDbLine
 10
3.671722
 20
7.270003999999999
 30
0.0
 11
3.791457
 21
7.108793
 31
0.0
  0
ARC
  5
217
330
18
100
AcDbEntity
  8
0
100
AcDbCircle
 10
3.763359
 20
7.087924
 30
0.0
 40
0.035
100
AcDbArc
 50
0.0
 51
36.602207
  0
LINE
  5
218
330
18
100
AcDbEntity
  8
0
100
AcDbLine
 10
3.798359
 20
7.087924
 30
0.0
 11
3.798359
 21
6.847428999999999
 31
0.0
  0
LINE
  5
219
330
18
100
AcDbEntity
  8
0
100
AcDbLine
 10
3.615241
 20
7.138647
 30
0.0
 11
3.521752
 21
7.200017
 31
0.0
  0
ARC
  5
21A
330
18
100
AcDbEntity
  8
0
100
AcDbCircle
 10
3.540959
 20
7.229276
 30
0.0
 40
0.035
100
AcDbArc
 50
180.0
 51
236.717618
  0
LINE
  5
21B
330
18
100
AcDbEntity
  8
0
100
AcDbLine
 10
3.505959
 20
7.229276
 30
0.0
 11
3.505959
 21
7.376428999999999
 31
0.0
  0
LINE
  5
21C
330
18
100
AcDbEntity
  8
0
100
AcDbLine
 10
3.505959
 20
7.376428999999999
 30
0.0
 11
3.656822
 21
7.422064
 31
0.0
  0
LINE
  5
21D
330
18
100
AcDbEntity
  8
0
100
AcDbLine
 10
3.656822
 20
7.422064
 30
0.0
 11
3.656822
 21
7.289839
 31
0.0
  0
ARC
  5
21E
330
18
100
AcDbEntity
  8
0
100
AcDbCircle
 10
3.691822
 20
7.289839
 30
0.0
 40
0.035
100
AcDbArc
 50
180.0
 51
216.602207
  0
LINE
  5
21F
330
18
100
AcDbEntity
  8
0
100
AcDbLine
 10
3.663724
 20
7.26897
 30
0.0
 11
3.783459
 21
7.107760000000001
 31
0.0
  0
ARC
  5
220
330
18
100
AcDbEntity
  8
0
100
AcDbCircle
 10
3.755361
 20
7.086891000000001
 30
0.0
 40
0.035
100
AcDbArc
 50
0.0
 51
36.602207
  0
LINE
  5
221
330
18
100
AcDbEntity
  8
0
100
AcDbLine
 10
3.790361
 20
7.086891000000001
 30
0.0
 11
3.790361
 21
6.846396
 31
0.0
  0
LINE
  5
222
330
18
100
AcDbEntity
  8
0
100
AcDbLine
 10
3.790361
 20
6.846396
 30
0.0
 11
3.631034
 21
6.881778
 31
0.0
  0
LINE
  5
223
330
18
100
AcDbEntity
  8
0
100
AcDbLine
 10
3.631034
 20
6.881778
 30
0.0
 11
3.631034
 21
7.109388
 31
0.0
  0
ARC
  5
224
330
18
100
AcDbEntity
  8
0
100
AcDbCircle
 10
3.596034
 20
7.109388
 30
0.0
 40
0.035
100
AcDbArc
 50
0.0
 51
56.717618
  0
ARC
  5
225
330
18
100
AcDbEntity
  8
0
100
AcDbCircle
 10
3.551103
 20
7.337749000000001
 30
0.0
 40
0.010975
100
AcDbArc
 50
96.945463
 51
121.813209
  0
ARC
  5
226
330
18
100
AcDbEntity
  8
0
100
AcDbCircle
 10
3.55187
 20
7.336513
 30
0.0
 40
0.012429
100
AcDbArc
 50
121.813209
 51
145.15946
  0
ARC
  5
227
330
18
100
AcDbEntity
  8
0
100
AcDbCircle
 10
3.552919
 20
7.335783
 30
0.0
 40
0.013707
100
AcDbArc
 50
145.15946
 51
166.632542
  0
ARC
  5
228
330
18
100
AcDbEntity
  8
0
100
AcDbCircle
 10
3.554467
 20
7.335414999999999
 30
0.0
 40
0.015298
100
AcDbArc
 50
166.632542
 51
186.945463
  0
ARC
  5
229
330
18
100
AcDbEntity
  8
0
100
AcDbCircle
 10
3.554467
 20
7.335414999999999
 30
0.0
 40
0.015298
100
AcDbArc
 50
186.945463
 51
207.258384
  0
ARC
  5
22A
330
18
100
AcDbEntity
  8
0
100
AcDbCircle
 10
3.553052
 20
7.334686000000001
 30
0.0
 40
0.013707
100
AcDbArc
 50
207.258384
 51
228.731466
  0
ARC
  5
22B
330
18
100
AcDbEntity
  8
0
100
AcDbCircle
 10
3.552209
 20
7.333726
 30
0.0
 40
0.012429
100
AcDbArc
 50
228.731466
 51
252.077717
  0
ARC
  5
22C
330
18
100
AcDbEntity
  8
0
100
AcDbCircle
 10
3.551762
 20
7.332342999999999
 30
0.0
 40
0.010975
100
AcDbArc
 50
252.077717
 51
276.945463
  0
ARC
  5
22D
330
18
100
AcDbEntity
  8
0
100
AcDbCircle
 10
3.551762
 20
7.332342999999999
 30
0.0
 40
0.010975
100
AcDbArc
 50
276.945463
 51
301.813209
  0
ARC
  5
22E
330
18
100
AcDbEntity
  8
0
100
AcDbCircle
 10
3.550995
 20
7.333578
 30
0.0
 40
0.012429
100
AcDbArc
 50
301.813209
 51
325.15946
  0
ARC
  5
22F
330
18
100
AcDbEntity
  8
0
100
AcDbCircle
 10
3.549947
 20
7.334308
 30
0.0
 40
0.013707
100
AcDbArc
 50
325.15946
 51
346.632542
  0
ARC
  5
230
330
18
100
AcDbEntity
  8
0
100
AcDbCircle
 10
3.548398
 20
7.334675999999999
 30
0.0
 40
0.015298
100
AcDbArc
 50
346.632542
 51
6.945463
  0
ARC
  5
231
330
18
100
AcDbEntity
  8
0
100
AcDbCircle
 10
3.548398
 20
7.334675999999999
 30
0.0
 40
0.015298
100
AcDbArc
 50
6.945463
 51
27.258384
  0
ARC
  5
232
330
18
100
AcDbEntity
  8
0
100
AcDbCircle
 10
3.549813
 20
7.335405000000001
 30
0.0
 40
0.013707
100
AcDbArc
 50
27.258384
 51
48.731466
  0
ARC
  5
233
330
18
100
AcDbEntity
  8
0
100
AcDbCircle
 10
3.550656
 20
7.336366
 30
0.0
 40
0.012429
100
AcDbArc
 50
48.731466
 51
72.07771700000001
  0
ARC
  5
234
330
18
100
AcDbEntity
  8
0
100
AcDbCircle
 10
3.551103
 20
7.337749000000001
 30
0.0
 40
0.010975
100
AcDbArc
 50
72.07771700000001
 51
96.945463
  0
ARC
  5
235
330
18
100
AcDbEntity
  8
0
100
AcDbCircle
 10
3.60304
 20
7.353195
 30
0.0
 40
0.010975
100
AcDbArc
 50
96.945463
 51
121.813209
  0
ARC
  5
236
330
18
100
AcDbEntity
  8
0
100
AcDbCircle
 10
3.603806
 20
7.351959
 30
0.0
 40
0.012429
100
AcDbArc
 50
121.813209
 51
145.15946
  0
ARC
  5
237
330
18
100
AcDbEntity
  8
0
100
AcDbCircle
 10
3.604855
 20
7.351228999999999
 30
0.0
 40
0.013707
100
AcDbArc
 50
145.15946
 51
166.632542
  0
ARC
  5
238
330
18
100
AcDbEntity
  8
0
100
AcDbCircle
 10
3.606404
 20
7.350861
 30
0.0
 40
0.015298
100
AcDbArc
 50
166.632542
 51
186.945463
  0
ARC
  5
239
330
18
100
AcDbEntity
  8
0
100
AcDbCircle
 10
3.606404
 20
7.350861
 30
0.0
 40
0.015298
100
AcDbArc
 50
186.945463
 51
207.258384
  0
ARC
  5
23A
330
18
100
AcDbEntity
  8
0
100
AcDbCircle
 10
3.604989
 20
7.350132
 30
0.0
 40
0.013707
100
AcDbArc
 50
207.258384
 51
228.731466
  0
ARC
  5
23B
330
18
100
AcDbEntity
  8
0
100
AcDbCircle
 10
3.604146
 20
7.349172
 30
0.0
 40
0.012429
100
AcDbArc
 50
228.731466
 51
252.077717
  0
ARC
  5
23C
330
18
100
AcDbEntity
  8
0
100
AcDbCircle
 10
3.603699
 20
7.347788
 30
0.0
 40
0.010975
100
AcDbArc
 50
252.077717
 51
276.945463
  0
ARC
  5
23D
330
18
100
AcDbEntity
  8
0
100
AcDbCircle
 10
3.603699
 20
7.347788
 30
0.0
 40
0.010975
100
AcDbArc
 50
276.945463
 51
301.813209
  0
ARC
  5
23E
330
18
100
AcDbEntity
  8
0
100
AcDbCircle
 10
3.602932
 20
7.349024000000001
 30
0.0
 40
0.012429
100
AcDbArc
 50
301.813209
 51
325.15946
  0
ARC
  5
23F
330
18
100
AcDbEntity
  8
0
100
AcDbCircle
 10
3.601883
 20
7.349753999999999
 30
0.0
 40
0.013707
100
AcDbArc
 50
325.15946
 51
346.632542
  0
ARC
  5
240
330
18
100
AcDbEntity
  8
0
100
AcDbCircle
 10
3.600335
 20
7.350122
 30
0.0
 40
0.015298
100
AcDbArc
 50
346.632542
 51
6.945463
  0
ARC
  5
241
330
18
100
AcDbEntity
  8
0
100
AcDbCircle
 10
3.600335
 20
7.350122
 30
0.0
 40
0.015298
100
AcDbArc
 50
6.945463
 51
27.258384
  0
ARC
  5
242
330
18
100
AcDbEntity
  8
0
100
AcDbCircle
 10
3.60175
 20
7.350851
 30
0.0
 40
0.013707
100
AcDbArc
 50
27.258384
 51
48.731466
  0
ARC
  5
243
330
18
100
AcDbEntity
  8
0
100
AcDbCircle
 10
3.602593
 20
7.351811
 30
0.0
 40
0.012429
100
AcDbArc
 50
48.731466
 51
72.07771700000001
  0
ARC
  5
244
330
18
100
AcDbEntity
  8
0
100
AcDbCircle
 10
3.60304
 20
7.353195
 30
0.0
 40
0.010975
100
AcDbArc
 50
72.07771700000001
 51
96.945463
  0
ARC
  5
245
330
18
100
AcDbEntity
  8
0
100
AcDbCircle
 10
3.551103
 20
7.267682000000001
 30
0.0
 40
0.010975
100
AcDbArc
 50
96.945463
 51
121.813209
  0
ARC
  5
246
330
18
100
AcDbEntity
  8
0
100
AcDbCircle
 10
3.55187
 20
7.266446000000001
 30
0.0
 40
0.012429
100
AcDbArc
 50
121.813209
 51
145.15946
  0
ARC
  5
247
330
18
100
AcDbEntity
  8
0
100
AcDbCircle
 10
3.552919
 20
7.265716
 30
0.0
 40
0.013707
100
AcDbArc
 50
145.15946
 51
166.632542
  0
ARC
  5
248
330
18
100
AcDbEntity
  8
0
100
AcDbCircle
 10
3.554467
 20
7.265348
 30
0.0
 40
0.015298
100
AcDbArc
 50
166.632542
 51
186.945463
  0
ARC
  5
249
330
18
100
AcDbEntity
  8
0
100
AcDbCircle
 10
3.554467
 20
7.265348
 30
0.0
 40
0.015298
100
AcDbArc
 50
186.945463
 51
207.258384
  0
ARC
  5
24A
330
18
100
AcDbEntity
  8
0
100
AcDbCircle
 10
3.553052
 20
7.264619000000001
 30
0.0
 40
0.013707
100
AcDbArc
 50
207.258384
 51
228.731466
  0
ARC
  5
24B
330
18
100
AcDbEntity
  8
0
100
AcDbCircle
 10
3.552209
 20
7.263659
 30
0.0
 40
0.012429
100
AcDbArc
 50
228.731466
 51
252.077717
  0
ARC
  5
24C
330
18
100
AcDbEntity
  8
0
100
AcDbCircle
 10
3.551762
 20
7.262275
 30
0.0
 40
0.010975
100
AcDbArc
 50
252.077717
 51
276.945463
  0
ARC
  5
24D
330
18
100
AcDbEntity
  8
0
100
AcDbCircle
 10
3.551762
 20
7.262275
 30
0.0
 40
0.010975
100
AcDbArc
 50
276.945463
 51
301.813209
  0
ARC
  5
24E
330
18
100
AcDbEntity
  8
0
100
AcDbCircle
 10
3.550995
 20
7.263511
 30
0.0
 40
0.012429
100
AcDbArc
 50
301.813209
 51
325.15946
  0
ARC
  5
24F
330
18
100
AcDbEntity
  8
0
100
AcDbCircle
 10
3.549947
 20
7.264241
 30
0.0
 40
0.013707
100
AcDbArc
 50
325.15946
 51
346.632542
  0
ARC
  5
250
330
18
100
AcDbEntity
  8
0
100
AcDbCircle
 10
3.548398
 20
7.264609
 30
0.0
 40
0.015298
100
AcDbArc
 50
346.632542
 51
6.945463
  0
ARC
  5
251
330
18
100
AcDbEntity
  8
0
100
AcDbCircle
 10
3.548398
 20
7.264609
 30
0.0
 40
0.015298
100
AcDbArc
 50
6.945463
 51
27.258384
  0
ARC
  5
252
330
18
100
AcDbEntity
  8
0
100
AcDbCircle
 10
3.549813
 20
7.265338000000001
 30
0.0
 40
0.013707
100
AcDbArc
 50
27.258384
 51
48.731466
  0
ARC
  5
253
330
18
100
AcDbEntity
  8
0
100
AcDbCircle
 10
3.550656
 20
7.266298
 30
0.0
 40
0.012429
100
AcDbArc
 50
48.731466
 51
72.07771700000001
  0
ARC
  5
254
330
18
100
AcDbEntity
  8
0
100
AcDbCircle
 10
3.551103
 20
7.267682000000001
 30
0.0
 40
0.010975
100
AcDbArc
 50
72.07771700000001
 51
96.945463
  0
ARC
  5
255
330
18
100
AcDbEntity
  8
0
100
AcDbCircle
 10
3.590705
 20
7.221829
 30
0.0
 40
0.010975
100
AcDbArc
 50
96.945463
 51
121.813209
  0
ARC
  5
256
330
18
100
AcDbEntity
  8
0
100
AcDbCircle
 10
3.591471
 20
7.220594
 30
0.0
 40
0.012429
100
AcDbArc
 50
121.813209
 51
145.15946
  0
ARC
  5
257
330
18
100
AcDbEntity
  8
0
100
AcDbCircle
 10
3.59252
 20
7.219863
 30
0.0
 40
0.013707
100
AcDbArc
 50
145.15946
 51
166.632542
  0
ARC
  5
258
330
18
100
AcDbEntity
  8
0
100
AcDbCircle
 10
3.594069
 20
7.219496
 30
0.0
 40
0.015298
100
AcDbArc
 50
166.632542
 51
186.945463
  0
ARC
  5
259
330
18
100
AcDbEntity
  8
0
100
AcDbCircle
 10
3.594069
 20
7.219496
 30
0.0
 40
0.015298
100
AcDbArc
 50
186.945463
 51
207.258384
  0
ARC
  5
25A
330
18
100
AcDbEntity
  8
0
100
AcDbCircle
 10
3.592654
 20
7.218767
 30
0.0
 40
0.013707
100
AcDbArc
 50
207.258384
 51
228.731466
  0
ARC
  5
25B
330
18
100
AcDbEntity
  8
0
100
AcDbCircle
 10
3.591811
 20
7.217806
 30
0.0
 40
0.012429
100
AcDbArc
 50
228.731466
 51
252.077717
  0
ARC
  5
25C
330
18
100
AcDbEntity
  8
0
100
AcDbCircle
 10
3.591364
 20
7.216423
 30
0.0
 40
0.010975
100
AcDbArc
 50
252.077717
 51
276.945463
  0
ARC
  5
25D
330
18
100
AcDbEntity
  8
0
100
AcDbCircle
 10
3.591364
 20
7.216423
 30
0.0
 40
0.010975
100
AcDbArc
 50
276.945463
 51
301.813209
  0
ARC
  5
25E
330
18
100
AcDbEntity
  8
0
100
AcDbCircle
 10
3.590597
 20
7.217658
 30
0.0
 40
0.012429
100
AcDbArc
 50
301.813209
 51
325.15946
  0
ARC
  5
25F
330
18
100
AcDbEntity
  8
0
100
AcDbCircle
 10
3.589548
 20
7.218388
 30
0.0
 40
0.013707
100
AcDbArc
 50
325.15946
 51
346.632542
  0
ARC
  5
260
330
18
100
AcDbEntity
  8
0
100
AcDbCircle
 10
3.588
 20
7.218756
 30
0.0
 40
0.015298
100
AcDbArc
 50
346.632542
 51
6.945463
  0
ARC
  5
261
330
18
100
AcDbEntity
  8
0
100
AcDbCircle
 10
3.588
 20
7.218756
 30
0.0
 40
0.015298
100
AcDbArc
 50
6.945463
 51
27.258384
  0
ARC
  5
262
330
18
100
AcDbEntity
  8
0
100
AcDbCircle
 10
3.589415
 20
7.219485000000001
 30
0.0
 40
0.013707
100
AcDbArc
 50
27.258384
 51
48.731466
  0
ARC
  5
263
330
18
100
AcDbEntity
  8
0
100
AcDbCircle
 10
3.590258
 20
7.220446000000001
 30
0.0
 40
0.012429
100
AcDbArc
 50
48.731466
 51
72.07771700000001
  0
ARC
  5
264
330
18
100
AcDbEntity
  8
0
100
AcDbCircle
 10
3.590705
 20
7.221829
 30
0.0
 40
0.010975
100
AcDbArc
 50
72.07771700000001
 51
96.945463
  0
ARC
  5
265
330
18
100
AcDbEntity
  8
0
100
AcDbCircle
 10
3.60304
 20
7.283127
 30
0.0
 40
0.010975
100
AcDbArc
 50
96.945463
 51
121.813209
  0
ARC
  5
266
330
18
100
AcDbEntity
  8
0
100
AcDbCircle
 10
3.603806
 20
7.281892
 30
0.0
 40
0.012429
100
AcDbArc
 50
121.813209
 51
145.15946
  0
ARC
  5
267
330
18
100
AcDbEntity
  8
0
100
AcDbCircle
 10
3.604855
 20
7.281161999999999
 30
0.0
 40
0.013707
100
AcDbArc
 50
145.15946
 51
166.632542
  0
ARC
  5
268
330
18
100
AcDbEntity
  8
0
100
AcDbCircle
 10
3.606404
 20
7.280794
 30
0.0
 40
0.015298
100
AcDbArc
 50
166.632542
 51
186.945463
  0
ARC
  5
269
330
18
100
AcDbEntity
  8
0
100
AcDbCircle
 10
3.606404
 20
7.280794
 30
0.0
 40
0.015298
100
AcDbArc
 50
186.945463
 51
207.258384
  0
ARC
  5
26A
330
18
100
AcDbEntity
  8
0
100
AcDbCircle
 10
3.604989
 20
7.280065
 30
0.0
 40
0.013707
100
AcDbArc
 50
207.258384
 51
228.731466
  0
ARC
  5
26B
330
18
100
AcDbEntity
  8
0
100
AcDbCircle
 10
3.604146
 20
7.279103999999999
 30
0.0
 40
0.012429
100
AcDbArc
 50
228.731466
 51
252.077717
  0
ARC
  5
26C
330
18
100
AcDbEntity
  8
0
100
AcDbCircle
 10
3.603699
 20
7.277721000000001
 30
0.0
 40
0.010975
100
AcDbArc
 50
252.077717
 51
276.945463
  0
ARC
  5
26D
330
18
100
AcDbEntity
  8
0
100
AcDbCircle
 10
3.603699
 20
7.277721000000001
 30
0.0
 40
0.010975
100
AcDbArc
 50
276.945463
 51
301.813209
  0
ARC
  5
26E
330
18
100
AcDbEntity
  8
0
100
AcDbCircle
 10
3.602932
 20
7.278957000000001
 30
0.0
 40
0.012429
100
AcDbArc
 50
301.813209
 51
325.15946
  0
ARC
  5
26F
330
18
100
AcDbEntity
  8
0
100
AcDbCircle
 10
3.601883
 20
7.279686999999999
 30
0.0
 40
0.013707
100
AcDbArc
 50
325.15946
 51
346.632542
  0
ARC
  5
270
330
18
100
AcDbEntity
  8
0
100
AcDbCircle
 10
3.600335
 20
7.280055
 30
0.0
 40
0.015298
100
AcDbArc
 50
346.632542
 51
6.945463
  0
ARC
  5
271
330
18
100
AcDbEntity
  8
0
100
AcDbCircle
 10
3.600335
 20
7.280055
 30
0.0
 40
0.015298
100
AcDbArc
 50
6.945463
 51
27.258384
  0
ARC
  5
272
330
18
100
AcDbEntity
  8
0
100
AcDbCircle
 10
3.60175
 20
7.280784
 30
0.0
 40
0.013707
100
AcDbArc
 50
27.258384
 51
48.731466
  0
ARC
  5
273
330
18
100
AcDbEntity
  8
0
100
AcDbCircle
 10
3.602593
 20
7.281744000000001
 30
0.0
 40
0.012429
100
AcDbArc
 50
48.731466
 51
72.07771700000001
  0
ARC
  5
274
330
18
100
AcDbEntity
  8
0
100
AcDbCircle
 10
3.60304
 20
7.283127
 30
0.0
 40
0.010975
100
AcDbArc
 50
72.07771700000001
 51
96.945463
  0
ARC
  5
275
330
18
100
AcDbEntity
  8
0
100
AcDbCircle
 10
3.743561
 20
7.04045
 30
0.0
 40
0.010519
100
AcDbArc
 50
122.43136
 51
149.548684
  0
ARC
  5
276
330
18
100
AcDbEntity
  8
0
100
AcDbCircle
 10
3.746104
 20
7.038956
 30
0.0
 40
0.013468
100
AcDbArc
 50
149.548684
 51
173.464004
  0
ARC
  5
277
330
18
100
AcDbEntity
  8
0
100
AcDbCircle
 10
3.748796
 20
7.038647
 30
0.0
 40
0.016178
100
AcDbArc
 50
173.464004
 51
193.908813
  0
ARC
  5
278
330
18
100
AcDbEntity
  8
0
100
AcDbCircle
 10
3.752188
 20
7.039486999999999
 30
0.0
 40
0.019673
100
AcDbArc
 50
193.908813
 51
212.43136
  0
ARC
  5
279
330
18
100
AcDbEntity
  8
0
100
AcDbCircle
 10
3.752188
 20
7.039486999999999
 30
0.0
 40
0.019673
100
AcDbArc
 50
212.43136
 51
230.953908
  0
ARC
  5
27A
330
18
100
AcDbEntity
  8
0
100
AcDbCircle
 10
3.749987
 20
7.036772999999999
 30
0.0
 40
0.016178
100
AcDbArc
 50
230.953908
 51
251.398717
  0
ARC
  5
27B
330
18
100
AcDbEntity
  8
0
100
AcDbCircle
 10
3.749122
 20
7.034205
 30
0.0
 40
0.013468
100
AcDbArc
 50
251.398717
 51
275.314037
  0
ARC
  5
27C
330
18
100
AcDbEntity
  8
0
100
AcDbCircle
 10
3.749396
 20
7.031267999999999
 30
0.0
 40
0.010519
100
AcDbArc
 50
275.314037
 51
302.43136
  0
ARC
  5
27D
330
18
100
AcDbEntity
  8
0
100
AcDbCircle
 10
3.749396
 20
7.031267999999999
 30
0.0
 40
0.010519
100
AcDbArc
 50
302.43136
 51
329.548684
  0
ARC
  5
27E
330
18
100
AcDbEntity
  8
0
100
AcDbCircle
 10
3.746853
 20
7.032763
 30
0.0
 40
0.013468
100
AcDbArc
 50
329.548684
 51
353.464004
  0
ARC
  5
27F
330
18
100
AcDbEntity
  8
0
100
AcDbCircle
 10
3.744161
 20
7.033071000000001
 30
0.0
 40
0.016178
100
AcDbArc
 50
353.464004
 51
13.908813
  0
ARC
  5
280
330
18
100
AcDbEntity
  8
0
100
AcDbCircle
 10
3.740769
 20
7.032231
 30
0.0
 40
0.019673
100
AcDbArc
 50
13.908813
 51
32.43136
  0
ARC
  5
281
330
18
100
AcDbEntity
  8
0
100
AcDbCircle
 10
3.740769
 20
7.032231
 30
0.0
 40
0.019673
100
AcDbArc
 50
32.43136
 51
50.953908
  0
ARC
  5
282
330
18
100
AcDbEntity
  8
0
100
AcDbCircle
 10
3.74297
 20
7.034945
 30
0.0
 40
0.016178
100
AcDbArc
 50
50.953908
 51
71.39871700000001
  0
ARC
  5
283
330
18
100
AcDbEntity
  8
0
100
AcDbCircle
 10
3.743834
 20
7.037514
 30
0.0
 40
0.013468
100
AcDbArc
 50
71.39871700000001
 51
95.31403700000001
  0
ARC
  5
284
330
18
100
AcDbEntity
  8
0
100
AcDbCircle
 10
3.743561
 20
7.04045
 30
0.0
 40
0.010519
100
AcDbArc
 50
95.31403700000001
 51
122.43136
  0
ARC
  5
285
330
18
100
AcDbEntity
  8
0
100
AcDbCircle
 10
3.67547
 20
7.057175999999999
 30
0.0
 40
0.010519
100
AcDbArc
 50
122.43136
 51
149.548684
  0
ARC
  5
286
330
18
100
AcDbEntity
  8
0
100
AcDbCircle
 10
3.678012
 20
7.055681
 30
0.0
 40
0.013468
100
AcDbArc
 50
149.548684
 51
173.464004
  0
ARC
  5
287
330
18
100
AcDbEntity
  8
0
100
AcDbCircle
 10
3.680705
 20
7.055373
 30
0.0
 40
0.016178
100
AcDbArc
 50
173.464004
 51
193.908813
  0
ARC
  5
288
330
18
100
AcDbEntity
  8
0
100
AcDbCircle
 10
3.684097
 20
7.056213000000001
 30
0.0
 40
0.019673
100
AcDbArc
 50
193.908813
 51
212.43136
  0
ARC
  5
289
330
18
100
AcDbEntity
  8
0
100
AcDbCircle
 10
3.684097
 20
7.056213000000001
 30
0.0
 40
0.019673
100
AcDbArc
 50
212.43136
 51
230.953908
  0
ARC
  5
28A
330
18
100
AcDbEntity
  8
0
100
AcDbCircle
 10
3.681895
 20
7.053499
 30
0.0
 40
0.016178
100
AcDbArc
 50
230.953908
 51
251.398717
  0
ARC
  5
28B
330
18
100
AcDbEntity
  8
0
100
AcDbCircle
 10
3.681031
 20
7.05093
 30
0.0
 40
0.013468
100
AcDbArc
 50
251.398717
 51
275.314037
  0
ARC
  5
28C
330
18
100
AcDbEntity
  8
0
100
AcDbCircle
 10
3.681304
 20
7.047994
 30
0.0
 40
0.010519
100
AcDbArc
 50
275.314037
 51
302.43136
  0
ARC
  5
28D
330
18
100
AcDbEntity
  8
0
100
AcDbCircle
 10
3.681304
 20
7.047994
 30
0.0
 40
0.010519
100
AcDbArc
 50
302.43136
 51
329.548684
  0
ARC
  5
28E
330
18
100
AcDbEntity
  8
0
100
AcDbCircle
 10
3.678762
 20
7.049488
 30
0.0
 40
0.013468
100
AcDbArc
 50
329.548684
 51
353.464004
  0
ARC
  5
28F
330
18
100
AcDbEntity
  8
0
100
AcDbCircle
 10
3.676069
 20
7.049797
 30
0.0
 40
0.016178
100
AcDbArc
 50
353.464004
 51
13.908813
  0
ARC
  5
290
330
18
100
AcDbEntity
  8
0
100
AcDbCircle
 10
3.672677
 20
7.048957000000001
 30
0.0
 40
0.019673
100
AcDbArc
 50
13.908813
 51
32.43136
  0
ARC
  5
291
330
18
100
AcDbEntity
  8
0
100
AcDbCircle
 10
3.672677
 20
7.048957000000001
 30
0.0
 40
0.019673
100
AcDbArc
 50
32.43136
 51
50.953908
  0
ARC
  5
292
330
18
100
AcDbEntity
  8
0
100
AcDbCircle
 10
3.674878
 20
7.051671000000001
 30
0.0
 40
0.016178
100
AcDbArc
 50
50.953908
 51
71.39871700000001
  0
ARC
  5
293
330
18
100
AcDbEntity
  8
0
100
AcDbCircle
 10
3.675743
 20
7.054239
 30
0.0
 40
0.013468
100
AcDbArc
 50
71.39871700000001
 51
95.31403700000001
  0
ARC
  5
294
330
18
100
AcDbEntity
  8
0
100
AcDbCircle
 10
3.67547
 20
7.057175999999999
 30
0.0
 40
0.010519
100
AcDbArc
 50
95.31403700000001
 51
122.43136
  0
ARC
  5
295
330
18
100
AcDbEntity
  8
0
100
AcDbCircle
 10
3.67547
 20
6.926077
 30
0.0
 40
0.010519
100
AcDbArc
 50
122.43136
 51
149.548684
  0
ARC
  5
296
330
18
100
AcDbEntity
  8
0
100
AcDbCircle
 10
3.678012
 20
6.924582000000001
 30
0.0
 40
0.013468
100
AcDbArc
 50
149.548684
 51
173.464004
  0
ARC
  5
297
330
18
100
AcDbEntity
  8
0
100
AcDbCircle
 10
3.680705
 20
6.924274000000001
 30
0.0
 40
0.016178
100
AcDbArc
 50
173.464004
 51
193.908813
  0
ARC
  5
298
330
18
100
AcDbEntity
  8
0
100
AcDbCircle
 10
3.684097
 20
6.925114
 30
0.0
 40
0.019673
100
AcDbArc
 50
193.908813
 51
212.43136
  0
ARC
  5
299
330
18
100
AcDbEntity
  8
0
100
AcDbCircle
 10
3.684097
 20
6.925114
 30
0.0
 40
0.019673
100
AcDbArc
 50
212.43136
 51
230.953908
  0
ARC
  5
29A
330
18
100
AcDbEntity
  8
0
100
AcDbCircle
 10
3.681895
 20
6.9224
 30
0.0
 40
0.016178
100
AcDbArc
 50
230.953908
 51
251.398717
  0
ARC
  5
29B
330
18
100
AcDbEntity
  8
0
100
AcDbCircle
 10
3.681031
 20
6.919830999999999
 30
0.0
 40
0.013468
100
AcDbArc
 50
251.398717
 51
275.314037
  0
ARC
  5
29C
330
18
100
AcDbEntity
  8
0
100
AcDbCircle
 10
3.681304
 20
6.916894999999999
 30
0.0
 40
0.010519
100
AcDbArc
 50
275.314037
 51
302.43136
  0
ARC
  5
29D
330
18
100
AcDbEntity
  8
0
100
AcDbCircle
 10
3.681304
 20
6.916894999999999
 30
0.0
 40
0.010519
100
AcDbArc
 50
302.43136
 51
329.548684
  0
ARC
  5
29E
330
18
100
AcDbEntity
  8
0
100
AcDbCircle
 10
3.678762
 20
6.918389
 30
0.0
 40
0.013468
100
AcDbArc
 50
329.548684
 51
353.464004
  0
ARC
  5
29F
330
18
100
AcDbEntity
  8
0
100
AcDbCircle
 10
3.676069
 20
6.918698
 30
0.0
 40
0.016178
100
AcDbArc
 50
353.464004
 51
13.908813
  0
ARC
  5
2A0
330
18
100
AcDbEntity
  8
0
100
AcDbCircle
 10
3.672677
 20
6.917858
 30
0.0
 40
0.019673
100
AcDbArc
 50
13.908813
 51
32.43136
  0
ARC
  5
2A1
330
18
100
AcDbEntity
  8
0
100
AcDbCircle
 10
3.672677
 20
6.917858
 30
0.0
 40
0.019673
100
AcDbArc
 50
32.43136
 51
50.953908
  0
ARC
  5
2A2
330
18
100
AcDbEntity
  8
0
100
AcDbCircle
 10
3.674878
 20
6.920572
 30
0.0
 40
0.016178
100
AcDbArc
 50
50.953908
 51
71.39871700000001
  0
ARC
  5
2A3
330
18
100
AcDbEntity
  8
0
100
AcDbCircle
 10
3.675743
 20
6.923139999999999
 30
0.0
 40
0.013468
100
AcDbArc
 50
71.39871700000001
 51
95.31403700000001
  0
ARC
  5
2A4
330
18
100
AcDbEntity
  8
0
100
AcDbCircle
 10
3.67547
 20
6.926077
 30
0.0
 40
0.010519
100
AcDbArc
 50
95.31403700000001
 51
122.43136
  0
ARC
  5
2A5
330
18
100
AcDbEntity
  8
0
100
AcDbCircle
 10
3.743561
 20
6.909350999999999
 30
0.0
 40
0.010519
100
AcDbArc
 50
122.43136
 51
149.548684
  0
ARC
  5
2A6
330
18
100
AcDbEntity
  8
0
100
AcDbCircle
 10
3.746104
 20
6.907857000000001
 30
0.0
 40
0.013468
100
AcDbArc
 50
149.548684
 51
173.464004
  0
ARC
  5
2A7
330
18
100
AcDbEntity
  8
0
100
AcDbCircle
 10
3.748796
 20
6.907547999999999
 30
0.0
 40
0.016178
100
AcDbArc
 50
173.464004
 51
193.908813
  0
ARC
  5
2A8
330
18
100
AcDbEntity
  8
0
100
AcDbCircle
 10
3.752188
 20
6.908388
 30
0.0
 40
0.019673
100
AcDbArc
 50
193.908813
 51
212.43136
  0
ARC
  5
2A9
330
18
100
AcDbEntity
  8
0
100
AcDbCircle
 10
3.752188
 20
6.908388
 30
0.0
 40
0.019673
100
AcDbArc
 50
212.43136
 51
230.953908
  0
ARC
  5
2AA
330
18
100
AcDbEntity
  8
0
100
AcDbCircle
 10
3.749987
 20
6.905674
 30
0.0
 40
0.016178
100
AcDbArc
 50
230.953908
 51
251.398717
  0
ARC
  5
2AB
330
18
100
AcDbEntity
  8
0
100
AcDbCircle
 10
3.749122
 20
6.903105
 30
0.0
 40
0.013468
100
AcDbArc
 50
251.398717
 51
275.314037
  0
ARC
  5
2AC
330
18
100
AcDbEntity
  8
0
100
AcDbCircle
 10
3.749396
 20
6.900169
 30
0.0
 40
0.010519
100
AcDbArc
 50
275.314037
 51
302.43136
  0
ARC
  5
2AD
330
18
100
AcDbEntity
  8
0
100
AcDbCircle
 10
3.749396
 20
6.900169
 30
0.0
 40
0.010519
100
AcDbArc
 50
302.43136
 51
329.548684
  0
ARC
  5
2AE
330
18
100
AcDbEntity
  8
0
100
AcDbCircle
 10
3.746853
 20
6.901664
 30
0.0
 40
0.013468
100
AcDbArc
 50
329.548684
 51
353.464004
  0
ARC
  5
2AF
330
18
100
AcDbEntity
  8
0
100
AcDbCircle
 10
3.744161
 20
6.901972
 30
0.0
 40
0.016178
100
AcDbArc
 50
353.464004
 51
13.908813
  0
ARC
  5
2B0
330
18
100
AcDbEntity
  8
0
100
AcDbCircle
 10
3.740769
 20
6.901132000000001
 30
0.0
 40
0.019673
100
AcDbArc
 50
13.908813
 51
32.43136
  0
ARC
  5
2B1
330
18
100
AcDbEntity
  8
0
100
AcDbCircle
 10
3.740769
 20
6.901132000000001
 30
0.0
 40
0.019673
100
AcDbArc
 50
32.43136
 51
50.953908
  0
ARC
  5
2B2
330
18
100
AcDbEntity
  8
0
100
AcDbCircle
 10
3.74297
 20
6.903846000000001
 30
0.0
 40
0.016178
100
AcDbArc
 50
50.953908
 51
71.39871700000001
  0
ARC
  5
2B3
330
18
100
AcDbEntity
  8
0
100
AcDbCircle
 10
3.743834
 20
6.906414999999999
 30
0.0
 40
0.013468
100
AcDbArc
 50
71.39871700000001
 51
95.31403700000001
  0
ARC
  5
2B4
330
18
100
AcDbEntity
  8
0
100
AcDbCircle
 10
3.743561
 20
6.909350999999999
 30
0.0
 40
0.010519
100
AcDbArc
 50
95.31403700000001
 51
122.43136
  0
ARC
  5
2B5
330
18
100
AcDbEntity
  8
0
100
AcDbCircle
 10
2.168908
 20
7.544687
 30
0.0
 40
0.001657
100
AcDbArc
 50
182.0832370000001
 51
228.169152
  0
ARC
  5
2B6
330
18
100
AcDbEntity
  8
0
100
AcDbCircle
 10
2.172382
 20
7.548568
 30
0.0
 40
0.006865
100
AcDbArc
 50
228.169152
 51
250.340986
  0
ARC
  5
2B7
330
18
100
AcDbEntity
  8
0
100
AcDbCircle
 10
2.17459
 20
7.55475
 30
0.0
 40
0.01343
100
AcDbArc
 50
250.340986
 51
262.703281
  0
ARC
  5
2B8
330
18
100
AcDbEntity
  8
0
100
AcDbCircle
 10
2.175842
 20
7.564528999999999
 30
0.0
 40
0.023289
100
AcDbArc
 50
262.703281
 51
272.083237
  0
ARC
  5
2B9
330
18
100
AcDbEntity
  8
0
100
AcDbCircle
 10
2.175842
 20
7.564528999999999
 30
0.0
 40
0.023289
100
AcDbArc
 50
272.083237
 51
281.463193
  0
ARC
  5
2BA
330
18
100
AcDbEntity
  8
0
100
AcDbCircle
 10
2.177801
 20
7.554867
 30
0.0
 40
0.01343
100
AcDbArc
 50
281.463193
 51
293.825488
  0
ARC
  5
2BB
330
18
100
AcDbEntity
  8
0
100
AcDbCircle
 10
2.180453
 20
7.548862
 30
0.0
 40
0.006865
100
AcDbArc
 50
293.825488
 51
315.997321
  0
ARC
  5
2BC
330
18
100
AcDbEntity
  8
0
100
AcDbCircle
 10
2.1842
 20
7.545242999999999
 30
0.0
 40
0.001657
100
AcDbArc
 50
315.997321
 51
2.083237
  0
ARC
  5
2BD
330
18
100
AcDbEntity
  8
0
100
AcDbCircle
 10
2.1842
 20
7.545242999999999
 30
0.0
 40
0.001657
100
AcDbArc
 50
2.083237
 51
48.169152
  0
ARC
  5
2BE
330
18
100
AcDbEntity
  8
0
100
AcDbCircle
 10
2.180726
 20
7.541362
 30
0.0
 40
0.006865
100
AcDbArc
 50
48.169152
 51
70.340986
  0
ARC
  5
2BF
330
18
100
AcDbEntity
  8
0
100
AcDbCircle
 10
2.178518
 20
7.535181
 30
0.0
 40
0.01343
100
AcDbArc
 50
70.340986
 51
82.703281
  0
ARC
  5
2C0
330
18
100
AcDbEntity
  8
0
100
AcDbCircle
 10
2.177265
 20
7.525401
 30
0.0
 40
0.023289
100
AcDbArc
 50
82.703281
 51
92.083237
  0
ARC
  5
2C1
330
18
100
AcDbEntity
  8
0
100
AcDbCircle
 10
2.177265
 20
7.525401
 30
0.0
 40
0.023289
100
AcDbArc
 50
92.083237
 51
101.463193
  0
ARC
  5
2C2
330
18
100
AcDbEntity
  8
0
100
AcDbCircle
 10
2.175306
 20
7.535064
 30
0.0
 40
0.01343
100
AcDbArc
 50
101.463193
 51
113.825488
  0
ARC
  5
2C3
330
18
100
AcDbEntity
  8
0
100
AcDbCircle
 10
2.172654
 20
7.541069
 30
0.0
 40
0.006865
100
AcDbArc
 50
113.825488
 51
135.997321
  0
ARC
  5
2C4
330
18
100
AcDbEntity
  8
0
100
AcDbCircle
 10
2.168908
 20
7.544687
 30
0.0
 40
0.001657
100
AcDbArc
 50
135.997321
 51
182.0832370000001
  0
ARC
  5
2C5
330
18
100
AcDbEntity
  8
0
100
AcDbCircle
 10
1.990507
 20
7.547209
 30
0.0
 40
0.001657
100
AcDbArc
 50
182.0832370000001
 51
228.169152
  0
ARC
  5
2C6
330
18
100
AcDbEntity
  8
0
100
AcDbCircle
 10
1.993981
 20
7.551089999999999
 30
0.0
 40
0.006865
100
AcDbArc
 50
228.169152
 51
250.340986
  0
ARC
  5
2C7
330
18
100
AcDbEntity
  8
0
100
AcDbCircle
 10
1.996189
 20
7.557271000000001
 30
0.0
 40
0.01343
100
AcDbArc
 50
250.340986
 51
262.703281
  0
ARC
  5
2C8
330
18
100
AcDbEntity
  8
0
100
AcDbCircle
 10
1.997442
 20
7.567050999999999
 30
0.0
 40
0.023289
100
AcDbArc
 50
262.703281
 51
272.083237
  0
ARC
  5
2C9
330
18
100
AcDbEntity
  8
0
100
AcDbCircle
 10
1.997442
 20
7.567050999999999
 30
0.0
 40
0.023289
100
AcDbArc
 50
272.083237
 51
281.463193
  0
ARC
  5
2CA
330
18
100
AcDbEntity
  8
0
100
AcDbCircle
 10
1.999401
 20
7.557388
 30
0.0
 40
0.01343
100
AcDbArc
 50
281.463193
 51
293.825488
  0
ARC
  5
2CB
330
18
100
AcDbEntity
  8
0
100
AcDbCircle
 10
2.002053
 20
7.551383
 30
0.0
 40
0.006865
100
AcDbArc
 50
293.825488
 51
315.997321
  0
ARC
  5
2CC
330
18
100
AcDbEntity
  8
0
100
AcDbCircle
 10
2.005799
 20
7.547764999999999
 30
0.0
 40
0.001657
100
AcDbArc
 50
315.997321
 51
2.083237
  0
ARC
  5
2CD
330
18
100
AcDbEntity
  8
0
100
AcDbCircle
 10
2.005799
 20
7.547764999999999
 30
0.0
 40
0.001657
100
AcDbArc
 50
2.083237
 51
48.169152
  0
ARC
  5
2CE
330
18
100
AcDbEntity
  8
0
100
AcDbCircle
 10
2.002326
 20
7.543883999999999
 30
0.0
 40
0.006865
100
AcDbArc
 50
48.169152
 51
70.340986
  0
ARC
  5
2CF
330
18
100
AcDbEntity
  8
0
100
AcDbCircle
 10
2.000117
 20
7.537702
 30
0.0
 40
0.01343
100
AcDbArc
 50
70.340986
 51
82.703281
  0
ARC
  5
2D0
330
18
100
AcDbEntity
  8
0
100
AcDbCircle
 10
1.998865
 20
7.527923
 30
0.0
 40
0.023289
100
AcDbArc
 50
82.703281
 51
92.083237
  0
ARC
  5
2D1
330
18
100
AcDbEntity
  8
0
100
AcDbCircle
 10
1.998865
 20
7.527923
 30
0.0
 40
0.023289
100
AcDbArc
 50
92.083237
 51
101.463193
  0
ARC
  5
2D2
330
18
100
AcDbEntity
  8
0
100
AcDbCircle
 10
1.996906
 20
7.537585000000001
 30
0.0
 40
0.01343
100
AcDbArc
 50
101.463193
 51
113.825488
  0
ARC
  5
2D3
330
18
100
AcDbEntity
  8
0
100
AcDbCircle
 10
1.994254
 20
7.543589999999999
 30
0.0
 40
0.006865
100
AcDbArc
 50
113.825488
 51
135.997321
  0
ARC
  5
2D4
330
18
100
AcDbEntity
  8
0
100
AcDbCircle
 10
1.990507
 20
7.547209
 30
0.0
 40
0.001657
100
AcDbArc
 50
135.997321
 51
182.0832370000001
  0
ARC
  5
2D5
330
18
100
AcDbEntity
  8
0
100
AcDbCircle
 10
2.052342
 20
7.54074
 30
0.0
 40
0.005522
100
AcDbArc
 50
182.0832370000001
 51
228.169152
  0
ARC
  5
2D6
330
18
100
AcDbEntity
  8
0
100
AcDbCircle
 10
2.063921
 20
7.553677
 30
0.0
 40
0.022885
100
AcDbArc
 50
228.169152
 51
250.340986
  0
ARC
  5
2D7
330
18
100
AcDbEntity
  8
0
100
AcDbCircle
 10
2.071282
 20
7.574283
 30
0.0
 40
0.044766
100
AcDbArc
 50
250.340986
 51
262.703281
  0
ARC
  5
2D8
330
18
100
AcDbEntity
  8
0
100
AcDbCircle
 10
2.075456
 20
7.60688
 30
0.0
 40
0.07763
100
AcDbArc
 50
262.703281
 51
272.083237
  0
ARC
  5
2D9
330
18
100
AcDbEntity
  8
0
100
AcDbCircle
 10
2.075456
 20
7.60688
 30
0.0
 40
0.07763
100
AcDbArc
 50
272.083237
 51
281.463193
  0
ARC
  5
2DA
330
18
100
AcDbEntity
  8
0
100
AcDbCircle
 10
2.081988
 20
7.574672000000001
 30
0.0
 40
0.044766
100
AcDbArc
 50
281.463193
 51
293.825488
  0
ARC
  5
2DB
330
18
100
AcDbEntity
  8
0
100
AcDbCircle
 10
2.090827
 20
7.554656
 30
0.0
 40
0.022885
100
AcDbArc
 50
293.825488
 51
315.997321
  0
ARC
  5
2DC
330
18
100
AcDbEntity
  8
0
100
AcDbCircle
 10
2.103315
 20
7.542594
 30
0.0
 40
0.005522
100
AcDbArc
 50
315.997321
 51
2.083237
  0
ARC
  5
2DD
330
18
100
AcDbEntity
  8
0
100
AcDbCircle
 10
2.103315
 20
7.542594
 30
0.0
 40
0.005522
100
AcDbArc
 50
2.083237
 51
48.169152
  0
ARC
  5
2DE
330
18
100
AcDbEntity
  8
0
100
AcDbCircle
 10
2.091736
 20
7.529657
 30
0.0
 40
0.022885
100
AcDbArc
 50
48.169152
 51
70.340986
  0
ARC
  5
2DF
330
18
100
AcDbEntity
  8
0
100
AcDbCircle
 10
2.084375
 20
7.509052000000001
 30
0.0
 40
0.044766
100
AcDbArc
 50
70.340986
 51
82.703281
  0
ARC
  5
2E0
330
18
100
AcDbEntity
  8
0
100
AcDbCircle
 10
2.080201
 20
7.476454
 30
0.0
 40
0.07763
100
AcDbArc
 50
82.703281
 51
92.083237
  0
ARC
  5
2E1
330
18
100
AcDbEntity
  8
0
100
AcDbCircle
 10
2.080201
 20
7.476454
 30
0.0
 40
0.07763
100
AcDbArc
 50
92.083237
 51
101.463193
  0
ARC
  5
2E2
330
18
100
AcDbEntity
  8
0
100
AcDbCircle
 10
2.073669
 20
7.508661999999999
 30
0.0
 40
0.044766
100
AcDbArc
 50
101.463193
 51
113.825488
  0
ARC
  5
2E3
330
18
100
AcDbEntity
  8
0
100
AcDbCircle
 10
2.064831
 20
7.528679
 30
0.0
 40
0.022885
100
AcDbArc
 50
113.825488
 51
135.997321
  0
ARC
  5
2E4
330
18
100
AcDbEntity
  8
0
100
AcDbCircle
 10
2.052342
 20
7.54074
 30
0.0
 40
0.005522
100
AcDbArc
 50
135.997321
 51
182.0832370000001
  0
ARC
  5
2E5
330
18
100
AcDbEntity
  8
0
100
AcDbCircle
 10
1.776441
 20
7.403022999999999
 30
0.0
 40
0.012433
100
AcDbArc
 50
114.802798
 51
142.162122
  0
ARC
  5
2E6
330
18
100
AcDbEntity
  8
0
100
AcDbCircle
 10
1.779364
 20
7.400753
 30
0.0
 40
0.016135
100
AcDbArc
 50
142.162122
 51
166.125896
  0
ARC
  5
2E7
330
18
100
AcDbEntity
  8
0
100
AcDbCircle
 10
1.782682
 20
7.399933
 30
0.0
 40
0.019552
100
AcDbArc
 50
166.125896
 51
186.458642
  0
ARC
  5
2E8
330
18
100
AcDbEntity
  8
0
100
AcDbCircle
 10
1.787076
 20
7.40043
 30
0.0
 40
0.023974
100
AcDbArc
 50
186.458642
 51
204.802798
  0
ARC
  5
2E9
330
18
100
AcDbEntity
  8
0
100
AcDbCircle
 10
1.787076
 20
7.40043
 30
0.0
 40
0.023974
100
AcDbArc
 50
204.802798
 51
223.146954
  0
ARC
  5
2EA
330
18
100
AcDbEntity
  8
0
100
AcDbCircle
 10
1.78385
 20
7.397406
 30
0.0
 40
0.019552
100
AcDbArc
 50
223.146954
 51
243.479699
  0
ARC
  5
2EB
330
18
100
AcDbEntity
  8
0
100
AcDbCircle
 10
1.782324
 20
7.394348
 30
0.0
 40
0.016135
100
AcDbArc
 50
243.479699
 51
267.443474
  0
ARC
  5
2EC
330
18
100
AcDbEntity
  8
0
100
AcDbCircle
 10
1.782158
 20
7.390650999999999
 30
0.0
 40
0.012433
100
AcDbArc
 50
267.443474
 51
294.802798
  0
ARC
  5
2ED
330
18
100
AcDbEntity
  8
0
100
AcDbCircle
 10
1.782158
 20
7.390650999999999
 30
0.0
 40
0.012433
100
AcDbArc
 50
294.802798
 51
322.162122
  0
ARC
  5
2EE
330
18
100
AcDbEntity
  8
0
100
AcDbCircle
 10
1.779235
 20
7.392921
 30
0.0
 40
0.016135
100
AcDbArc
 50
322.162122
 51
346.125896
  0
ARC
  5
2EF
330
18
100
AcDbEntity
  8
0
100
AcDbCircle
 10
1.775917
 20
7.393741
 30
0.0
 40
0.019552
100
AcDbArc
 50
346.125896
 51
6.458642
  0
ARC
  5
2F0
330
18
100
AcDbEntity
  8
0
100
AcDbCircle
 10
1.771524
 20
7.393242999999999
 30
0.0
 40
0.023974
100
AcDbArc
 50
6.458642
 51
24.802798
  0
ARC
  5
2F1
330
18
100
AcDbEntity
  8
0
100
AcDbCircle
 10
1.771524
 20
7.393242999999999
 30
0.0
 40
0.023974
100
AcDbArc
 50
24.802798
 51
43.146954
  0
ARC
  5
2F2
330
18
100
AcDbEntity
  8
0
100
AcDbCircle
 10
1.77475
 20
7.396267
 30
0.0
 40
0.019552
100
AcDbArc
 50
43.146954
 51
63.479699
  0
ARC
  5
2F3
330
18
100
AcDbEntity
  8
0
100
AcDbCircle
 10
1.776276
 20
7.399325
 30
0.0
 40
0.016135
100
AcDbArc
 50
63.479699
 51
87.443474
  0
ARC
  5
2F4
330
18
100
AcDbEntity
  8
0
100
AcDbCircle
 10
1.776441
 20
7.403022999999999
 30
0.0
 40
0.012433
100
AcDbArc
 50
87.443474
 51
114.802798
  0
ARC
  5
2F5
330
18
100
AcDbEntity
  8
0
100
AcDbCircle
 10
1.820174
 20
7.228145
 30
0.0
 40
0.012433
100
AcDbArc
 50
114.802798
 51
142.162122
  0
ARC
  5
2F6
330
18
100
AcDbEntity
  8
0
100
AcDbCircle
 10
1.823098
 20
7.225874
 30
0.0
 40
0.016135
100
AcDbArc
 50
142.162122
 51
166.125896
  0
ARC
  5
2F7
330
18
100
AcDbEntity
  8
0
100
AcDbCircle
 10
1.826416
 20
7.225055
 30
0.0
 40
0.019552
100
AcDbArc
 50
166.125896
 51
186.458642
  0
ARC
  5
2F8
330
18
100
AcDbEntity
  8
0
100
AcDbCircle
 10
1.830809
 20
7.225552
 30
0.0
 40
0.023974
100
AcDbArc
 50
186.458642
 51
204.802798
  0
ARC
  5
2F9
330
18
100
AcDbEntity
  8
0
100
AcDbCircle
 10
1.830809
 20
7.225552
 30
0.0
 40
0.023974
100
AcDbArc
 50
204.802798
 51
223.146954
  0
ARC
  5
2FA
330
18
100
AcDbEntity
  8
0
100
AcDbCircle
 10
1.827583
 20
7.222528
 30
0.0
 40
0.019552
100
AcDbArc
 50
223.146954
 51
243.479699
  0
ARC
  5
2FB
330
18
100
AcDbEntity
  8
0
100
AcDbCircle
 10
1.826057
 20
7.219469999999999
 30
0.0
 40
0.016135
100
AcDbArc
 50
243.479699
 51
267.443474
  0
ARC
  5
2FC
330
18
100
AcDbEntity
  8
0
100
AcDbCircle
 10
1.825892
 20
7.215772
 30
0.0
 40
0.012433
100
AcDbArc
 50
267.443474
 51
294.802798
  0
ARC
  5
2FD
330
18
100
AcDbEntity
  8
0
100
AcDbCircle
 10
1.825892
 20
7.215772
 30
0.0
 40
0.012433
100
AcDbArc
 50
294.802798
 51
322.162122
  0
ARC
  5
2FE
330
18
100
AcDbEntity
  8
0
100
AcDbCircle
 10
1.822969
 20
7.218042999999999
 30
0.0
 40
0.016135
100
AcDbArc
 50
322.162122
 51
346.125896
  0
ARC
  5
2FF
330
18
100
AcDbEntity
  8
0
100
AcDbCircle
 10
1.819651
 20
7.218862
 30
0.0
 40
0.019552
100
AcDbArc
 50
346.125896
 51
6.458642
  0
ARC
  5
300
330
18
100
AcDbEntity
  8
0
100
AcDbCircle
 10
1.815257
 20
7.218365
 30
0.0
 40
0.023974
100
AcDbArc
 50
6.458642
 51
24.802798
  0
ARC
  5
301
330
18
100
AcDbEntity
  8
0
100
AcDbCircle
 10
1.815257
 20
7.218365
 30
0.0
 40
0.023974
100
AcDbArc
 50
24.802798
 51
43.146954
  0
ARC
  5
302
330
18
100
AcDbEntity
  8
0
100
AcDbCircle
 10
1.818483
 20
7.221389
 30
0.0
 40
0.019552
100
AcDbArc
 50
43.146954
 51
63.479699
  0
ARC
  5
303
330
18
100
AcDbEntity
  8
0
100
AcDbCircle
 10
1.820009
 20
7.224447000000001
 30
0.0
 40
0.016135
100
AcDbArc
 50
63.479699
 51
87.443474
  0
ARC
  5
304
330
18
100
AcDbEntity
  8
0
100
AcDbCircle
 10
1.820174
 20
7.228145
 30
0.0
 40
0.012433
100
AcDbArc
 50
87.443474
 51
114.802798
  0
ARC
  5
305
330
18
100
AcDbEntity
  8
0
100
AcDbCircle
 10
1.651792
 20
7.529722000000001
 30
0.0
 40
0.011823
100
AcDbArc
 50
121.199383
 51
149.894726
  0
ARC
  5
306
330
18
100
AcDbEntity
  8
0
100
AcDbCircle
 10
1.655871
 20
7.527357
 30
0.0
 40
0.016538
100
AcDbArc
 50
149.894726
 51
174.083768
  0
ARC
  5
307
330
18
100
AcDbEntity
  8
0
100
AcDbCircle
 10
1.660315
 20
7.526897
 30
0.0
 40
0.021006
100
AcDbArc
 50
174.083768
 51
193.796057
  0
ARC
  5
308
330
18
100
AcDbEntity
  8
0
100
AcDbCircle
 10
1.66603
 20
7.5283
 30
0.0
 40
0.026891
100
AcDbArc
 50
193.796057
 51
211.199383
  0
ARC
  5
309
330
18
100
AcDbEntity
  8
0
100
AcDbCircle
 10
1.66603
 20
7.5283
 30
0.0
 40
0.026891
100
AcDbArc
 50
211.199383
 51
228.602709
  0
ARC
  5
30A
330
18
100
AcDbEntity
  8
0
100
AcDbCircle
 10
1.662138
 20
7.523886
 30
0.0
 40
0.021006
100
AcDbArc
 50
228.602709
 51
248.314998
  0
ARC
  5
30B
330
18
100
AcDbEntity
  8
0
100
AcDbCircle
 10
1.660487
 20
7.519734
 30
0.0
 40
0.016538
100
AcDbArc
 50
248.314998
 51
272.50404
  0
ARC
  5
30C
330
18
100
AcDbEntity
  8
0
100
AcDbCircle
 10
1.660693
 20
7.515024
 30
0.0
 40
0.011823
100
AcDbArc
 50
272.50404
 51
301.199383
  0
ARC
  5
30D
330
18
100
AcDbEntity
  8
0
100
AcDbCircle
 10
1.660693
 20
7.515024
 30
0.0
 40
0.011823
100
AcDbArc
 50
301.199383
 51
329.894726
  0
ARC
  5
30E
330
18
100
AcDbEntity
  8
0
100
AcDbCircle
 10
1.656615
 20
7.517388
 30
0.0
 40
0.016538
100
AcDbArc
 50
329.894726
 51
354.083768
  0
ARC
  5
30F
330
18
100
AcDbEntity
  8
0
100
AcDbCircle
 10
1.65217
 20
7.517849000000001
 30
0.0
 40
0.021006
100
AcDbArc
 50
354.083768
 51
13.796057
  0
ARC
  5
310
330
18
100
AcDbEntity
  8
0
100
AcDbCircle
 10
1.646455
 20
7.516446000000001
 30
0.0
 40
0.026891
100
AcDbArc
 50
13.796057
 51
31.199383
  0
ARC
  5
311
330
18
100
AcDbEntity
  8
0
100
AcDbCircle
 10
1.646455
 20
7.516446000000001
 30
0.0
 40
0.026891
100
AcDbArc
 50
31.199383
 51
48.602709
  0
ARC
  5
312
330
18
100
AcDbEntity
  8
0
100
AcDbCircle
 10
1.650347
 20
7.520860000000001
 30
0.0
 40
0.021006
100
AcDbArc
 50
48.602709
 51
68.314998
  0
ARC
  5
313
330
18
100
AcDbEntity
  8
0
100
AcDbCircle
 10
1.651998
 20
7.525011999999999
 30
0.0
 40
0.016538
100
AcDbArc
 50
68.314998
 51
92.50404
  0
ARC
  5
314
330
18
100
AcDbEntity
  8
0
100
AcDbCircle
 10
1.651792
 20
7.529722000000001
 30
0.0
 40
0.011823
100
AcDbArc
 50
92.50404
 51
121.199383
  0
ARC
  5
315
330
18
100
AcDbEntity
  8
0
100
AcDbCircle
 10
1.545211
 20
7.662328
 30
0.0
 40
0.011823
100
AcDbArc
 50
121.199383
 51
149.894726
  0
ARC
  5
316
330
18
100
AcDbEntity
  8
0
100
AcDbCircle
 10
1.54929
 20
7.659963
 30
0.0
 40
0.016538
100
AcDbArc
 50
149.894726
 51
174.083768
  0
ARC
  5
317
330
18
100
AcDbEntity
  8
0
100
AcDbCircle
 10
1.553734
 20
7.659503
 30
0.0
 40
0.021006
100
AcDbArc
 50
174.083768
 51
193.796057
  0
ARC
  5
318
330
18
100
AcDbEntity
  8
0
100
AcDbCircle
 10
1.559449
 20
7.660906
 30
0.0
 40
0.026891
100
AcDbArc
 50
193.796057
 51
211.199383
  0
ARC
  5
319
330
18
100
AcDbEntity
  8
0
100
AcDbCircle
 10
1.559449
 20
7.660906
 30
0.0
 40
0.026891
100
AcDbArc
 50
211.199383
 51
228.602709
  0
ARC
  5
31A
330
18
100
AcDbEntity
  8
0
100
AcDbCircle
 10
1.555558
 20
7.656492
 30
0.0
 40
0.021006
100
AcDbArc
 50
228.602709
 51
248.314998
  0
ARC
  5
31B
330
18
100
AcDbEntity
  8
0
100
AcDbCircle
 10
1.553907
 20
7.65234
 30
0.0
 40
0.016538
100
AcDbArc
 50
248.314998
 51
272.50404
  0
ARC
  5
31C
330
18
100
AcDbEntity
  8
0
100
AcDbCircle
 10
1.554113
 20
7.64763
 30
0.0
 40
0.011823
100
AcDbArc
 50
272.50404
 51
301.199383
  0
ARC
  5
31D
330
18
100
AcDbEntity
  8
0
100
AcDbCircle
 10
1.554113
 20
7.64763
 30
0.0
 40
0.011823
100
AcDbArc
 50
301.199383
 51
329.894726
  0
ARC
  5
31E
330
18
100
AcDbEntity
  8
0
100
AcDbCircle
 10
1.550034
 20
7.649994
 30
0.0
 40
0.016538
100
AcDbArc
 50
329.894726
 51
354.083768
  0
ARC
  5
31F
330
18
100
AcDbEntity
  8
0
100
AcDbCircle
 10
1.54559
 20
7.650455
 30
0.0
 40
0.021006
100
AcDbArc
 50
354.083768
 51
13.796057
  0
ARC
  5
320
330
18
100
AcDbEntity
  8
0
100
AcDbCircle
 10
1.539875
 20
7.649052
 30
0.0
 40
0.026891
100
AcDbArc
 50
13.796057
 51
31.199383
  0
ARC
  5
321
330
18
100
AcDbEntity
  8
0
100
AcDbCircle
 10
1.539875
 20
7.649052
 30
0.0
 40
0.026891
100
AcDbArc
 50
31.199383
 51
48.602709
  0
ARC
  5
322
330
18
100
AcDbEntity
  8
0
100
AcDbCircle
 10
1.543766
 20
7.653466000000001
 30
0.0
 40
0.021006
100
AcDbArc
 50
48.602709
 51
68.314998
  0
ARC
  5
323
330
18
100
AcDbEntity
  8
0
100
AcDbCircle
 10
1.545417
 20
7.657617999999999
 30
0.0
 40
0.016538
100
AcDbArc
 50
68.314998
 51
92.50404
  0
ARC
  5
324
330
18
100
AcDbEntity
  8
0
100
AcDbCircle
 10
1.545211
 20
7.662328
 30
0.0
 40
0.011823
100
AcDbArc
 50
92.50404
 51
121.199383
  0
ARC
  5
325
330
18
100
AcDbEntity
  8
0
100
AcDbCircle
 10
5.628195
 20
6.564888000000001
 30
0.0
 40
0.010498
100
AcDbArc
 50
103.971895
 51
131.30677
  0
ARC
  5
326
330
18
100
AcDbEntity
  8
0
100
AcDbCircle
 10
5.630246
 20
6.562555000000001
 30
0.0
 40
0.013605
100
AcDbArc
 50
131.30677
 51
155.265758
  0
ARC
  5
327
330
18
100
AcDbEntity
  8
0
100
AcDbCircle
 10
5.63285
 20
6.561355000000001
 30
0.0
 40
0.016472
100
AcDbArc
 50
155.265758
 51
175.609832
  0
ARC
  5
328
330
18
100
AcDbEntity
  8
0
100
AcDbCircle
 10
5.636547
 20
6.561071000000001
 30
0.0
 40
0.02018
100
AcDbArc
 50
175.609832
 51
193.971895
  0
ARC
  5
329
330
18
100
AcDbEntity
  8
0
100
AcDbCircle
 10
5.636547
 20
6.561071000000001
 30
0.0
 40
0.02018
100
AcDbArc
 50
193.971895
 51
212.333958
  0
ARC
  5
32A
330
18
100
AcDbEntity
  8
0
100
AcDbCircle
 10
5.633414
 20
6.559088
 30
0.0
 40
0.016472
100
AcDbArc
 50
212.333958
 51
232.678032
  0
ARC
  5
32B
330
18
100
AcDbEntity
  8
0
100
AcDbCircle
 10
5.631676000000001
 20
6.556808
 30
0.0
 40
0.013605
100
AcDbArc
 50
232.678032
 51
256.63702
  0
ARC
  5
32C
330
18
100
AcDbEntity
  8
0
100
AcDbCircle
 10
5.630957
 20
6.553785
 30
0.0
 40
0.010498
100
AcDbArc
 50
256.63702
 51
283.971895
  0
ARC
  5
32D
330
18
100
AcDbEntity
  8
0
100
AcDbCircle
 10
5.630957
 20
6.553785
 30
0.0
 40
0.010498
100
AcDbArc
 50
283.971895
 51
311.30677
  0
ARC
  5
32E
330
18
100
AcDbEntity
  8
0
100
AcDbCircle
 10
5.628907
 20
6.556119
 30
0.0
 40
0.013605
100
AcDbArc
 50
311.30677
 51
335.265758
  0
ARC
  5
32F
330
18
100
AcDbEntity
  8
0
100
AcDbCircle
 10
5.626303
 20
6.557318
 30
0.0
 40
0.016472
100
AcDbArc
 50
335.265758
 51
355.609832
  0
ARC
  5
330
330
18
100
AcDbEntity
  8
0
100
AcDbCircle
 10
5.622605
 20
6.557602
 30
0.0
 40
0.02018
100
AcDbArc
 50
355.609832
 51
13.971895
  0
ARC
  5
331
330
18
100
AcDbEntity
  8
0
100
AcDbCircle
 10
5.622605
 20
6.557602
 30
0.0
 40
0.02018
100
AcDbArc
 50
13.971895
 51
32.333958
  0
ARC
  5
332
330
18
100
AcDbEntity
  8
0
100
AcDbCircle
 10
5.625739
 20
6.559586
 30
0.0
 40
0.016472
100
AcDbArc
 50
32.333958
 51
52.678032
  0
ARC
  5
333
330
18
100
AcDbEntity
  8
0
100
AcDbCircle
 10
5.627477
 20
6.561866
 30
0.0
 40
0.013605
100
AcDbArc
 50
52.678032
 51
76.63701999999999
  0
ARC
  5
334
330
18
100
AcDbEntity
  8
0
100
AcDbCircle
 10
5.628195
 20
6.564888000000001
 30
0.0
 40
0.010498
100
AcDbArc
 50
76.63701999999999
 51
103.971895
  0
ARC
  5
335
330
18
100
AcDbEntity
  8
0
100
AcDbCircle
 10
5.681708
 20
6.64345
 30
0.0
 40
0.010498
100
AcDbArc
 50
103.971895
 51
131.30677
  0
ARC
  5
336
330
18
100
AcDbEntity
  8
0
100
AcDbCircle
 10
5.683758999999999
 20
6.641116
 30
0.0
 40
0.013605
100
AcDbArc
 50
131.30677
 51
155.265758
  0
ARC
  5
337
330
18
100
AcDbEntity
  8
0
100
AcDbCircle
 10
5.686363
 20
6.639916
 30
0.0
 40
0.016472
100
AcDbArc
 50
155.265758
 51
175.609832
  0
ARC
  5
338
330
18
100
AcDbEntity
  8
0
100
AcDbCircle
 10
5.69006
 20
6.639632000000001
 30
0.0
 40
0.02018
100
AcDbArc
 50
175.609832
 51
193.971895
  0
ARC
  5
339
330
18
100
AcDbEntity
  8
0
100
AcDbCircle
 10
5.69006
 20
6.639632000000001
 30
0.0
 40
0.02018
100
AcDbArc
 50
193.971895
 51
212.333958
  0
ARC
  5
33A
330
18
100
AcDbEntity
  8
0
100
AcDbCircle
 10
5.686927
 20
6.637649000000001
 30
0.0
 40
0.016472
100
AcDbArc
 50
212.333958
 51
232.678032
  0
ARC
  5
33B
330
18
100
AcDbEntity
  8
0
100
AcDbCircle
 10
5.685189
 20
6.635369
 30
0.0
 40
0.013605
100
AcDbArc
 50
232.678032
 51
256.63702
  0
ARC
  5
33C
330
18
100
AcDbEntity
  8
0
100
AcDbCircle
 10
5.684471
 20
6.632346000000001
 30
0.0
 40
0.010498
100
AcDbArc
 50
256.63702
 51
283.971895
  0
ARC
  5
33D
330
18
100
AcDbEntity
  8
0
100
AcDbCircle
 10
5.684471
 20
6.632346000000001
 30
0.0
 40
0.010498
100
AcDbArc
 50
283.971895
 51
311.30677
  0
ARC
  5
33E
330
18
100
AcDbEntity
  8
0
100
AcDbCircle
 10
5.68242
 20
6.63468
 30
0.0
 40
0.013605
100
AcDbArc
 50
311.30677
 51
335.265758
  0
ARC
  5
33F
330
18
100
AcDbEntity
  8
0
100
AcDbCircle
 10
5.679816000000001
 20
6.63588
 30
0.0
 40
0.016472
100
AcDbArc
 50
335.265758
 51
355.609832
  0
ARC
  5
340
330
18
100
AcDbEntity
  8
0
100
AcDbCircle
 10
5.676118
 20
6.636163000000001
 30
0.0
 40
0.02018
100
AcDbArc
 50
355.609832
 51
13.971895
  0
ARC
  5
341
330
18
100
AcDbEntity
  8
0
100
AcDbCircle
 10
5.676118
 20
6.636163000000001
 30
0.0
 40
0.02018
100
AcDbArc
 50
13.971895
 51
32.333958
  0
ARC
  5
342
330
18
100
AcDbEntity
  8
0
100
AcDbCircle
 10
5.679252
 20
6.638147
 30
0.0
 40
0.016472
100
AcDbArc
 50
32.333958
 51
52.678032
  0
ARC
  5
343
330
18
100
AcDbEntity
  8
0
100
AcDbCircle
 10
5.68099
 20
6.640427000000001
 30
0.0
 40
0.013605
100
AcDbArc
 50
52.678032
 51
76.63701999999999
  0
ARC
  5
344
330
18
100
AcDbEntity
  8
0
100
AcDbCircle
 10
5.681708
 20
6.64345
 30
0.0
 40
0.010498
100
AcDbArc
 50
76.63701999999999
 51
103.971895
  0
ARC
  5
345
330
18
100
AcDbEntity
  8
0
100
AcDbCircle
 10
5.681691000000001
 20
6.44867
 30
0.0
 40
0.010498
100
AcDbArc
 50
103.971895
 51
131.30677
  0
ARC
  5
346
330
18
100
AcDbEntity
  8
0
100
AcDbCircle
 10
5.683741
 20
6.446336
 30
0.0
 40
0.013605
100
AcDbArc
 50
131.30677
 51
155.265758
  0
ARC
  5
347
330
18
100
AcDbEntity
  8
0
100
AcDbCircle
 10
5.686344999999999
 20
6.445136
 30
0.0
 40
0.016472
100
AcDbArc
 50
155.265758
 51
175.609832
  0
ARC
  5
348
330
18
100
AcDbEntity
  8
0
100
AcDbCircle
 10
5.690043
 20
6.444852
 30
0.0
 40
0.02018
100
AcDbArc
 50
175.609832
 51
193.971895
  0
ARC
  5
349
330
18
100
AcDbEntity
  8
0
100
AcDbCircle
 10
5.690043
 20
6.444852
 30
0.0
 40
0.02018
100
AcDbArc
 50
193.971895
 51
212.333958
  0
ARC
  5
34A
330
18
100
AcDbEntity
  8
0
100
AcDbCircle
 10
5.686909
 20
6.442869
 30
0.0
 40
0.016472
100
AcDbArc
 50
212.333958
 51
232.678032
  0
ARC
  5
34B
330
18
100
AcDbEntity
  8
0
100
AcDbCircle
 10
5.685171
 20
6.440589
 30
0.0
 40
0.013605
100
AcDbArc
 50
232.678032
 51
256.63702
  0
ARC
  5
34C
330
18
100
AcDbEntity
  8
0
100
AcDbCircle
 10
5.684453
 20
6.437566
 30
0.0
 40
0.010498
100
AcDbArc
 50
256.63702
 51
283.971895
  0
ARC
  5
34D
330
18
100
AcDbEntity
  8
0
100
AcDbCircle
 10
5.684453
 20
6.437566
 30
0.0
 40
0.010498
100
AcDbArc
 50
283.971895
 51
311.30677
  0
ARC
  5
34E
330
18
100
AcDbEntity
  8
0
100
AcDbCircle
 10
5.682402
 20
6.4399
 30
0.0
 40
0.013605
100
AcDbArc
 50
311.30677
 51
335.265758
  0
ARC
  5
34F
330
18
100
AcDbEntity
  8
0
100
AcDbCircle
 10
5.679798
 20
6.441099
 30
0.0
 40
0.016472
100
AcDbArc
 50
335.265758
 51
355.609832
  0
ARC
  5
350
330
18
100
AcDbEntity
  8
0
100
AcDbCircle
 10
5.676101
 20
6.441383
 30
0.0
 40
0.02018
100
AcDbArc
 50
355.609832
 51
13.971895
  0
ARC
  5
351
330
18
100
AcDbEntity
  8
0
100
AcDbCircle
 10
5.676101
 20
6.441383
 30
0.0
 40
0.02018
100
AcDbArc
 50
13.971895
 51
32.333958
  0
ARC
  5
352
330
18
100
AcDbEntity
  8
0
100
AcDbCircle
 10
5.679233999999999
 20
6.443366999999999
 30
0.0
 40
0.016472
100
AcDbArc
 50
32.333958
 51
52.678032
  0
ARC
  5
353
330
18
100
AcDbEntity
  8
0
100
AcDbCircle
 10
5.680972
 20
6.445647
 30
0.0
 40
0.013605
100
AcDbArc
 50
52.678032
 51
76.63701999999999
  0
ARC
  5
354
330
18
100
AcDbEntity
  8
0
100
AcDbCircle
 10
5.681691000000001
 20
6.44867
 30
0.0
 40
0.010498
100
AcDbArc
 50
76.63701999999999
 51
103.971895
  0
ARC
  5
355
330
18
100
AcDbEntity
  8
0
100
AcDbCircle
 10
5.832171
 20
6.475445
 30
0.0
 40
0.00312
100
AcDbArc
 50
209.04642
 51
238.470035
  0
ARC
  5
356
330
18
100
AcDbEntity
  8
0
100
AcDbCircle
 10
5.832919
 20
6.476662
 30
0.0
 40
0.004549
100
AcDbArc
 50
238.470035
 51
262.752757
  0
ARC
  5
357
330
18
100
AcDbEntity
  8
0
100
AcDbCircle
 10
5.833092
 20
6.478025
 30
0.0
 40
0.005922
100
AcDbArc
 50
262.752757
 51
282.126681
  0
ARC
  5
358
330
18
100
AcDbEntity
  8
0
100
AcDbCircle
 10
5.832708
 20
6.479809
 30
0.0
 40
0.007747
100
AcDbArc
 50
282.126681
 51
299.04642
  0
ARC
  5
359
330
18
100
AcDbEntity
  8
0
100
AcDbCircle
 10
5.832708
 20
6.479809
 30
0.0
 40
0.007747
100
AcDbArc
 50
299.04642
 51
315.966159
  0
ARC
  5
35A
330
18
100
AcDbEntity
  8
0
100
AcDbCircle
 10
5.83402
 20
6.47854
 30
0.0
 40
0.005922
100
AcDbArc
 50
315.966159
 51
335.340083
  0
ARC
  5
35B
330
18
100
AcDbEntity
  8
0
100
AcDbCircle
 10
5.835268
 20
6.477967
 30
0.0
 40
0.004549
100
AcDbArc
 50
335.340083
 51
359.622806
  0
ARC
  5
35C
330
18
100
AcDbEntity
  8
0
100
AcDbCircle
 10
5.836697
 20
6.477958
 30
0.0
 40
0.00312
100
AcDbArc
 50
359.622806
 51
29.04642000000001
  0
ARC
  5
35D
330
18
100
AcDbEntity
  8
0
100
AcDbCircle
 10
5.836697
 20
6.477958
 30
0.0
 40
0.00312
100
AcDbArc
 50
29.04642000000001
 51
58.470035
  0
ARC
  5
35E
330
18
100
AcDbEntity
  8
0
100
AcDbCircle
 10
5.83595
 20
6.47674
 30
0.0
 40
0.004549
100
AcDbArc
 50
58.470035
 51
82.75275699999999
  0
ARC
  5
35F
330
18
100
AcDbEntity
  8
0
100
AcDbCircle
 10
5.835776999999999
 20
6.475378
 30
0.0
 40
0.005922
100
AcDbArc
 50
82.75275699999999
 51
102.126681
  0
ARC
  5
360
330
18
100
AcDbEntity
  8
0
100
AcDbCircle
 10
5.83616
 20
6.473594
 30
0.0
 40
0.007747
100
AcDbArc
 50
102.126681
 51
119.04642
  0
ARC
  5
361
330
18
100
AcDbEntity
  8
0
100
AcDbCircle
 10
5.83616
 20
6.473594
 30
0.0
 40
0.007747
100
AcDbArc
 50
119.04642
 51
135.966159
  0
ARC
  5
362
330
18
100
AcDbEntity
  8
0
100
AcDbCircle
 10
5.834848
 20
6.474862
 30
0.0
 40
0.005922
100
AcDbArc
 50
135.966159
 51
155.340083
  0
ARC
  5
363
330
18
100
AcDbEntity
  8
0
100
AcDbCircle
 10
5.8336
 20
6.475435
 30
0.0
 40
0.004549
100
AcDbArc
 50
155.340083
 51
179.622806
  0
ARC
  5
364
330
18
100
AcDbEntity
  8
0
100
AcDbCircle
 10
5.832171
 20
6.475445
 30
0.0
 40
0.00312
100
AcDbArc
 50
179.622806
 51
209.04642
  0
ARC
  5
365
330
18
100
AcDbEntity
  8
0
100
AcDbCircle
 10
5.877293
 20
6.497897
 30
0.0
 40
0.01248
100
AcDbArc
 50
209.04642
 51
238.470035
  0
ARC
  5
366
330
18
100
AcDbEntity
  8
0
100
AcDbCircle
 10
5.880281
 20
6.502768
 30
0.0
 40
0.018195
100
AcDbArc
 50
238.470035
 51
262.752757
  0
ARC
  5
367
330
18
100
AcDbEntity
  8
0
100
AcDbCircle
 10
5.880974
 20
6.508216
 30
0.0
 40
0.023687
100
AcDbArc
 50
262.752757
 51
282.126681
  0
ARC
  5
368
330
18
100
AcDbEntity
  8
0
100
AcDbCircle
 10
5.879441
 20
6.515353
 30
0.0
 40
0.030986
100
AcDbArc
 50
282.126681
 51
299.04642
  0
ARC
  5
369
330
18
100
AcDbEntity
  8
0
100
AcDbCircle
 10
5.879441
 20
6.515353
 30
0.0
 40
0.030986
100
AcDbArc
 50
299.04642
 51
315.966159
  0
ARC
  5
36A
330
18
100
AcDbEntity
  8
0
100
AcDbCircle
 10
5.884689
 20
6.510279
 30
0.0
 40
0.023687
100
AcDbArc
 50
315.966159
 51
335.340083
  0
ARC
  5
36B
330
18
100
AcDbEntity
  8
0
100
AcDbCircle
 10
5.88968
 20
6.507988
 30
0.0
 40
0.018195
100
AcDbArc
 50
335.340083
 51
359.622806
  0
ARC
  5
36C
330
18
100
AcDbEntity
  8
0
100
AcDbCircle
 10
5.895395
 20
6.50795
 30
0.0
 40
0.01248
100
AcDbArc
 50
359.622806
 51
29.04642000000001
  0
ARC
  5
36D
330
18
100
AcDbEntity
  8
0
100
AcDbCircle
 10
5.895395
 20
6.50795
 30
0.0
 40
0.01248
100
AcDbArc
 50
29.04642000000001
 51
58.470035
  0
ARC
  5
36E
330
18
100
AcDbEntity
  8
0
100
AcDbCircle
 10
5.892405999999999
 20
6.503079000000001
 30
0.0
 40
0.018195
100
AcDbArc
 50
58.470035
 51
82.75275699999999
  0
ARC
  5
36F
330
18
100
AcDbEntity
  8
0
100
AcDbCircle
 10
5.891712999999999
 20
6.49763
 30
0.0
 40
0.023687
100
AcDbArc
 50
82.75275699999999
 51
102.126681
  0
ARC
  5
370
330
18
100
AcDbEntity
  8
0
100
AcDbCircle
 10
5.893247
 20
6.490494
 30
0.0
 40
0.030986
100
AcDbArc
 50
102.126681
 51
119.04642
  0
ARC
  5
371
330
18
100
AcDbEntity
  8
0
100
AcDbCircle
 10
5.893247
 20
6.490494
 30
0.0
 40
0.030986
100
AcDbArc
 50
119.04642
 51
135.966159
  0
ARC
  5
372
330
18
100
AcDbEntity
  8
0
100
AcDbCircle
 10
5.887999
 20
6.495568000000001
 30
0.0
 40
0.023687
100
AcDbArc
 50
135.966159
 51
155.340083
  0
ARC
  5
373
330
18
100
AcDbEntity
  8
0
100
AcDbCircle
 10
5.883007
 20
6.497859
 30
0.0
 40
0.018195
100
AcDbArc
 50
155.340083
 51
179.622806
  0
ARC
  5
374
330
18
100
AcDbEntity
  8
0
100
AcDbCircle
 10
5.877293
 20
6.497897
 30
0.0
 40
0.01248
100
AcDbArc
 50
179.622806
 51
209.04642
  0
ARC
  5
375
330
18
100
AcDbEntity
  8
0
100
AcDbCircle
 10
5.700558999999999
 20
7.39835
 30
0.0
 40
0.010112
100
AcDbArc
 50
90.0
 51
116.45535
  0
ARC
  5
376
330
18
100
AcDbEntity
  8
0
100
AcDbCircle
 10
5.701615
 20
7.396228
 30
0.0
 40
0.012482
100
AcDbArc
 50
116.45535
 51
140.225741
  0
ARC
  5
377
330
18
100
AcDbEntity
  8
0
100
AcDbCircle
 10
5.703268
 20
7.394852
 30
0.0
 40
0.014632
100
AcDbArc
 50
140.225741
 51
160.976084
  0
ARC
  5
378
330
18
100
AcDbEntity
  8
0
100
AcDbCircle
 10
5.705863
 20
7.393957
 30
0.0
 40
0.017378
100
AcDbArc
 50
160.976084
 51
180.0
  0
ARC
  5
379
330
18
100
AcDbEntity
  8
0
100
AcDbCircle
 10
5.705863
 20
7.393957
 30
0.0
 40
0.017378
100
AcDbArc
 50
180.0
 51
199.023916
  0
ARC
  5
37A
330
18
100
AcDbEntity
  8
0
100
AcDbCircle
 10
5.703268
 20
7.393062
 30
0.0
 40
0.014632
100
AcDbArc
 50
199.023916
 51
219.774259
  0
ARC
  5
37B
330
18
100
AcDbEntity
  8
0
100
AcDbCircle
 10
5.701615
 20
7.391686
 30
0.0
 40
0.012482
100
AcDbArc
 50
219.774259
 51
243.54465
  0
ARC
  5
37C
330
18
100
AcDbEntity
  8
0
100
AcDbCircle
 10
5.700558999999999
 20
7.389564
 30
0.0
 40
0.010112
100
AcDbArc
 50
243.54465
 51
270.0
  0
ARC
  5
37D
330
18
100
AcDbEntity
  8
0
100
AcDbCircle
 10
5.700558999999999
 20
7.389564
 30
0.0
 40
0.010112
100
AcDbArc
 50
270.0
 51
296.45535
  0
ARC
  5
37E
330
18
100
AcDbEntity
  8
0
100
AcDbCircle
 10
5.699503
 20
7.391686
 30
0.0
 40
0.012482
100
AcDbArc
 50
296.45535
 51
320.225741
  0
ARC
  5
37F
330
18
100
AcDbEntity
  8
0
100
AcDbCircle
 10
5.69785
 20
7.393062
 30
0.0
 40
0.014632
100
AcDbArc
 50
320.225741
 51
340.976084
  0
ARC
  5
380
330
18
100
AcDbEntity
  8
0
100
AcDbCircle
 10
5.695255
 20
7.393957
 30
0.0
 40
0.017378
100
AcDbArc
 50
340.976084
 51
0.0
  0
ARC
  5
381
330
18
100
AcDbEntity
  8
0
100
AcDbCircle
 10
5.695255
 20
7.393957
 30
0.0
 40
0.017378
100
AcDbArc
 50
0.0
 51
19.023916
  0
ARC
  5
382
330
18
100
AcDbEntity
  8
0
100
AcDbCircle
 10
5.69785
 20
7.394852
 30
0.0
 40
0.014632
100
AcDbArc
 50
19.023916
 51
39.774259
  0
ARC
  5
383
330
18
100
AcDbEntity
  8
0
100
AcDbCircle
 10
5.699503
 20
7.396228
 30
0.0
 40
0.012482
100
AcDbArc
 50
39.774259
 51
63.54465
  0
ARC
  5
384
330
18
100
AcDbEntity
  8
0
100
AcDbCircle
 10
5.700558999999999
 20
7.39835
 30
0.0
 40
0.010112
100
AcDbArc
 50
63.54465
 51
90.0
  0
ARC
  5
385
330
18
100
AcDbEntity
  8
0
100
AcDbCircle
 10
5.682524
 20
7.162197
 30
0.0
 40
0.010112
100
AcDbArc
 50
90.0
 51
116.45535
  0
ARC
  5
386
330
18
100
AcDbEntity
  8
0
100
AcDbCircle
 10
5.68358
 20
7.160075
 30
0.0
 40
0.012482
100
AcDbArc
 50
116.45535
 51
140.225741
  0
ARC
  5
387
330
18
100
AcDbEntity
  8
0
100
AcDbCircle
 10
5.685232
 20
7.158699
 30
0.0
 40
0.014632
100
AcDbArc
 50
140.225741
 51
160.976084
  0
ARC
  5
388
330
18
100
AcDbEntity
  8
0
100
AcDbCircle
 10
5.687828
 20
7.157804
 30
0.0
 40
0.017378
100
AcDbArc
 50
160.976084
 51
180.0
  0
ARC
  5
389
330
18
100
AcDbEntity
  8
0
100
AcDbCircle
 10
5.687828
 20
7.157804
 30
0.0
 40
0.017378
100
AcDbArc
 50
180.0
 51
199.023916
  0
ARC
  5
38A
330
18
100
AcDbEntity
  8
0
100
AcDbCircle
 10
5.685232
 20
7.156909
 30
0.0
 40
0.014632
100
AcDbArc
 50
199.023916
 51
219.774259
  0
ARC
  5
38B
330
18
100
AcDbEntity
  8
0
100
AcDbCircle
 10
5.68358
 20
7.155533
 30
0.0
 40
0.012482
100
AcDbArc
 50
219.774259
 51
243.54465
  0
ARC
  5
38C
330
18
100
AcDbEntity
  8
0
100
AcDbCircle
 10
5.682524
 20
7.153411
 30
0.0
 40
0.010112
100
AcDbArc
 50
243.54465
 51
270.0
  0
ARC
  5
38D
330
18
100
AcDbEntity
  8
0
100
AcDbCircle
 10
5.682524
 20
7.153411
 30
0.0
 40
0.010112
100
AcDbArc
 50
270.0
 51
296.45535
  0
ARC
  5
38E
330
18
100
AcDbEntity
  8
0
100
AcDbCircle
 10
5.681468
 20
7.155533
 30
0.0
 40
0.012482
100
AcDbArc
 50
296.45535
 51
320.225741
  0
ARC
  5
38F
330
18
100
AcDbEntity
  8
0
100
AcDbCircle
 10
5.679815000000001
 20
7.156909
 30
0.0
 40
0.014632
100
AcDbArc
 50
320.225741
 51
340.976084
  0
ARC
  5
390
330
18
100
AcDbEntity
  8
0
100
AcDbCircle
 10
5.677219
 20
7.157804
 30
0.0
 40
0.017378
100
AcDbArc
 50
340.976084
 51
0.0
  0
ARC
  5
391
330
18
100
AcDbEntity
  8
0
100
AcDbCircle
 10
5.677219
 20
7.157804
 30
0.0
 40
0.017378
100
AcDbArc
 50
0.0
 51
19.023916
  0
ARC
  5
392
330
18
100
AcDbEntity
  8
0
100
AcDbCircle
 10
5.679815000000001
 20
7.158699
 30
0.0
 40
0.014632
100
AcDbArc
 50
19.023916
 51
39.774259
  0
ARC
  5
393
330
18
100
AcDbEntity
  8
0
100
AcDbCircle
 10
5.681468
 20
7.160075
 30
0.0
 40
0.012482
100
AcDbArc
 50
39.774259
 51
63.54465
  0
ARC
  5
394
330
18
100
AcDbEntity
  8
0
100
AcDbCircle
 10
5.682524
 20
7.162197
 30
0.0
 40
0.010112
100
AcDbArc
 50
63.54465
 51
90.0
  0
ARC
  5
395
330
18
100
AcDbEntity
  8
0
100
AcDbCircle
 10
5.644018
 20
7.282079
 30
0.0
 40
0.010112
100
AcDbArc
 50
90.0
 51
116.45535
  0
ARC
  5
396
330
18
100
AcDbEntity
  8
0
100
AcDbCircle
 10
5.645074
 20
7.279955999999999
 30
0.0
 40
0.012482
100
AcDbArc
 50
116.45535
 51
140.225741
  0
ARC
  5
397
330
18
100
AcDbEntity
  8
0
100
AcDbCircle
 10
5.646726999999999
 20
7.278581
 30
0.0
 40
0.014632
100
AcDbArc
 50
140.225741
 51
160.976084
  0
ARC
  5
398
330
18
100
AcDbEntity
  8
0
100
AcDbCircle
 10
5.649323000000001
 20
7.277686
 30
0.0
 40
0.017378
100
AcDbArc
 50
160.976084
 51
180.0
  0
ARC
  5
399
330
18
100
AcDbEntity
  8
0
100
AcDbCircle
 10
5.649323000000001
 20
7.277686
 30
0.0
 40
0.017378
100
AcDbArc
 50
180.0
 51
199.023916
  0
ARC
  5
39A
330
18
100
AcDbEntity
  8
0
100
AcDbCircle
 10
5.646726999999999
 20
7.276791
 30
0.0
 40
0.014632
100
AcDbArc
 50
199.023916
 51
219.774259
  0
ARC
  5
39B
330
18
100
AcDbEntity
  8
0
100
AcDbCircle
 10
5.645074
 20
7.275415
 30
0.0
 40
0.012482
100
AcDbArc
 50
219.774259
 51
243.54465
  0
ARC
  5
39C
330
18
100
AcDbEntity
  8
0
100
AcDbCircle
 10
5.644018
 20
7.273292999999999
 30
0.0
 40
0.010112
100
AcDbArc
 50
243.54465
 51
270.0
  0
ARC
  5
39D
330
18
100
AcDbEntity
  8
0
100
AcDbCircle
 10
5.644018
 20
7.273292999999999
 30
0.0
 40
0.010112
100
AcDbArc
 50
270.0
 51
296.45535
  0
ARC
  5
39E
330
18
100
AcDbEntity
  8
0
100
AcDbCircle
 10
5.642962000000001
 20
7.275415
 30
0.0
 40
0.012482
100
AcDbArc
 50
296.45535
 51
320.225741
  0
ARC
  5
39F
330
18
100
AcDbEntity
  8
0
100
AcDbCircle
 10
5.64131
 20
7.276791
 30
0.0
 40
0.014632
100
AcDbArc
 50
320.225741
 51
340.976084
  0
ARC
  5
3A0
330
18
100
AcDbEntity
  8
0
100
AcDbCircle
 10
5.638714
 20
7.277686
 30
0.0
 40
0.017378
100
AcDbArc
 50
340.976084
 51
0.0
  0
ARC
  5
3A1
330
18
100
AcDbEntity
  8
0
100
AcDbCircle
 10
5.638714
 20
7.277686
 30
0.0
 40
0.017378
100
AcDbArc
 50
0.0
 51
19.023916
  0
ARC
  5
3A2
330
18
100
AcDbEntity
  8
0
100
AcDbCircle
 10
5.64131
 20
7.278581
 30
0.0
 40
0.014632
100
AcDbArc
 50
19.023916
 51
39.774259
  0
ARC
  5
3A3
330
18
100
AcDbEntity
  8
0
100
AcDbCircle
 10
5.642962000000001
 20
7.279955999999999
 30
0.0
 40
0.012482
100
AcDbArc
 50
39.774259
 51
63.54465
  0
ARC
  5
3A4
330
18
100
AcDbEntity
  8
0
100
AcDbCircle
 10
5.644018
 20
7.282079
 30
0.0
 40
0.010112
100
AcDbArc
 50
63.54465
 51
90.0
  0
ARC
  5
3A5
330
18
100
AcDbEntity
  8
0
100
AcDbCircle
 10
5.594469999999999
 20
7.493511
 30
0.0
 40
0.010299
100
AcDbArc
 50
180.0
 51
209.110036
  0
ARC
  5
3A6
330
18
100
AcDbEntity
  8
0
100
AcDbCircle
 10
5.598358
 20
7.495676
 30
0.0
 40
0.01475
100
AcDbArc
 50
209.110036
 51
233.354874
  0
ARC
  5
3A7
330
18
100
AcDbEntity
  8
0
100
AcDbCircle
 10
5.600895
 20
7.499086999999999
 30
0.0
 40
0.019001
100
AcDbArc
 50
233.354874
 51
252.874438
  0
ARC
  5
3A8
330
18
100
AcDbEntity
  8
0
100
AcDbCircle
 10
5.602553
 20
7.504467
 30
0.0
 40
0.02463
100
AcDbArc
 50
252.874438
 51
270.0
  0
ARC
  5
3A9
330
18
100
AcDbEntity
  8
0
100
AcDbCircle
 10
5.602553
 20
7.504467
 30
0.0
 40
0.02463
100
AcDbArc
 50
270.0
 51
287.125562
  0
ARC
  5
3AA
330
18
100
AcDbEntity
  8
0
100
AcDbCircle
 10
5.60421
 20
7.499086999999999
 30
0.0
 40
0.019001
100
AcDbArc
 50
287.125562
 51
306.645126
  0
ARC
  5
3AB
330
18
100
AcDbEntity
  8
0
100
AcDbCircle
 10
5.606748000000001
 20
7.495676
 30
0.0
 40
0.01475
100
AcDbArc
 50
306.645126
 51
330.889964
  0
ARC
  5
3AC
330
18
100
AcDbEntity
  8
0
100
AcDbCircle
 10
5.610636
 20
7.493511
 30
0.0
 40
0.010299
100
AcDbArc
 50
330.889964
 51
0.0
  0
ARC
  5
3AD
330
18
100
AcDbEntity
  8
0
100
AcDbCircle
 10
5.610636
 20
7.493511
 30
0.0
 40
0.010299
100
AcDbArc
 50
0.0
 51
29.110036
  0
ARC
  5
3AE
330
18
100
AcDbEntity
  8
0
100
AcDbCircle
 10
5.606748000000001
 20
7.491346000000001
 30
0.0
 40
0.01475
100
AcDbArc
 50
29.110036
 51
53.354874
  0
ARC
  5
3AF
330
18
100
AcDbEntity
  8
0
100
AcDbCircle
 10
5.60421
 20
7.487935
 30
0.0
 40
0.019001
100
AcDbArc
 50
53.354874
 51
72.874438
  0
ARC
  5
3B0
330
18
100
AcDbEntity
  8
0
100
AcDbCircle
 10
5.602553
 20
7.482556
 30
0.0
 40
0.02463
100
AcDbArc
 50
72.874438
 51
90.0
  0
ARC
  5
3B1
330
18
100
AcDbEntity
  8
0
100
AcDbCircle
 10
5.602553
 20
7.482556
 30
0.0
 40
0.02463
100
AcDbArc
 50
90.0
 51
107.125562
  0
ARC
  5
3B2
330
18
100
AcDbEntity
  8
0
100
AcDbCircle
 10
5.600895
 20
7.487935
 30
0.0
 40
0.019001
100
AcDbArc
 50
107.125562
 51
126.645126
  0
ARC
  5
3B3
330
18
100
AcDbEntity
  8
0
100
AcDbCircle
 10
5.598358
 20
7.491346000000001
 30
0.0
 40
0.01475
100
AcDbArc
 50
126.645126
 51
150.889964
  0
ARC
  5
3B4
330
18
100
AcDbEntity
  8
0
100
AcDbCircle
 10
5.594469999999999
 20
7.493511
 30
0.0
 40
0.010299
100
AcDbArc
 50
150.889964
 51
180.0
  0
LINE
  5
3B5
330
18
100
AcDbEntity
  8
0
  6
HIDDEN
100
AcDbLine
 10
5.621929
 20
7.612808
 30
0.0
 11
5.791135
 21
7.576492
 31
0.0
  0
LINE
  5
3B6
330
18
100
AcDbEntity
  8
0
  6
HIDDEN
100
AcDbLine
 10
5.791135
 20
7.576492
 30
0.0
 11
5.812289
 21
7.540567
 31
0.0
  0
LINE
  5
3B7
330
18
100
AcDbEntity
  8
0
  6
HIDDEN
100
AcDbLine
 10
5.812289
 20
7.540567
 30
0.0
 11
5.802525
 21
7.482507000000001
 31
0.0
  0
LINE
  5
3B8
330
18
100
AcDbEntity
  8
0
  6
HIDDEN
100
AcDbLine
 10
5.802525
 20
7.482507000000001
 30
0.0
 11
5.773639
 21
7.452379
 31
0.0
  0
LINE
  5
3B9
330
18
100
AcDbEntity
  8
0
  6
HIDDEN
100
AcDbLine
 10
5.773639
 20
7.452379
 30
0.0
 11
5.730494
 21
7.45377
 31
0.0
  0
ARC
  5
3BA
330
18
100
AcDbEntity
  8
0
100
AcDbCircle
 10
7.236666000000001
 20
6.116539
 30
0.0
 40
2.287201
100
AcDbArc
 50
179.584566
 51
180.469039
  0
ARC
  5
3BB
330
18
100
AcDbEntity
  8
0
100
AcDbCircle
 10
5.842056
 20
6.126651
 30
0.0
 40
0.8925540000000001
100
AcDbArc
 50
177.411319
 51
179.584566
  0
ARC
  5
3BC
330
18
100
AcDbEntity
  8
0
100
AcDbCircle
 10
17.163103
 20
5.614806
 30
0.0
 40
12.225165
100
AcDbArc
 50
177.099268
 51
177.411319
  0
ARC
  5
3BD
330
18
100
AcDbEntity
  8
0
100
AcDbCircle
 10
5.071908000000001
 20
6.227475
 30
0.0
 40
0.118459
100
AcDbArc
 50
173.928802
 51
177.099268
  0
ARC
  5
3BE
330
18
100
AcDbEntity
  8
0
100
AcDbCircle
 10
5.045818
 20
6.23025
 30
0.0
 40
0.092222
100
AcDbArc
 50
161.751241
 51
173.928802
  0
ARC
  5
3BF
330
18
100
AcDbEntity
  8
0
100
AcDbCircle
 10
4.819748000000001
 20
6.304791000000001
 30
0.0
 40
0.145821
100
AcDbArc
 50
341.751241
 51
351.428784
  0
ARC
  5
3C0
330
18
100
AcDbEntity
  8
0
100
AcDbCircle
 10
4.471305
 20
6.357309
 30
0.0
 40
0.4982
100
AcDbArc
 50
351.428784
 51
355.967733
  0
ARC
  5
3C1
330
18
100
AcDbEntity
  8
0
100
AcDbCircle
 10
4.721106
 20
6.3397
 30
0.0
 40
0.247778
100
AcDbArc
 50
355.967733
 51
2.405574
  0
ARC
  5
3C2
330
18
100
AcDbEntity
  8
0
100
AcDbCircle
 10
2.997564
 20
6.267294000000001
 30
0.0
 40
1.972841
100
AcDbArc
 50
2.405574
 51
3.35077
  0
ARC
  5
3C3
330
18
100
AcDbEntity
  8
0
100
AcDbCircle
 10
6.383913
 20
6.470132
 30
0.0
 40
1.419582
100
AcDbArc
 50
182.22138
 51
183.534964
  0
ARC
  5
3C4
330
18
100
AcDbEntity
  8
0
100
AcDbCircle
 10
263.630627
 20
16.448687
 30
0.0
 40
258.859756
100
AcDbArc
 50
182.210561
 51
182.22138
  0
ARC
  5
3C5
330
18
100
AcDbEntity
  8
0
100
AcDbCircle
 10
14.074684
 20
6.815649000000001
 30
0.0
 40
9.117962
100
AcDbArc
 50
182.152915
 51
182.210561
  0
ARC
  5
3C6
330
18
100
AcDbEntity
  8
0
100
AcDbCircle
 10
17.710537
 20
6.952332000000001
 30
0.0
 40
12.756382
100
AcDbArc
 50
182.013559
 51
182.152915
  0
ARC
  5
3C7
330
18
100
AcDbEntity
  8
0
100
AcDbCircle
 10
-2.604105
 20
6.244426
 30
0.0
 40
7.570591
100
AcDbArc
 50
1.96583
 51
2.200643
  0
ARC
  5
3C8
330
18
100
AcDbEntity
  8
0
100
AcDbCircle
 10
3.52308
 20
6.479878
 30
0.0
 40
1.438884
100
AcDbArc
 50
2.200643
 51
2.838188999999999
  0
ARC
  5
3C9
330
18
100
AcDbEntity
  8
0
100
AcDbCircle
 10
0.549426
 20
6.332455
 30
0.0
 40
4.41619
100
AcDbArc
 50
2.838188999999999
 51
3.202103
  0
ARC
  5
3CA
330
18
100
AcDbEntity
  8
0
100
AcDbCircle
 10
3.598741
 20
6.503051
 30
0.0
 40
1.362107
100
AcDbArc
 50
3.202103
 51
3.811961
  0
ARC
  5
3CB
330
18
100
AcDbEntity
  8
0
100
AcDbCircle
 10
2.960693
 20
6.460538
 30
0.0
 40
2.00157
100
AcDbArc
 50
3.811961
 51
4.315054
  0
ARC
  5
3CC
330
18
100
AcDbEntity
  8
0
100
AcDbCircle
 10
4.743357
 20
6.595047999999999
 30
0.0
 40
0.213838
100
AcDbArc
 50
4.315054
 51
5.720916
  0
ARC
  5
3CD
330
18
100
AcDbEntity
  8
0
100
AcDbCircle
 10
16.089456
 20
7.731722
 30
0.0
 40
11.189056
100
AcDbArc
 50
185.552693
 51
185.720916
  0
ARC
  5
3CE
330
18
100
AcDbEntity
  8
0
100
AcDbCircle
 10
5.263203
 20
6.088508999999999
 30
0.0
 40
0.263297
100
AcDbArc
 50
179.089864
 51
180.472366
  0
ARC
  5
3CF
330
18
100
AcDbEntity
  8
0
100
AcDbCircle
 10
5.171185
 20
6.089971
 30
0.0
 40
0.171267
100
AcDbArc
 50
163.997888
 51
179.089864
  0
ARC
  5
3D0
330
18
100
AcDbEntity
  8
0
100
AcDbCircle
 10
5.36535
 20
6.034287
 30
0.0
 40
0.373259
100
AcDbArc
 50
160.486308
 51
163.997888
  0
ARC
  5
3D1
330
18
100
AcDbEntity
  8
0
100
AcDbCircle
 10
4.936991
 20
6.186092
 30
0.0
 40
0.081204
100
AcDbArc
 50
340.486308
 51
348.019241
  0
ARC
  5
3D2
330
18
100
AcDbEntity
  8
0
100
AcDbCircle
 10
4.72001
 20
6.232137000000001
 30
0.0
 40
0.303016
100
AcDbArc
 50
348.019241
 51
355.780024
  0
ARC
  5
3D3
330
18
100
AcDbEntity
  8
0
100
AcDbCircle
 10
4.783561
 20
6.227448000000001
 30
0.0
 40
0.239293
100
AcDbArc
 50
355.780024
 51
4.51501
  0
ARC
  5
3D4
330
18
100
AcDbEntity
  8
0
100
AcDbCircle
 10
4.654171
 20
6.217230000000001
 30
0.0
 40
0.369085
100
AcDbArc
 50
4.51501
 51
8.741592000000001
  0
ARC
  5
3D5
330
18
100
AcDbEntity
  8
0
100
AcDbCircle
 10
5.217111
 20
6.303791
 30
0.0
 40
0.200471
100
AcDbArc
 50
183.005582
 51
188.741592
  0
ARC
  5
3D6
330
18
100
AcDbEntity
  8
0
100
AcDbCircle
 10
5.940494999999999
 20
6.341772
 30
0.0
 40
0.924852
100
AcDbArc
 50
180.990453
 51
183.005582
  0
ARC
  5
3D7
330
18
100
AcDbEntity
  8
0
100
AcDbCircle
 10
4.493578
 20
6.323841000000001
 30
0.0
 40
0.522208
100
AcDbArc
 50
0.213381
 51
3.782654
  0
ARC
  5
3D8
330
18
100
AcDbEntity
  8
0
100
AcDbCircle
 10
1.592183
 20
6.132012000000001
 30
0.0
 40
3.429937
100
AcDbArc
 50
3.782654
 51
4.321243
  0
ARC
  5
3D9
330
18
100
AcDbEntity
  8
0
100
AcDbCircle
 10
0.271457
 20
6.032214
 30
0.0
 40
4.754428
100
AcDbArc
 50
4.321243
 51
4.778702
  0
ARC
  5
3DA
330
18
100
AcDbEntity
  8
0
100
AcDbCircle
 10
3.069458
 20
6.266121
 30
0.0
 40
1.946667
100
AcDbArc
 50
4.778702
 51
5.525708
  0
ARC
  5
3DB
330
18
100
AcDbEntity
  8
0
100
AcDbCircle
 10
2.49997
 20
6.211028
 30
0.0
 40
2.518813
100
AcDbArc
 50
5.525708
 51
6.182414
  0
ARC
  5
3DC
330
18
100
AcDbEntity
  8
0
100
AcDbCircle
 10
4.836296
 20
6.464109
 30
0.0
 40
0.168821
100
AcDbArc
 50
6.182414
 51
15.81957
  0
ARC
  5
3DD
330
18
100
AcDbEntity
  8
0
100
AcDbCircle
 10
5.100589
 20
6.538994000000001
 30
0.0
 40
0.105877
100
AcDbArc
 50
183.64184
 51
195.81957
  0
ARC
  5
3DE
330
18
100
AcDbEntity
  8
0
100
AcDbCircle
 10
5.029509
 20
6.53447
 30
0.0
 40
0.034654
100
AcDbArc
 50
182.0832370000001
 51
183.64184
  0
ARC
  5
3DF
330
18
100
AcDbEntity
  8
0
100
AcDbCircle
 10
40.26665
 20
7.816234
 30
0.0
 40
35.295098
100
AcDbArc
 50
182.034401
 51
182.0832370000001
  0
ARC
  5
3E0
330
18
100
AcDbEntity
  8
0
100
AcDbCircle
 10
7.446527000000001
 20
6.6504
 30
0.0
 40
2.454276
100
AcDbArc
 50
180.235627
 51
182.034401
  0
ARC
  5
3E1
330
18
100
AcDbEntity
  8
0
100
AcDbCircle
 10
8.268805
 20
6.653781
 30
0.0
 40
3.27656
100
AcDbArc
 50
180.218689
 51
180.235627
  0
ARC
  5
3E2
330
18
100
AcDbEntity
  8
0
100
AcDbCircle
 10
9.492885000000001
 20
5.423051
 30
0.0
 40
4.664434
100
AcDbArc
 50
171.33538
 51
171.485185
  0
ARC
  5
3E3
330
18
100
AcDbEntity
  8
0
100
AcDbCircle
 10
4.05814
 20
6.25125
 30
0.0
 40
0.8330540000000001
100
AcDbArc
 50
351.33538
 51
352.719948
  0
ARC
  5
3E4
330
18
100
AcDbEntity
  8
0
100
AcDbCircle
 10
3.481575
 20
6.324905
 30
0.0
 40
1.414305
100
AcDbArc
 50
352.719948
 51
354.782368
  0
ARC
  5
3E5
330
18
100
AcDbEntity
  8
0
100
AcDbCircle
 10
5.2205
 20
6.166111
 30
0.0
 40
0.331855
100
AcDbArc
 50
170.523926
 51
174.782368
  0
ARC
  5
3E6
330
18
100
AcDbEntity
  8
0
100
AcDbCircle
 10
5.122063
 20
6.182542
 30
0.0
 40
0.232057
100
AcDbArc
 50
167.180379
 51
170.523926
  0
ARC
  5
3E7
330
18
100
AcDbEntity
  8
0
100
AcDbCircle
 10
8.951103999999999
 20
5.311226
 30
0.0
 40
4.158983
100
AcDbArc
 50
166.390697
 51
167.180379
  0
ARC
  5
3E8
330
18
100
AcDbEntity
  8
0
100
AcDbCircle
 10
5.632372
 20
6.114682
 30
0.0
 40
0.744378
100
AcDbArc
 50
163.87836
 51
166.390697
  0
ARC
  5
3E9
330
18
100
AcDbEntity
  8
0
100
AcDbCircle
 10
4.21969
 20
6.523423
 30
0.0
 40
0.726248
100
AcDbArc
 50
343.846995
 51
346.422061
  0
ARC
  5
3EA
330
18
100
AcDbEntity
  8
0
100
AcDbCircle
 10
4.725582
 20
6.401241000000001
 30
0.0
 40
0.20581
100
AcDbArc
 50
346.422061
 51
355.903313
  0
ARC
  5
3EB
330
18
100
AcDbEntity
  8
0
100
AcDbCircle
 10
4.744297
 20
6.399901
 30
0.0
 40
0.187047
100
AcDbArc
 50
355.903313
 51
5.849874000000001
  0
ARC
  5
3EC
330
18
100
AcDbEntity
  8
0
100
AcDbCircle
 10
4.79211
 20
6.4048
 30
0.0
 40
0.138984
100
AcDbArc
 50
5.849874000000001
 51
16.780702
  0
ARC
  5
3ED
330
18
100
AcDbEntity
  8
0
100
AcDbCircle
 10
5.020254
 20
6.473597
 30
0.0
 40
0.099307
100
AcDbArc
 50
183.841465
 51
196.780702
  0
ARC
  5
3EE
330
18
100
AcDbEntity
  8
0
100
AcDbCircle
 10
7.910244000000001
 20
6.66765
 30
0.0
 40
2.995805
100
AcDbArc
 50
183.170764
 51
183.841465
  0
ARC
  5
3EF
330
18
100
AcDbEntity
  8
0
100
AcDbCircle
 10
2.723521
 20
6.384995
 30
0.0
 40
2.198617
100
AcDbArc
 50
3.049169
 51
3.96306
  0
ARC
  5
3F0
330
18
100
AcDbEntity
  8
0
100
AcDbCircle
 10
-74.717349
 20
1.019972
 30
0.0
 40
79.82510699999999
100
AcDbArc
 50
3.96306
 51
3.999661
  0
ARC
  5
3F1
330
18
100
AcDbEntity
  8
0
100
AcDbCircle
 10
-14.527503
 20
5.228499
 30
0.0
 40
19.488308
100
AcDbArc
 50
3.999661
 51
4.073737
  0
ARC
  5
3F2
330
18
100
AcDbEntity
  8
0
100
AcDbCircle
 10
3.137437
 20
6.486599
 30
0.0
 40
1.778623
100
AcDbArc
 50
4.073737
 51
4.540095
  0
ARC
  5
3F3
330
18
100
AcDbEntity
  8
0
100
AcDbCircle
 10
-47.64210900000001
 20
2.454404
 30
0.0
 40
52.718008
100
AcDbArc
 50
4.540095
 51
4.573387
  0
ARC
  5
3F4
330
18
100
AcDbEntity
  8
0
100
AcDbCircle
 10
-0.75137
 20
5.606108
 30
0.0
 40
3.851267
100
AcDbArc
 50
14.214821
 51
14.565145
  0
ARC
  5
3F5
330
18
100
AcDbEntity
  8
0
100
AcDbCircle
 10
3.719121
 20
6.76768
 30
0.0
 40
0.767666
100
AcDbArc
 50
193.614979
 51
194.565145
  0
ARC
  5
3F6
330
18
100
AcDbEntity
  8
0
100
AcDbCircle
 10
15.863481
 20
9.709071
 30
0.0
 40
13.263155
100
AcDbArc
 50
193.476146
 51
193.614979
  0
ARC
  5
3F7
330
18
100
AcDbEntity
  8
0
100
AcDbCircle
 10
8.097509000000001
 20
7.848045
 30
0.0
 40
5.277309
100
AcDbArc
 50
193.256052
 51
193.476146
  0
ARC
  5
3F8
330
18
100
AcDbEntity
  8
0
100
AcDbCircle
 10
3.238584
 20
6.703378999999999
 30
0.0
 40
0.285375
100
AcDbArc
 50
191.019924
 51
193.256052
  0
ARC
  5
3F9
330
18
100
AcDbEntity
  8
0
100
AcDbCircle
 10
5.218666000000001
 20
7.088982000000001
 30
0.0
 40
2.302653
100
AcDbArc
 50
190.232759
 51
191.019924
  0
ARC
  5
3FA
330
18
100
AcDbEntity
  8
0
100
AcDbCircle
 10
3.195042
 20
6.72368
 30
0.0
 40
0.246321
100
AcDbArc
 50
181.065942
 51
190.232759
  0
ARC
  5
3FB
330
18
100
AcDbEntity
  8
0
100
AcDbCircle
 10
3.091346
 20
6.721750999999999
 30
0.0
 40
0.142608
100
AcDbArc
 50
169.009018
 51
181.065942
  0
ARC
  5
3FC
330
18
100
AcDbEntity
  8
0
100
AcDbCircle
 10
3.139248
 20
6.712447
 30
0.0
 40
0.191405
100
AcDbArc
 50
159.210447
 51
169.009018
  0
ARC
  5
3FD
330
18
100
AcDbEntity
  8
0
100
AcDbCircle
 10
2.559175
 20
6.932675
 30
0.0
 40
0.429067
100
AcDbArc
 50
339.210447
 51
345.750521
  0
ARC
  5
3FE
330
18
100
AcDbEntity
  8
0
100
AcDbCircle
 10
2.832707
 20
6.863210000000001
 30
0.0
 40
0.146852
100
AcDbArc
 50
345.750521
 51
347.24101
  0
ARC
  5
3FF
330
18
100
AcDbEntity
  8
0
100
AcDbCircle
 10
-2.15851
 20
7.99343
 30
0.0
 40
5.264434
100
AcDbArc
 50
347.24101
 51
347.489942
  0
ARC
  5
400
330
18
100
AcDbEntity
  8
0
100
AcDbCircle
 10
2.776889
 20
6.898369000000001
 30
0.0
 40
0.209009
100
AcDbArc
 50
347.489942
 51
19.675661
  0
ARC
  5
401
330
18
100
AcDbEntity
  8
0
100
AcDbCircle
 10
2.73643
 20
6.883902
 30
0.0
 40
0.251976
100
AcDbArc
 50
19.675661
 51
36.062877
  0
ARC
  5
402
330
18
100
AcDbEntity
  8
0
100
AcDbCircle
 10
1.154783
 20
6.60935
 30
0.0
 40
1.866941
100
AcDbArc
 50
358.03693
 51
358.407658
  0
ARC
  5
403
330
18
100
AcDbEntity
  8
0
100
AcDbCircle
 10
2.383959
 20
6.575180000000001
 30
0.0
 40
0.6372899999999999
100
AcDbArc
 50
358.407658
 51
1.527995
  0
ARC
  5
404
330
18
100
AcDbEntity
  8
0
100
AcDbCircle
 10
-16.051426
 20
6.083419
 30
0.0
 40
19.079232
100
AcDbArc
 50
1.527995
 51
1.723494
  0
ARC
  5
405
330
18
100
AcDbEntity
  8
0
100
AcDbCircle
 10
2.376459
 20
6.637909
 30
0.0
 40
0.643007
100
AcDbArc
 50
1.723494
 51
2.788432
  0
ARC
  5
406
330
18
100
AcDbEntity
  8
0
100
AcDbCircle
 10
2.737063
 20
6.655472000000001
 30
0.0
 40
0.281976
100
AcDbArc
 50
2.788432
 51
11.186914
  0
ARC
  5
407
330
18
100
AcDbEntity
  8
0
100
AcDbCircle
 10
3.132795
 20
6.733735
 30
0.0
 40
0.121422
100
AcDbArc
 50
178.373212
 51
191.186914
  0
ARC
  5
408
330
18
100
AcDbEntity
  8
0
100
AcDbCircle
 10
3.27119
 20
6.729805000000001
 30
0.0
 40
0.259872
100
AcDbArc
 50
172.120327
 51
178.373212
  0
ARC
  5
409
330
18
100
AcDbEntity
  8
0
100
AcDbCircle
 10
2.209891
 20
6.876689
 30
0.0
 40
0.811543
100
AcDbArc
 50
352.120327
 51
355.657512
  0
ARC
  5
40A
330
18
100
AcDbEntity
  8
0
100
AcDbCircle
 10
-1.10117
 20
7.128118
 30
0.0
 40
4.132136
100
AcDbArc
 50
355.657512
 51
356.357102
  0
ARC
  5
40B
330
18
100
AcDbEntity
  8
0
100
AcDbCircle
 10
2.899792
 20
6.873391000000001
 30
0.0
 40
0.123074
100
AcDbArc
 50
356.357102
 51
0.411589
  0
ARC
  5
40C
330
18
100
AcDbEntity
  8
0
100
AcDbCircle
 10
2.913632
 20
6.873489999999999
 30
0.0
 40
0.109233
100
AcDbArc
 50
0.411589
 51
4.846276000000001
  0
ARC
  5
40D
330
18
100
AcDbEntity
  8
0
100
AcDbCircle
 10
-1.383149
 20
6.509185
 30
0.0
 40
4.421431
100
AcDbArc
 50
4.846276000000001
 51
5.543148
  0
ARC
  5
40E
330
18
100
AcDbEntity
  8
0
100
AcDbCircle
 10
2.450415
 20
6.881228999999999
 30
0.0
 40
0.569856
100
AcDbArc
 50
5.543148
 51
6.902286
  0
ARC
  5
40F
330
18
100
AcDbEntity
  8
0
100
AcDbCircle
 10
-9.678574000000001
 20
5.412969
 30
0.0
 40
12.78739
100
AcDbArc
 50
6.902286
 51
7.189196000000001
  0
ARC
  5
410
330
18
100
AcDbEntity
  8
0
100
AcDbCircle
 10
2.795072
 20
6.986367
 30
0.0
 40
0.214904
100
AcDbArc
 50
7.189196000000001
 51
13.129292
  0
ARC
  5
411
330
18
100
AcDbEntity
  8
0
100
AcDbCircle
 10
-10.774292
 20
4.759238
 30
0.0
 40
13.970196
100
AcDbArc
 50
7.303102
 51
7.588006000000001
  0
ARC
  5
412
330
18
100
AcDbEntity
  8
0
100
AcDbCircle
 10
2.227274
 20
6.491247
 30
0.0
 40
0.853772
100
AcDbArc
 50
7.588006000000001
 51
8.835777
  0
ARC
  5
413
330
18
100
AcDbEntity
  8
0
100
AcDbCircle
 10
2.51733
 20
6.536335
 30
0.0
 40
0.560233
100
AcDbArc
 50
8.835777
 51
12.157008
  0
ARC
  5
414
330
18
100
AcDbEntity
  8
0
100
AcDbCircle
 10
3.18544
 20
6.680261
 30
0.0
 40
0.123204
100
AcDbArc
 50
185.071248
 51
192.157008
  0
ARC
  5
415
330
18
100
AcDbEntity
  8
0
100
AcDbCircle
 10
3.15928
 20
6.67794
 30
0.0
 40
0.096942
100
AcDbArc
 50
177.551851
 51
185.071248
  0
ARC
  5
416
330
18
100
AcDbEntity
  8
0
100
AcDbCircle
 10
4.646313
 20
6.614363000000001
 30
0.0
 40
1.585333
100
AcDbArc
 50
175.693683
 51
177.551851
  0
ARC
  5
417
330
18
100
AcDbEntity
  8
0
100
AcDbCircle
 10
4.097205000000001
 20
6.655711
 30
0.0
 40
1.03467
100
AcDbArc
 50
173.391933
 51
175.693683
  0
ARC
  5
418
330
18
100
AcDbEntity
  8
0
100
AcDbCircle
 10
2.761736
 20
6.810421000000001
 30
0.0
 40
0.309731
100
AcDbArc
 50
353.391933
 51
357.599542
  0
ARC
  5
419
330
18
100
AcDbEntity
  8
0
100
AcDbCircle
 10
2.774931
 20
6.809867999999999
 30
0.0
 40
0.296524
100
AcDbArc
 50
357.599542
 51
1.457597
  0
ARC
  5
41A
330
18
100
AcDbEntity
  8
0
100
AcDbCircle
 10
4.450527
 20
6.852504
 30
0.0
 40
1.379615
100
AcDbArc
 50
179.669238
 51
181.457597
  0
ARC
  5
41B
330
18
100
AcDbEntity
  8
0
100
AcDbCircle
 10
3.476432
 20
6.858127000000001
 30
0.0
 40
0.405503
100
AcDbArc
 50
173.636731
 51
179.669238
  0
ARC
  5
41C
330
18
100
AcDbEntity
  8
0
100
AcDbCircle
 10
2.962067
 20
6.915489
 30
0.0
 40
0.11205
100
AcDbArc
 50
353.636731
 51
5.126648
  0
ARC
  5
41D
330
18
100
AcDbEntity
  8
0
100
AcDbCircle
 10
3.04204
 20
6.922663000000001
 30
0.0
 40
0.031756
100
AcDbArc
 50
5.126648
 51
19.762598
  0
ARC
  5
41E
330
18
100
AcDbEntity
  8
0
100
AcDbCircle
 10
3.591025
 20
7.119905
 30
0.0
 40
0.5515869999999999
100
AcDbArc
 50
196.259844
 51
199.762598
  0
ARC
  5
41F
330
18
100
AcDbEntity
  8
0
100
AcDbCircle
 10
3.571131
 20
7.114103
 30
0.0
 40
0.530864
100
AcDbArc
 50
190.497001
 51
196.259844
  0
ARC
  5
420
330
18
100
AcDbEntity
  8
0
100
AcDbCircle
 10
3.815624
 20
7.159403999999999
 30
0.0
 40
0.779519
100
AcDbArc
 50
189.810793
 51
190.497001
  0
ARC
  5
421
330
18
100
AcDbEntity
  8
0
100
AcDbCircle
 10
0.982785
 20
7.114779
 30
0.0
 40
0.180239
100
AcDbArc
 50
16.032926
 51
25.205468
  0
ARC
  5
422
330
18
100
AcDbEntity
  8
0
100
AcDbCircle
 10
1.250159
 20
7.240627000000001
 30
0.0
 40
0.115272
100
AcDbArc
 50
190.491781
 51
205.205468
  0
ARC
  5
423
330
18
100
AcDbEntity
  8
0
100
AcDbCircle
 10
2.634841
 20
7.497057000000001
 30
0.0
 40
1.523499
100
AcDbArc
 50
188.454836
 51
190.491781
  0
ARC
  5
424
330
18
100
AcDbEntity
  8
0
100
AcDbCircle
 10
1.824578
 20
7.376614999999999
 30
0.0
 40
0.704332
100
AcDbArc
 50
185.45886
 51
188.454836
  0
ARC
  5
425
330
18
100
AcDbEntity
  8
0
100
AcDbCircle
 10
7.837994
 20
7.951283999999999
 30
0.0
 40
6.745145
100
AcDbArc
 50
185.202605
 51
185.45886
  0
ARC
  5
426
330
18
100
AcDbEntity
  8
0
100
AcDbCircle
 10
-37.42144099999999
 20
3.830278
 30
0.0
 40
38.701517
100
AcDbArc
 50
5.202605
 51
5.300954
  0
ARC
  5
427
330
18
100
AcDbEntity
  8
0
100
AcDbCircle
 10
1.887213
 20
6.845223
 30
0.0
 40
0.8231120000000001
100
AcDbArc
 50
170.342472
 51
172.452242
  0
ARC
  5
428
330
18
100
AcDbEntity
  8
0
100
AcDbCircle
 10
18.558787
 20
4.008216
 30
0.0
 40
17.734351
100
AcDbArc
 50
170.138122
 51
170.342472
  0
ARC
  5
429
330
18
100
AcDbEntity
  8
0
100
AcDbCircle
 10
1.607488
 20
6.95507
 30
0.0
 40
0.528814
100
AcDbArc
 50
168.954702
 51
170.138122
  0
ARC
  5
42A
330
18
100
AcDbEntity
  8
0
100
AcDbCircle
 10
1.228719
 20
7.029006
 30
0.0
 40
0.142897
100
AcDbArc
 50
156.972648
 51
168.954702
  0
ARC
  5
42B
330
18
100
AcDbEntity
  8
0
100
AcDbCircle
 10
1.049241
 20
7.105291
 30
0.0
 40
0.05212
100
AcDbArc
 50
336.972648
 51
356.87632
  0
ARC
  5
42C
330
18
100
AcDbEntity
  8
0
100
AcDbCircle
 10
1.009467
 20
7.107462
 30
0.0
 40
0.091953
100
AcDbArc
 50
356.87632
 51
12.364627
  0
ARC
  5
42D
330
18
100
AcDbEntity
  8
0
100
AcDbCircle
 10
1.391952
 20
7.191309
 30
0.0
 40
0.299614
100
AcDbArc
 50
183.802379
 51
192.364627
  0
ARC
  5
42E
330
18
100
AcDbEntity
  8
0
100
AcDbCircle
 10
34.678296
 20
9.403574000000001
 30
0.0
 40
33.659393
100
AcDbArc
 50
183.703856
 51
183.802379
  0
ARC
  5
42F
330
18
100
AcDbEntity
  8
0
100
AcDbCircle
 10
1.773855
 20
7.273516000000001
 30
0.0
 40
0.68608
100
AcDbArc
 50
183.013761
 51
183.703856
  0
ARC
  5
430
330
18
100
AcDbEntity
  8
0
100
AcDbCircle
 10
78.93191800000001
 20
11.335781
 30
0.0
 40
77.951004
100
AcDbArc
 50
182.961938
 51
183.013761
  0
ARC
  5
431
330
18
100
AcDbEntity
  8
0
100
AcDbCircle
 10
49.631103
 20
9.819708
 30
0.0
 40
48.610993
100
AcDbArc
 50
182.896312
 51
182.961938
  0
ARC
  5
432
330
18
100
AcDbEntity
  8
0
100
AcDbCircle
 10
3.353146
 20
7.478354
 30
0.0
 40
2.273846
100
AcDbArc
 50
182.838189
 51
182.896312
  0
ARC
  5
433
330
18
100
AcDbEntity
  8
0
100
AcDbCircle
 10
1737.501148
 20
93.450987
 30
0.0
 40
1738.551642
100
AcDbArc
 50
182.836588
 51
182.838189
  0
ARC
  5
434
330
18
100
AcDbEntity
  8
0
100
AcDbCircle
 10
76.71258900000001
 20
1.367218
 30
0.0
 40
75.886015
100
AcDbArc
 50
175.721638
 51
175.770477
  0
ARC
  5
435
330
18
100
AcDbEntity
  8
0
100
AcDbCircle
 10
1.247403
 20
7.012814
 30
0.0
 40
0.209948
100
AcDbArc
 50
174.161606
 51
175.721638
  0
ARC
  5
436
330
18
100
AcDbEntity
  8
0
100
AcDbCircle
 10
1.460297
 20
6.991045
 30
0.0
 40
0.423953
100
AcDbArc
 50
171.891735
 51
174.161606
  0
ARC
  5
437
330
18
100
AcDbEntity
  8
0
100
AcDbCircle
 10
6.226948999999999
 20
6.311948
 30
0.0
 40
5.238737
100
AcDbArc
 50
171.24605
 51
171.891735
  0
ARC
  5
438
330
18
100
AcDbEntity
  8
0
100
AcDbCircle
 10
1.348458
 20
7.063164
 30
0.0
 40
0.302746
100
AcDbArc
 50
164.555992
 51
171.24605
  0
ARC
  5
439
330
18
100
AcDbEntity
  8
0
100
AcDbCircle
 10
0.9228360000000001
 20
7.180752
 30
0.0
 40
0.138821
100
AcDbArc
 50
344.555992
 51
354.442297
  0
ARC
  5
43A
330
18
100
AcDbEntity
  8
0
100
AcDbCircle
 10
1.014367
 20
7.171844999999999
 30
0.0
 40
0.046857
100
AcDbArc
 50
354.442297
 51
9.481738999999999
  0
ARC
  5
43B
330
18
100
AcDbEntity
  8
0
100
AcDbCircle
 10
0.756415
 20
7.128763
 30
0.0
 40
0.308382
100
AcDbArc
 50
9.481738999999999
 51
15.329848
  0
ARC
  5
43C
330
18
100
AcDbEntity
  8
0
100
AcDbCircle
 10
0.931315
 20
7.176709
 30
0.0
 40
0.12703
100
AcDbArc
 50
15.329848
 51
30.23208
  0
ARC
  5
43D
330
18
100
AcDbEntity
  8
0
100
AcDbCircle
 10
1.083969
 20
7.26567
 30
0.0
 40
0.049655
100
AcDbArc
 50
186.289979
 51
210.23208
  0
ARC
  5
43E
330
18
100
AcDbEntity
  8
0
100
AcDbCircle
 10
1.550472
 20
7.317089999999999
 30
0.0
 40
0.518983
100
AcDbArc
 50
184.52478
 51
186.289979
  0
ARC
  5
43F
330
18
100
AcDbEntity
  8
0
100
AcDbCircle
 10
2.212503
 20
7.369481
 30
0.0
 40
1.183084
100
AcDbArc
 50
183.355677
 51
184.52478
  0
ARC
  5
440
330
18
100
AcDbEntity
  8
0
100
AcDbCircle
 10
4.441649
 20
7.500186
 30
0.0
 40
3.416058
100
AcDbArc
 50
182.672275
 51
183.355677
  0
ARC
  5
441
330
18
100
AcDbEntity
  8
0
100
AcDbCircle
 10
1.111353
 20
7.344747999999999
 30
0.0
 40
0.082137
100
AcDbArc
 50
178.26394
 51
182.672275
  0
ARC
  5
442
330
18
100
AcDbEntity
  8
0
100
AcDbCircle
 10
1.23739
 20
7.340928
 30
0.0
 40
0.208232
100
AcDbArc
 50
172.579002
 51
178.26394
  0
ARC
  5
443
330
18
100
AcDbEntity
  8
0
100
AcDbCircle
 10
0.269034
 20
7.467057000000001
 30
0.0
 40
0.768303
100
AcDbArc
 50
352.579002
 51
355.537715
  0
ARC
  5
444
330
18
100
AcDbEntity
  8
0
100
AcDbCircle
 10
-0.076502
 20
7.494022
 30
0.0
 40
1.11489
100
AcDbArc
 50
355.537715
 51
355.751021
  0
ARC
  5
445
330
18
100
AcDbEntity
  8
0
100
AcDbCircle
 10
-141.666642
 20
18.013451
 30
0.0
 40
143.095263
100
AcDbArc
 50
355.751021
 51
355.756397
  0
ARC
  5
446
330
18
100
AcDbEntity
  8
0
100
AcDbCircle
 10
0.739466
 20
7.171311
 30
0.0
 40
0.271316
100
AcDbArc
 50
339.670033
 51
340.083879
  0
ARC
  5
447
330
18
100
AcDbEntity
  8
0
100
AcDbCircle
 10
0.842693
 20
7.13391
 30
0.0
 40
0.161522
100
AcDbArc
 50
340.083879
 51
358.279609
  0
ARC
  5
448
330
18
100
AcDbEntity
  8
0
100
AcDbCircle
 10
-2.850097
 20
7.244825
 30
0.0
 40
3.855977
100
AcDbArc
 50
358.279609
 51
358.766826
  0
ARC
  5
449
330
18
100
AcDbEntity
  8
0
100
AcDbCircle
 10
0.865459
 20
7.164842999999999
 30
0.0
 40
0.13956
100
AcDbArc
 50
358.766826
 51
1.328022
  0
ARC
  5
44A
330
18
100
AcDbEntity
  8
0
100
AcDbCircle
 10
0.259745
 20
7.150801
 30
0.0
 40
0.7454380000000001
100
AcDbArc
 50
1.328022
 51
3.415457
  0
ARC
  5
44B
330
18
100
AcDbEntity
  8
0
100
AcDbCircle
 10
0.270858
 20
7.151464
 30
0.0
 40
0.734304
100
AcDbArc
 50
3.415457
 51
5.518658
  0
ARC
  5
44C
330
18
100
AcDbEntity
  8
0
100
AcDbCircle
 10
0.899907
 20
7.212241000000001
 30
0.0
 40
0.102327
100
AcDbArc
 50
5.518658
 51
14.27187
  0
ARC
  5
44D
330
18
100
AcDbEntity
  8
0
100
AcDbCircle
 10
0.809713
 20
7.189298
 30
0.0
 40
0.195393
100
AcDbArc
 50
14.27187
 51
19.515467
  0
ARC
  5
44E
330
18
100
AcDbEntity
  8
0
100
AcDbCircle
 10
2.253397
 20
6.658421000000001
 30
0.0
 40
1.174044
100
AcDbArc
 50
164.091288
 51
166.053489
  0
ARC
  5
44F
330
18
100
AcDbEntity
  8
0
100
AcDbCircle
 10
1.853386
 20
6.772433
 30
0.0
 40
0.7581020000000001
100
AcDbArc
 50
160.090873
 51
164.091288
  0
ARC
  5
450
330
18
100
AcDbEntity
  8
0
100
AcDbCircle
 10
2.067003
 20
6.695066000000001
 30
0.0
 40
0.985298
100
AcDbArc
 50
157.93488
 51
160.090873
  0
ARC
  5
451
330
18
100
AcDbEntity
  8
0
100
AcDbCircle
 10
0.9744200000000001
 20
7.137944
 30
0.0
 40
0.193633
100
AcDbArc
 50
337.93488
 51
339.688535
  0
ARC
  5
452
330
18
100
AcDbEntity
  8
0
100
AcDbCircle
 10
8.49785
 20
5.993073000000001
 30
0.0
 40
0.013268
100
AcDbArc
 50
266.548931
 51
279.912845
  0
ARC
  5
453
330
18
100
AcDbEntity
  8
0
100
AcDbCircle
 10
8.498358
 20
5.990169
 30
0.0
 40
0.01032
100
AcDbArc
 50
279.912845
 51
307.105524
  0
ARC
  5
454
330
18
100
AcDbEntity
  8
0
100
AcDbCircle
 10
8.498358
 20
5.990169
 30
0.0
 40
0.01032
100
AcDbArc
 50
307.105524
 51
334.298204
  0
ARC
  5
455
330
18
100
AcDbEntity
  8
0
100
AcDbCircle
 10
8.495700999999999
 20
5.991448
 30
0.0
 40
0.013268
100
AcDbArc
 50
334.298204
 51
358.228869
  0
ARC
  5
456
330
18
100
AcDbEntity
  8
0
100
AcDbCircle
 10
8.492988
 20
5.991531
 30
0.0
 40
0.015982
100
AcDbArc
 50
358.228869
 51
18.6388
  0
ARC
  5
457
330
18
100
AcDbEntity
  8
0
100
AcDbCircle
 10
8.489669000000001
 20
5.990412
 30
0.0
 40
0.019485
100
AcDbArc
 50
18.6388
 51
28.296955
  0
ARC
  5
458
330
18
100
AcDbEntity
  8
0
100
AcDbCircle
 10
8.686352000000001
 20
6.366761
 30
0.0
 40
0.01032
100
AcDbArc
 50
127.105524
 51
154.298204
  0
ARC
  5
459
330
18
100
AcDbEntity
  8
0
100
AcDbCircle
 10
8.689007999999999
 20
6.365482
 30
0.0
 40
0.013268
100
AcDbArc
 50
154.298204
 51
178.228869
  0
ARC
  5
45A
330
18
100
AcDbEntity
  8
0
100
AcDbCircle
 10
8.691721000000001
 20
6.365399
 30
0.0
 40
0.015982
100
AcDbArc
 50
178.228869
 51
198.6388
  0
ARC
  5
45B
330
18
100
AcDbEntity
  8
0
100
AcDbCircle
 10
8.695039999999999
 20
6.366518
 30
0.0
 40
0.019485
100
AcDbArc
 50
198.6388
 51
217.105524
  0
ARC
  5
45C
330
18
100
AcDbEntity
  8
0
100
AcDbCircle
 10
8.695039999999999
 20
6.366518
 30
0.0
 40
0.019485
100
AcDbArc
 50
217.105524
 51
235.572248
  0
ARC
  5
45D
330
18
100
AcDbEntity
  8
0
100
AcDbCircle
 10
8.693060000000001
 20
6.363629
 30
0.0
 40
0.015982
100
AcDbArc
 50
235.572248
 51
255.982179
  0
ARC
  5
45E
330
18
100
AcDbEntity
  8
0
100
AcDbCircle
 10
8.692402000000001
 20
6.360996
 30
0.0
 40
0.013268
100
AcDbArc
 50
255.982179
 51
279.912845
  0
ARC
  5
45F
330
18
100
AcDbEntity
  8
0
100
AcDbCircle
 10
8.692910000000001
 20
6.358091
 30
0.0
 40
0.01032
100
AcDbArc
 50
279.912845
 51
307.105524
  0
ARC
  5
460
330
18
100
AcDbEntity
  8
0
100
AcDbCircle
 10
8.692910000000001
 20
6.358091
 30
0.0
 40
0.01032
100
AcDbArc
 50
307.105524
 51
334.298204
  0
ARC
  5
461
330
18
100
AcDbEntity
  8
0
100
AcDbCircle
 10
8.690253
 20
6.359369999999999
 30
0.0
 40
0.013268
100
AcDbArc
 50
334.298204
 51
358.228869
  0
ARC
  5
462
330
18
100
AcDbEntity
  8
0
100
AcDbCircle
 10
8.687541
 20
6.359454
 30
0.0
 40
0.015982
100
AcDbArc
 50
358.228869
 51
18.6388
  0
ARC
  5
463
330
18
100
AcDbEntity
  8
0
100
AcDbCircle
 10
8.684221000000001
 20
6.358333999999999
 30
0.0
 40
0.019485
100
AcDbArc
 50
18.6388
 51
37.105524
  0
ARC
  5
464
330
18
100
AcDbEntity
  8
0
100
AcDbCircle
 10
8.684221000000001
 20
6.358333999999999
 30
0.0
 40
0.019485
100
AcDbArc
 50
37.105524
 51
55.572248
  0
ARC
  5
465
330
18
100
AcDbEntity
  8
0
100
AcDbCircle
 10
8.686202
 20
6.361224
 30
0.0
 40
0.015982
100
AcDbArc
 50
55.572248
 51
75.982179
  0
ARC
  5
466
330
18
100
AcDbEntity
  8
0
100
AcDbCircle
 10
8.686859
 20
6.363857
 30
0.0
 40
0.013268
100
AcDbArc
 50
75.982179
 51
99.91284499999999
  0
ARC
  5
467
330
18
100
AcDbEntity
  8
0
100
AcDbCircle
 10
8.686352000000001
 20
6.366761
 30
0.0
 40
0.01032
100
AcDbArc
 50
99.91284499999999
 51
127.105524
  0
ARC
  5
468
330
18
100
AcDbEntity
  8
0
100
AcDbCircle
 10
8.627431
 20
6.09943
 30
0.0
 40
0.01032
100
AcDbArc
 50
127.105524
 51
154.298204
  0
ARC
  5
469
330
18
100
AcDbEntity
  8
0
100
AcDbCircle
 10
8.630088000000001
 20
6.098151000000001
 30
0.0
 40
0.013268
100
AcDbArc
 50
154.298204
 51
178.228869
  0
ARC
  5
46A
330
18
100
AcDbEntity
  8
0
100
AcDbCircle
 10
8.6328
 20
6.098067
 30
0.0
 40
0.015982
100
AcDbArc
 50
178.228869
 51
198.6388
  0
ARC
  5
46B
330
18
100
AcDbEntity
  8
0
100
AcDbCircle
 10
8.636119000000001
 20
6.099187000000001
 30
0.0
 40
0.019485
100
AcDbArc
 50
198.6388
 51
217.105524
  0
ARC
  5
46C
330
18
100
AcDbEntity
  8
0
100
AcDbCircle
 10
8.636119000000001
 20
6.099187000000001
 30
0.0
 40
0.019485
100
AcDbArc
 50
217.105524
 51
235.572248
  0
ARC
  5
46D
330
18
100
AcDbEntity
  8
0
100
AcDbCircle
 10
8.634138999999999
 20
6.096297
 30
0.0
 40
0.015982
100
AcDbArc
 50
235.572248
 51
255.982179
  0
ARC
  5
46E
330
18
100
AcDbEntity
  8
0
100
AcDbCircle
 10
8.633482000000001
 20
6.093664
 30
0.0
 40
0.013268
100
AcDbArc
 50
255.982179
 51
279.912845
  0
ARC
  5
46F
330
18
100
AcDbEntity
  8
0
100
AcDbCircle
 10
8.633989
 20
6.09076
 30
0.0
 40
0.01032
100
AcDbArc
 50
279.912845
 51
307.105524
  0
ARC
  5
470
330
18
100
AcDbEntity
  8
0
100
AcDbCircle
 10
8.633989
 20
6.09076
 30
0.0
 40
0.01032
100
AcDbArc
 50
307.105524
 51
334.298204
  0
ARC
  5
471
330
18
100
AcDbEntity
  8
0
100
AcDbCircle
 10
8.631332
 20
6.092039
 30
0.0
 40
0.013268
100
AcDbArc
 50
334.298204
 51
358.228869
  0
ARC
  5
472
330
18
100
AcDbEntity
  8
0
100
AcDbCircle
 10
8.62862
 20
6.092123
 30
0.0
 40
0.015982
100
AcDbArc
 50
358.228869
 51
18.6388
  0
ARC
  5
473
330
18
100
AcDbEntity
  8
0
100
AcDbCircle
 10
8.625301
 20
6.091003
 30
0.0
 40
0.019485
100
AcDbArc
 50
18.6388
 51
37.105524
  0
ARC
  5
474
330
18
100
AcDbEntity
  8
0
100
AcDbCircle
 10
8.625301
 20
6.091003
 30
0.0
 40
0.019485
100
AcDbArc
 50
37.105524
 51
55.572248
  0
ARC
  5
475
330
18
100
AcDbEntity
  8
0
100
AcDbCircle
 10
8.627281
 20
6.093891999999999
 30
0.0
 40
0.015982
100
AcDbArc
 50
55.572248
 51
75.982179
  0
ARC
  5
476
330
18
100
AcDbEntity
  8
0
100
AcDbCircle
 10
8.627939
 20
6.096525
 30
0.0
 40
0.013268
100
AcDbArc
 50
75.982179
 51
99.91284499999999
  0
ARC
  5
477
330
18
100
AcDbEntity
  8
0
100
AcDbCircle
 10
8.627431
 20
6.09943
 30
0.0
 40
0.01032
100
AcDbArc
 50
99.91284499999999
 51
127.105524
  0
ARC
  5
478
330
18
100
AcDbEntity
  8
0
100
AcDbCircle
 10
8.734662
 20
6.051855000000001
 30
0.0
 40
0.01032
100
AcDbArc
 50
127.105524
 51
154.298204
  0
ARC
  5
479
330
18
100
AcDbEntity
  8
0
100
AcDbCircle
 10
8.737318999999999
 20
6.050576
 30
0.0
 40
0.013268
100
AcDbArc
 50
154.298204
 51
178.228869
  0
ARC
  5
47A
330
18
100
AcDbEntity
  8
0
100
AcDbCircle
 10
8.740032000000001
 20
6.050492
 30
0.0
 40
0.015982
100
AcDbArc
 50
178.228869
 51
198.6388
  0
ARC
  5
47B
330
18
100
AcDbEntity
  8
0
100
AcDbCircle
 10
8.743350999999999
 20
6.051612
 30
0.0
 40
0.019485
100
AcDbArc
 50
198.6388
 51
217.105524
  0
ARC
  5
47C
330
18
100
AcDbEntity
  8
0
100
AcDbCircle
 10
8.743350999999999
 20
6.051612
 30
0.0
 40
0.019485
100
AcDbArc
 50
217.105524
 51
235.572248
  0
ARC
  5
47D
330
18
100
AcDbEntity
  8
0
100
AcDbCircle
 10
8.74137
 20
6.048722
 30
0.0
 40
0.015982
100
AcDbArc
 50
235.572248
 51
255.982179
  0
ARC
  5
47E
330
18
100
AcDbEntity
  8
0
100
AcDbCircle
 10
8.740713000000001
 20
6.046089
 30
0.0
 40
0.013268
100
AcDbArc
 50
255.982179
 51
279.912845
  0
ARC
  5
47F
330
18
100
AcDbEntity
  8
0
100
AcDbCircle
 10
8.741221000000001
 20
6.043185
 30
0.0
 40
0.01032
100
AcDbArc
 50
279.912845
 51
307.105524
  0
ARC
  5
480
330
18
100
AcDbEntity
  8
0
100
AcDbCircle
 10
8.741221000000001
 20
6.043185
 30
0.0
 40
0.01032
100
AcDbArc
 50
307.105524
 51
334.298204
  0
ARC
  5
481
330
18
100
AcDbEntity
  8
0
100
AcDbCircle
 10
8.738564
 20
6.044464
 30
0.0
 40
0.013268
100
AcDbArc
 50
334.298204
 51
358.228869
  0
ARC
  5
482
330
18
100
AcDbEntity
  8
0
100
AcDbCircle
 10
8.735851
 20
6.044548000000001
 30
0.0
 40
0.015982
100
AcDbArc
 50
358.228869
 51
18.6388
  0
ARC
  5
483
330
18
100
AcDbEntity
  8
0
100
AcDbCircle
 10
8.732532000000001
 20
6.043428
 30
0.0
 40
0.019485
100
AcDbArc
 50
18.6388
 51
37.105524
  0
ARC
  5
484
330
18
100
AcDbEntity
  8
0
100
AcDbCircle
 10
8.732532000000001
 20
6.043428
 30
0.0
 40
0.019485
100
AcDbArc
 50
37.105524
 51
55.572248
  0
ARC
  5
485
330
18
100
AcDbEntity
  8
0
100
AcDbCircle
 10
8.734513
 20
6.046317
 30
0.0
 40
0.015982
100
AcDbArc
 50
55.572248
 51
75.982179
  0
ARC
  5
486
330
18
100
AcDbEntity
  8
0
100
AcDbCircle
 10
8.73517
 20
6.04895
 30
0.0
 40
0.013268
100
AcDbArc
 50
75.982179
 51
99.91284499999999
  0
ARC
  5
487
330
18
100
AcDbEntity
  8
0
100
AcDbCircle
 10
8.734662
 20
6.051855000000001
 30
0.0
 40
0.01032
100
AcDbArc
 50
99.91284499999999
 51
127.105524
  0
ARC
  5
488
330
18
100
AcDbEntity
  8
0
100
AcDbCircle
 10
8.708346000000001
 20
6.126772
 30
0.0
 40
0.01032
100
AcDbArc
 50
127.105524
 51
154.298204
  0
ARC
  5
489
330
18
100
AcDbEntity
  8
0
100
AcDbCircle
 10
8.711002000000001
 20
6.125493
 30
0.0
 40
0.013268
100
AcDbArc
 50
154.298204
 51
178.228869
  0
ARC
  5
48A
330
18
100
AcDbEntity
  8
0
100
AcDbCircle
 10
8.713714999999999
 20
6.125408999999999
 30
0.0
 40
0.015982
100
AcDbArc
 50
178.228869
 51
198.6388
  0
ARC
  5
48B
330
18
100
AcDbEntity
  8
0
100
AcDbCircle
 10
8.717034
 20
6.126529
 30
0.0
 40
0.019485
100
AcDbArc
 50
198.6388
 51
217.105524
  0
ARC
  5
48C
330
18
100
AcDbEntity
  8
0
100
AcDbCircle
 10
8.717034
 20
6.126529
 30
0.0
 40
0.019485
100
AcDbArc
 50
217.105524
 51
235.572248
  0
ARC
  5
48D
330
18
100
AcDbEntity
  8
0
100
AcDbCircle
 10
8.715053999999999
 20
6.123639
 30
0.0
 40
0.015982
100
AcDbArc
 50
235.572248
 51
255.982179
  0
ARC
  5
48E
330
18
100
AcDbEntity
  8
0
100
AcDbCircle
 10
8.714396000000001
 20
6.121006
 30
0.0
 40
0.013268
100
AcDbArc
 50
255.982179
 51
279.912845
  0
ARC
  5
48F
330
18
100
AcDbEntity
  8
0
100
AcDbCircle
 10
8.714903999999999
 20
6.118102
 30
0.0
 40
0.01032
100
AcDbArc
 50
279.912845
 51
307.105524
  0
ARC
  5
490
330
18
100
AcDbEntity
  8
0
100
AcDbCircle
 10
8.714903999999999
 20
6.118102
 30
0.0
 40
0.01032
100
AcDbArc
 50
307.105524
 51
334.298204
  0
ARC
  5
491
330
18
100
AcDbEntity
  8
0
100
AcDbCircle
 10
8.712247
 20
6.119380000000001
 30
0.0
 40
0.013268
100
AcDbArc
 50
334.298204
 51
358.228869
  0
ARC
  5
492
330
18
100
AcDbEntity
  8
0
100
AcDbCircle
 10
8.709535000000001
 20
6.119464
 30
0.0
 40
0.015982
100
AcDbArc
 50
358.228869
 51
18.6388
  0
ARC
  5
493
330
18
100
AcDbEntity
  8
0
100
AcDbCircle
 10
8.706215
 20
6.118345
 30
0.0
 40
0.019485
100
AcDbArc
 50
18.6388
 51
37.105524
  0
ARC
  5
494
330
18
100
AcDbEntity
  8
0
100
AcDbCircle
 10
8.706215
 20
6.118345
 30
0.0
 40
0.019485
100
AcDbArc
 50
37.105524
 51
55.572248
  0
ARC
  5
495
330
18
100
AcDbEntity
  8
0
100
AcDbCircle
 10
8.708196000000001
 20
6.121233999999999
 30
0.0
 40
0.015982
100
AcDbArc
 50
55.572248
 51
75.982179
  0
ARC
  5
496
330
18
100
AcDbEntity
  8
0
100
AcDbCircle
 10
8.708853
 20
6.123867
 30
0.0
 40
0.013268
100
AcDbArc
 50
75.982179
 51
99.91284499999999
  0
ARC
  5
497
330
18
100
AcDbEntity
  8
0
100
AcDbCircle
 10
8.708346000000001
 20
6.126772
 30
0.0
 40
0.01032
100
AcDbArc
 50
99.91284499999999
 51
127.105524
  0
ARC
  5
498
330
18
100
AcDbEntity
  8
0
100
AcDbCircle
 10
8.665007000000001
 20
6.20562
 30
0.0
 40
0.01032
100
AcDbArc
 50
127.105524
 51
154.298204
  0
ARC
  5
499
330
18
100
AcDbEntity
  8
0
100
AcDbCircle
 10
8.667664
 20
6.204341
 30
0.0
 40
0.013268
100
AcDbArc
 50
154.298204
 51
178.228869
  0
ARC
  5
49A
330
18
100
AcDbEntity
  8
0
100
AcDbCircle
 10
8.670375999999999
 20
6.204257
 30
0.0
 40
0.015982
100
AcDbArc
 50
178.228869
 51
198.6388
  0
ARC
  5
49B
330
18
100
AcDbEntity
  8
0
100
AcDbCircle
 10
8.673695
 20
6.205377
 30
0.0
 40
0.019485
100
AcDbArc
 50
198.6388
 51
217.105524
  0
ARC
  5
49C
330
18
100
AcDbEntity
  8
0
100
AcDbCircle
 10
8.673695
 20
6.205377
 30
0.0
 40
0.019485
100
AcDbArc
 50
217.105524
 51
235.572248
  0
ARC
  5
49D
330
18
100
AcDbEntity
  8
0
100
AcDbCircle
 10
8.671714999999999
 20
6.202487000000001
 30
0.0
 40
0.015982
100
AcDbArc
 50
235.572248
 51
255.982179
  0
ARC
  5
49E
330
18
100
AcDbEntity
  8
0
100
AcDbCircle
 10
8.671058
 20
6.199854
 30
0.0
 40
0.013268
100
AcDbArc
 50
255.982179
 51
279.912845
  0
ARC
  5
49F
330
18
100
AcDbEntity
  8
0
100
AcDbCircle
 10
8.671564999999999
 20
6.19695
 30
0.0
 40
0.01032
100
AcDbArc
 50
279.912845
 51
307.105524
  0
ARC
  5
4A0
330
18
100
AcDbEntity
  8
0
100
AcDbCircle
 10
8.671564999999999
 20
6.19695
 30
0.0
 40
0.01032
100
AcDbArc
 50
307.105524
 51
334.298204
  0
ARC
  5
4A1
330
18
100
AcDbEntity
  8
0
100
AcDbCircle
 10
8.668908
 20
6.198229
 30
0.0
 40
0.013268
100
AcDbArc
 50
334.298204
 51
358.228869
  0
ARC
  5
4A2
330
18
100
AcDbEntity
  8
0
100
AcDbCircle
 10
8.666196000000001
 20
6.198312000000001
 30
0.0
 40
0.015982
100
AcDbArc
 50
358.228869
 51
18.6388
  0
ARC
  5
4A3
330
18
100
AcDbEntity
  8
0
100
AcDbCircle
 10
8.662877
 20
6.197193
 30
0.0
 40
0.019485
100
AcDbArc
 50
18.6388
 51
37.105524
  0
ARC
  5
4A4
330
18
100
AcDbEntity
  8
0
100
AcDbCircle
 10
8.662877
 20
6.197193
 30
0.0
 40
0.019485
100
AcDbArc
 50
37.105524
 51
55.572248
  0
ARC
  5
4A5
330
18
100
AcDbEntity
  8
0
100
AcDbCircle
 10
8.664857000000001
 20
6.200082
 30
0.0
 40
0.015982
100
AcDbArc
 50
55.572248
 51
75.982179
  0
ARC
  5
4A6
330
18
100
AcDbEntity
  8
0
100
AcDbCircle
 10
8.665514999999999
 20
6.202715
 30
0.0
 40
0.013268
100
AcDbArc
 50
75.982179
 51
99.91284499999999
  0
ARC
  5
4A7
330
18
100
AcDbEntity
  8
0
100
AcDbCircle
 10
8.665007000000001
 20
6.20562
 30
0.0
 40
0.01032
100
AcDbArc
 50
99.91284499999999
 51
127.105524
  0
ARC
  5
4A8
330
18
100
AcDbEntity
  8
0
100
AcDbCircle
 10
8.550349000000001
 20
6.451981
 30
0.0
 40
0.007441
100
AcDbArc
 50
261.526667
 51
292.306527
  0
ARC
  5
4A9
330
18
100
AcDbEntity
  8
0
100
AcDbCircle
 10
8.548721000000001
 20
6.455949
 30
0.0
 40
0.01173
100
AcDbArc
 50
292.306527
 51
316.711708
  0
ARC
  5
4AA
330
18
100
AcDbEntity
  8
0
100
AcDbCircle
 10
8.545641999999999
 20
6.458849
 30
0.0
 40
0.01596
100
AcDbArc
 50
316.711708
 51
335.457815
  0
ARC
  5
4AB
330
18
100
AcDbEntity
  8
0
100
AcDbCircle
 10
8.540448
 20
6.461221
 30
0.0
 40
0.021669
100
AcDbArc
 50
335.457815
 51
351.526667
  0
ARC
  5
4AC
330
18
100
AcDbEntity
  8
0
100
AcDbCircle
 10
8.540448
 20
6.461221
 30
0.0
 40
0.021669
100
AcDbArc
 50
351.526667
 51
7.595519
  0
ARC
  5
4AD
330
18
100
AcDbEntity
  8
0
100
AcDbCircle
 10
8.546108
 20
6.461975
 30
0.0
 40
0.01596
100
AcDbArc
 50
7.595519
 51
26.341626
  0
ARC
  5
4AE
330
18
100
AcDbEntity
  8
0
100
AcDbCircle
 10
8.549897999999999
 20
6.463851999999999
 30
0.0
 40
0.01173
100
AcDbArc
 50
26.341626
 51
50.746807
  0
ARC
  5
4AF
330
18
100
AcDbEntity
  8
0
100
AcDbCircle
 10
8.552612
 20
6.467174
 30
0.0
 40
0.007441
100
AcDbArc
 50
50.746807
 51
81.526667
  0
ARC
  5
4B0
330
18
100
AcDbEntity
  8
0
100
AcDbCircle
 10
8.552612
 20
6.467174
 30
0.0
 40
0.007441
100
AcDbArc
 50
81.526667
 51
112.306527
  0
ARC
  5
4B1
330
18
100
AcDbEntity
  8
0
100
AcDbCircle
 10
8.55424
 20
6.463205
 30
0.0
 40
0.01173
100
AcDbArc
 50
112.306527
 51
136.711708
  0
ARC
  5
4B2
330
18
100
AcDbEntity
  8
0
100
AcDbCircle
 10
8.557319
 20
6.460305
 30
0.0
 40
0.01596
100
AcDbArc
 50
136.711708
 51
155.457815
  0
ARC
  5
4B3
330
18
100
AcDbEntity
  8
0
100
AcDbCircle
 10
8.562513000000001
 20
6.457934
 30
0.0
 40
0.021669
100
AcDbArc
 50
155.457815
 51
171.526667
  0
ARC
  5
4B4
330
18
100
AcDbEntity
  8
0
100
AcDbCircle
 10
8.562513000000001
 20
6.457934
 30
0.0
 40
0.021669
100
AcDbArc
 50
171.526667
 51
187.595519
  0
ARC
  5
4B5
330
18
100
AcDbEntity
  8
0
100
AcDbCircle
 10
8.556853
 20
6.457179
 30
0.0
 40
0.01596
100
AcDbArc
 50
187.595519
 51
206.341626
  0
ARC
  5
4B6
330
18
100
AcDbEntity
  8
0
100
AcDbCircle
 10
8.553063
 20
6.455302
 30
0.0
 40
0.01173
100
AcDbArc
 50
206.341626
 51
230.746807
  0
ARC
  5
4B7
330
18
100
AcDbEntity
  8
0
100
AcDbCircle
 10
8.550349000000001
 20
6.451981
 30
0.0
 40
0.007441
100
AcDbArc
 50
230.746807
 51
261.526667
  0
ARC
  5
4B8
330
18
100
AcDbEntity
  8
0
100
AcDbCircle
 10
8.550349000000001
 20
6.378978
 30
0.0
 40
0.007441
100
AcDbArc
 50
261.526667
 51
292.306527
  0
ARC
  5
4B9
330
18
100
AcDbEntity
  8
0
100
AcDbCircle
 10
8.548721000000001
 20
6.382946
 30
0.0
 40
0.01173
100
AcDbArc
 50
292.306527
 51
316.711708
  0
ARC
  5
4BA
330
18
100
AcDbEntity
  8
0
100
AcDbCircle
 10
8.545641999999999
 20
6.385847
 30
0.0
 40
0.01596
100
AcDbArc
 50
316.711708
 51
335.457815
  0
ARC
  5
4BB
330
18
100
AcDbEntity
  8
0
100
AcDbCircle
 10
8.540448
 20
6.388218
 30
0.0
 40
0.021669
100
AcDbArc
 50
335.457815
 51
351.526667
  0
ARC
  5
4BC
330
18
100
AcDbEntity
  8
0
100
AcDbCircle
 10
8.540448
 20
6.388218
 30
0.0
 40
0.021669
100
AcDbArc
 50
351.526667
 51
7.595519
  0
ARC
  5
4BD
330
18
100
AcDbEntity
  8
0
100
AcDbCircle
 10
8.546108
 20
6.388973
 30
0.0
 40
0.01596
100
AcDbArc
 50
7.595519
 51
26.341626
  0
ARC
  5
4BE
330
18
100
AcDbEntity
  8
0
100
AcDbCircle
 10
8.549897999999999
 20
6.39085
 30
0.0
 40
0.01173
100
AcDbArc
 50
26.341626
 51
50.746807
  0
ARC
  5
4BF
330
18
100
AcDbEntity
  8
0
100
AcDbCircle
 10
8.552612
 20
6.394171
 30
0.0
 40
0.007441
100
AcDbArc
 50
50.746807
 51
81.526667
  0
ARC
  5
4C0
330
18
100
AcDbEntity
  8
0
100
AcDbCircle
 10
8.552612
 20
6.394171
 30
0.0
 40
0.007441
100
AcDbArc
 50
81.526667
 51
112.306527
  0
ARC
  5
4C1
330
18
100
AcDbEntity
  8
0
100
AcDbCircle
 10
8.55424
 20
6.390203
 30
0.0
 40
0.01173
100
AcDbArc
 50
112.306527
 51
136.711708
  0
ARC
  5
4C2
330
18
100
AcDbEntity
  8
0
100
AcDbCircle
 10
8.557319
 20
6.387303
 30
0.0
 40
0.01596
100
AcDbArc
 50
136.711708
 51
155.457815
  0
ARC
  5
4C3
330
18
100
AcDbEntity
  8
0
100
AcDbCircle
 10
8.562513000000001
 20
6.384931
 30
0.0
 40
0.021669
100
AcDbArc
 50
155.457815
 51
171.526667
  0
ARC
  5
4C4
330
18
100
AcDbEntity
  8
0
100
AcDbCircle
 10
8.562513000000001
 20
6.384931
 30
0.0
 40
0.021669
100
AcDbArc
 50
171.526667
 51
187.595519
  0
ARC
  5
4C5
330
18
100
AcDbEntity
  8
0
100
AcDbCircle
 10
8.556853
 20
6.384176
 30
0.0
 40
0.01596
100
AcDbArc
 50
187.595519
 51
206.341626
  0
ARC
  5
4C6
330
18
100
AcDbEntity
  8
0
100
AcDbCircle
 10
8.553063
 20
6.3823
 30
0.0
 40
0.01173
100
AcDbArc
 50
206.341626
 51
230.746807
  0
ARC
  5
4C7
330
18
100
AcDbEntity
  8
0
100
AcDbCircle
 10
8.550349000000001
 20
6.378978
 30
0.0
 40
0.007441
100
AcDbArc
 50
230.746807
 51
261.526667
  0
ARC
  5
4C8
330
18
100
AcDbEntity
  8
0
100
AcDbCircle
 10
8.550349000000001
 20
6.289912999999999
 30
0.0
 40
0.007441
100
AcDbArc
 50
261.526667
 51
292.306527
  0
ARC
  5
4C9
330
18
100
AcDbEntity
  8
0
100
AcDbCircle
 10
8.548721000000001
 20
6.293881
 30
0.0
 40
0.01173
100
AcDbArc
 50
292.306527
 51
316.711708
  0
ARC
  5
4CA
330
18
100
AcDbEntity
  8
0
100
AcDbCircle
 10
8.545641999999999
 20
6.296781
 30
0.0
 40
0.01596
100
AcDbArc
 50
316.711708
 51
335.457815
  0
ARC
  5
4CB
330
18
100
AcDbEntity
  8
0
100
AcDbCircle
 10
8.540448
 20
6.299153
 30
0.0
 40
0.021669
100
AcDbArc
 50
335.457815
 51
351.526667
  0
ARC
  5
4CC
330
18
100
AcDbEntity
  8
0
100
AcDbCircle
 10
8.540448
 20
6.299153
 30
0.0
 40
0.021669
100
AcDbArc
 50
351.526667
 51
7.595519
  0
ARC
  5
4CD
330
18
100
AcDbEntity
  8
0
100
AcDbCircle
 10
8.546108
 20
6.299908
 30
0.0
 40
0.01596
100
AcDbArc
 50
7.595519
 51
26.341626
  0
ARC
  5
4CE
330
18
100
AcDbEntity
  8
0
100
AcDbCircle
 10
8.549897999999999
 20
6.301784
 30
0.0
 40
0.01173
100
AcDbArc
 50
26.341626
 51
50.746807
  0
ARC
  5
4CF
330
18
100
AcDbEntity
  8
0
100
AcDbCircle
 10
8.552612
 20
6.305105999999999
 30
0.0
 40
0.007441
100
AcDbArc
 50
50.746807
 51
81.526667
  0
ARC
  5
4D0
330
18
100
AcDbEntity
  8
0
100
AcDbCircle
 10
8.552612
 20
6.305105999999999
 30
0.0
 40
0.007441
100
AcDbArc
 50
81.526667
 51
112.306527
  0
ARC
  5
4D1
330
18
100
AcDbEntity
  8
0
100
AcDbCircle
 10
8.55424
 20
6.301138
 30
0.0
 40
0.01173
100
AcDbArc
 50
112.306527
 51
136.711708
  0
ARC
  5
4D2
330
18
100
AcDbEntity
  8
0
100
AcDbCircle
 10
8.557319
 20
6.298237
 30
0.0
 40
0.01596
100
AcDbArc
 50
136.711708
 51
155.457815
  0
ARC
  5
4D3
330
18
100
AcDbEntity
  8
0
100
AcDbCircle
 10
8.562513000000001
 20
6.295866
 30
0.0
 40
0.021669
100
AcDbArc
 50
155.457815
 51
171.526667
  0
ARC
  5
4D4
330
18
100
AcDbEntity
  8
0
100
AcDbCircle
 10
8.562513000000001
 20
6.295866
 30
0.0
 40
0.021669
100
AcDbArc
 50
171.526667
 51
187.595519
  0
ARC
  5
4D5
330
18
100
AcDbEntity
  8
0
100
AcDbCircle
 10
8.556853
 20
6.295111
 30
0.0
 40
0.01596
100
AcDbArc
 50
187.595519
 51
206.341626
  0
ARC
  5
4D6
330
18
100
AcDbEntity
  8
0
100
AcDbCircle
 10
8.553063
 20
6.293234
 30
0.0
 40
0.01173
100
AcDbArc
 50
206.341626
 51
230.746807
  0
ARC
  5
4D7
330
18
100
AcDbEntity
  8
0
100
AcDbCircle
 10
8.550349000000001
 20
6.289912999999999
 30
0.0
 40
0.007441
100
AcDbArc
 50
230.746807
 51
261.526667
  0
ARC
  5
4D8
330
18
100
AcDbEntity
  8
0
100
AcDbCircle
 10
8.550349000000001
 20
6.208912000000001
 30
0.0
 40
0.007441
100
AcDbArc
 50
261.526667
 51
292.306527
  0
ARC
  5
4D9
330
18
100
AcDbEntity
  8
0
100
AcDbCircle
 10
8.548721000000001
 20
6.21288
 30
0.0
 40
0.01173
100
AcDbArc
 50
292.306527
 51
316.711708
  0
ARC
  5
4DA
330
18
100
AcDbEntity
  8
0
100
AcDbCircle
 10
8.545641999999999
 20
6.215780000000001
 30
0.0
 40
0.01596
100
AcDbArc
 50
316.711708
 51
335.457815
  0
ARC
  5
4DB
330
18
100
AcDbEntity
  8
0
100
AcDbCircle
 10
8.540448
 20
6.218152
 30
0.0
 40
0.021669
100
AcDbArc
 50
335.457815
 51
351.526667
  0
ARC
  5
4DC
330
18
100
AcDbEntity
  8
0
100
AcDbCircle
 10
8.540448
 20
6.218152
 30
0.0
 40
0.021669
100
AcDbArc
 50
351.526667
 51
7.595519
  0
ARC
  5
4DD
330
18
100
AcDbEntity
  8
0
100
AcDbCircle
 10
8.546108
 20
6.218907
 30
0.0
 40
0.01596
100
AcDbArc
 50
7.595519
 51
26.341626
  0
ARC
  5
4DE
330
18
100
AcDbEntity
  8
0
100
AcDbCircle
 10
8.549897999999999
 20
6.220783
 30
0.0
 40
0.01173
100
AcDbArc
 50
26.341626
 51
50.746807
  0
ARC
  5
4DF
330
18
100
AcDbEntity
  8
0
100
AcDbCircle
 10
8.552612
 20
6.224105000000001
 30
0.0
 40
0.007441
100
AcDbArc
 50
50.746807
 51
81.526667
  0
ARC
  5
4E0
330
18
100
AcDbEntity
  8
0
100
AcDbCircle
 10
8.552612
 20
6.224105000000001
 30
0.0
 40
0.007441
100
AcDbArc
 50
81.526667
 51
112.306527
  0
ARC
  5
4E1
330
18
100
AcDbEntity
  8
0
100
AcDbCircle
 10
8.55424
 20
6.220137
 30
0.0
 40
0.01173
100
AcDbArc
 50
112.306527
 51
136.711708
  0
ARC
  5
4E2
330
18
100
AcDbEntity
  8
0
100
AcDbCircle
 10
8.557319
 20
6.217237
 30
0.0
 40
0.01596
100
AcDbArc
 50
136.711708
 51
155.457815
  0
ARC
  5
4E3
330
18
100
AcDbEntity
  8
0
100
AcDbCircle
 10
8.562513000000001
 20
6.214865000000001
 30
0.0
 40
0.021669
100
AcDbArc
 50
155.457815
 51
171.526667
  0
ARC
  5
4E4
330
18
100
AcDbEntity
  8
0
100
AcDbCircle
 10
8.562513000000001
 20
6.214865000000001
 30
0.0
 40
0.021669
100
AcDbArc
 50
171.526667
 51
187.595519
  0
ARC
  5
4E5
330
18
100
AcDbEntity
  8
0
100
AcDbCircle
 10
8.556853
 20
6.21411
 30
0.0
 40
0.01596
100
AcDbArc
 50
187.595519
 51
206.341626
  0
ARC
  5
4E6
330
18
100
AcDbEntity
  8
0
100
AcDbCircle
 10
8.553063
 20
6.212233
 30
0.0
 40
0.01173
100
AcDbArc
 50
206.341626
 51
230.746807
  0
ARC
  5
4E7
330
18
100
AcDbEntity
  8
0
100
AcDbCircle
 10
8.550349000000001
 20
6.208912000000001
 30
0.0
 40
0.007441
100
AcDbArc
 50
230.746807
 51
261.526667
  0
ARC
  5
4E8
330
18
100
AcDbEntity
  8
0
100
AcDbCircle
 10
8.669069
 20
5.94755
 30
0.0
 40
0.01032
100
AcDbArc
 50
127.105524
 51
154.298204
  0
ARC
  5
4E9
330
18
100
AcDbEntity
  8
0
100
AcDbCircle
 10
8.671726
 20
5.946272
 30
0.0
 40
0.013268
100
AcDbArc
 50
154.298204
 51
178.228869
  0
ARC
  5
4EA
330
18
100
AcDbEntity
  8
0
100
AcDbCircle
 10
8.674439
 20
5.946187999999999
 30
0.0
 40
0.015982
100
AcDbArc
 50
178.228869
 51
198.6388
  0
ARC
  5
4EB
330
18
100
AcDbEntity
  8
0
100
AcDbCircle
 10
8.677758000000001
 20
5.947307
 30
0.0
 40
0.019485
100
AcDbArc
 50
198.6388
 51
217.105524
  0
ARC
  5
4EC
330
18
100
AcDbEntity
  8
0
100
AcDbCircle
 10
8.677758000000001
 20
5.947307
 30
0.0
 40
0.019485
100
AcDbArc
 50
217.105524
 51
235.572248
  0
ARC
  5
4ED
330
18
100
AcDbEntity
  8
0
100
AcDbCircle
 10
8.675777
 20
5.944418
 30
0.0
 40
0.015982
100
AcDbArc
 50
235.572248
 51
255.982179
  0
ARC
  5
4EE
330
18
100
AcDbEntity
  8
0
100
AcDbCircle
 10
8.67512
 20
5.941784999999999
 30
0.0
 40
0.013268
100
AcDbArc
 50
255.982179
 51
279.912845
  0
ARC
  5
4EF
330
18
100
AcDbEntity
  8
0
100
AcDbCircle
 10
8.675628
 20
5.93888
 30
0.0
 40
0.01032
100
AcDbArc
 50
279.912845
 51
307.105524
  0
ARC
  5
4F0
330
18
100
AcDbEntity
  8
0
100
AcDbCircle
 10
8.675628
 20
5.93888
 30
0.0
 40
0.01032
100
AcDbArc
 50
307.105524
 51
334.298204
  0
ARC
  5
4F1
330
18
100
AcDbEntity
  8
0
100
AcDbCircle
 10
8.672971
 20
5.940159
 30
0.0
 40
0.013268
100
AcDbArc
 50
334.298204
 51
358.228869
  0
ARC
  5
4F2
330
18
100
AcDbEntity
  8
0
100
AcDbCircle
 10
8.670258000000001
 20
5.940243
 30
0.0
 40
0.015982
100
AcDbArc
 50
358.228869
 51
18.6388
  0
ARC
  5
4F3
330
18
100
AcDbEntity
  8
0
100
AcDbCircle
 10
8.666938999999999
 20
5.939124
 30
0.0
 40
0.019485
100
AcDbArc
 50
18.6388
 51
37.105524
  0
ARC
  5
4F4
330
18
100
AcDbEntity
  8
0
100
AcDbCircle
 10
8.666938999999999
 20
5.939124
 30
0.0
 40
0.019485
100
AcDbArc
 50
37.105524
 51
55.572248
  0
ARC
  5
4F5
330
18
100
AcDbEntity
  8
0
100
AcDbCircle
 10
8.668919000000001
 20
5.942012999999999
 30
0.0
 40
0.015982
100
AcDbArc
 50
55.572248
 51
75.982179
  0
ARC
  5
4F6
330
18
100
AcDbEntity
  8
0
100
AcDbCircle
 10
8.669577
 20
5.944646
 30
0.0
 40
0.013268
100
AcDbArc
 50
75.982179
 51
99.91284499999999
  0
ARC
  5
4F7
330
18
100
AcDbEntity
  8
0
100
AcDbCircle
 10
8.669069
 20
5.94755
 30
0.0
 40
0.01032
100
AcDbArc
 50
99.91284499999999
 51
127.105524
  0
ARC
  5
4F8
330
18
100
AcDbEntity
  8
0
100
AcDbCircle
 10
7.271414999999999
 20
5.49266
 30
0.0
 40
0.810321
100
AcDbArc
 50
356.123413
 51
357.895944
  0
ARC
  5
4F9
330
18
100
AcDbEntity
  8
0
100
AcDbCircle
 10
8.380506000000001
 20
5.451912999999999
 30
0.0
 40
0.299518
100
AcDbArc
 50
172.961088
 51
177.895944
  0
ARC
  5
4FA
330
18
100
AcDbEntity
  8
0
100
AcDbCircle
 10
8.167147999999999
 20
5.478257
 30
0.0
 40
0.084539
100
AcDbArc
 50
156.356726
 51
172.961088
  0
ARC
  5
4FB
330
18
100
AcDbEntity
  8
0
100
AcDbCircle
 10
8.052806
 20
5.528315
 30
0.0
 40
0.04028
100
AcDbArc
 50
336.356726
 51
0.5060680000000001
  0
ARC
  5
4FC
330
18
100
AcDbEntity
  8
0
100
AcDbCircle
 10
7.978923
 20
5.527662
 30
0.0
 40
0.114166
100
AcDbArc
 50
0.5060680000000001
 51
18.65827
  0
ARC
  5
4FD
330
18
100
AcDbEntity
  8
0
100
AcDbCircle
 10
8.592899000000001
 20
5.734984
 30
0.0
 40
0.533868
100
AcDbArc
 50
190.291667
 51
198.65827
  0
ARC
  5
4FE
330
18
100
AcDbEntity
  8
0
100
AcDbCircle
 10
15.617055
 20
7.010434
 30
0.0
 40
7.672883000000001
100
AcDbArc
 50
189.840831
 51
190.291667
  0
ARC
  5
4FF
330
18
100
AcDbEntity
  8
0
100
AcDbCircle
 10
8.121566
 20
5.710236
 30
0.0
 40
0.065462
100
AcDbArc
 50
184.958408
 51
189.840831
  0
ARC
  5
500
330
18
100
AcDbEntity
  8
0
100
AcDbCircle
 10
8.383224
 20
5.732937000000001
 30
0.0
 40
0.328102
100
AcDbArc
 50
182.210561
 51
184.958408
  0
ARC
  5
501
330
18
100
AcDbEntity
  8
0
100
AcDbCircle
 10
10.427922
 20
5.811864
 30
0.0
 40
2.374324
100
AcDbArc
 50
181.189171
 51
182.210561
  0
ARC
  5
502
330
18
100
AcDbEntity
  8
0
100
AcDbCircle
 10
8.921989999999999
 20
5.780604
 30
0.0
 40
0.868067
100
AcDbArc
 50
179.396037
 51
181.189171
  0
ARC
  5
503
330
18
100
AcDbEntity
  8
0
100
AcDbCircle
 10
6.934355
 20
5.801557
 30
0.0
 40
1.119679
100
AcDbArc
 50
359.396037
 51
0.9748790000000001
  0
ARC
  5
504
330
18
100
AcDbEntity
  8
0
100
AcDbCircle
 10
7.748092
 20
5.815404
 30
0.0
 40
0.305823
100
AcDbArc
 50
0.9748790000000001
 51
7.360643
  0
ARC
  5
505
330
18
100
AcDbEntity
  8
0
100
AcDbCircle
 10
7.807268
 20
5.823048
 30
0.0
 40
0.246156
100
AcDbArc
 50
7.360643
 51
14.479292
  0
ARC
  5
506
330
18
100
AcDbEntity
  8
0
100
AcDbCircle
 10
7.958214
 20
5.862026999999999
 30
0.0
 40
0.090258
100
AcDbArc
 50
14.479292
 51
20.231518
  0
ARC
  5
507
330
18
100
AcDbEntity
  8
0
100
AcDbCircle
 10
7.034926
 20
5.582998
 30
0.0
 40
1.114607
100
AcDbArc
 50
24.953067
 51
24.983108
  0
ARC
  5
508
330
18
100
AcDbEntity
  8
0
100
AcDbCircle
 10
7.528624000000001
 20
5.812721
 30
0.0
 40
0.570079
100
AcDbArc
 50
22.044706
 51
24.953067
  0
ARC
  5
509
330
18
100
AcDbEntity
  8
0
100
AcDbCircle
 10
3.78839
 20
4.298173
 30
0.0
 40
4.605324
100
AcDbArc
 50
21.553539
 51
22.044706
  0
ARC
  5
50A
330
18
100
AcDbEntity
  8
0
100
AcDbCircle
 10
8.014786000000001
 20
5.967558
 30
0.0
 40
0.061178
100
AcDbArc
 50
17.291081
 51
21.553539
  0
ARC
  5
50B
330
18
100
AcDbEntity
  8
0
100
AcDbCircle
 10
7.991906
 20
5.960435
 30
0.0
 40
0.085141
100
AcDbArc
 50
358.424962
 51
17.291081
  0
ARC
  5
50C
330
18
100
AcDbEntity
  8
0
100
AcDbCircle
 10
8.256203999999999
 20
5.953168
 30
0.0
 40
0.179257
100
AcDbArc
 50
178.424962
 51
191.396046
  0
ARC
  5
50D
330
18
100
AcDbEntity
  8
0
100
AcDbCircle
 10
12.018556
 20
6.711521
 30
0.0
 40
4.017276
100
AcDbArc
 50
191.396046
 51
191.827802
  0
ARC
  5
50E
330
18
100
AcDbEntity
  8
0
100
AcDbCircle
 10
8.47818
 20
5.970105
 30
0.0
 40
0.400101
100
AcDbArc
 50
191.827802
 51
193.195934
  0
ARC
  5
50F
330
18
100
AcDbEntity
  8
0
100
AcDbCircle
 10
8.921500999999999
 20
6.074052
 30
0.0
 40
0.8554459999999999
100
AcDbArc
 50
193.195934
 51
194.747855
  0
ARC
  5
510
330
18
100
AcDbEntity
  8
0
100
AcDbCircle
 10
7.726079
 20
5.752746
 30
0.0
 40
0.382442
100
AcDbArc
 50
12.236015
 51
15.707775
  0
ARC
  5
511
330
18
100
AcDbEntity
  8
0
100
AcDbCircle
 10
7.711932000000001
 20
5.749678
 30
0.0
 40
0.396917
100
AcDbArc
 50
11.189689
 51
12.236015
  0
ARC
  5
512
330
18
100
AcDbEntity
  8
0
100
AcDbCircle
 10
3.711496
 20
4.958319
 30
0.0
 40
4.474874
100
AcDbArc
 50
10.878072
 51
11.189689
  0
ARC
  5
513
330
18
100
AcDbEntity
  8
0
100
AcDbCircle
 10
7.497905
 20
5.685963
 30
0.0
 40
0.619182
100
AcDbArc
 50
7.185092999999998
 51
10.878072
  0
ARC
  5
514
330
18
100
AcDbEntity
  8
0
100
AcDbCircle
 10
8.459306
 20
5.807162
 30
0.0
 40
0.349828
100
AcDbArc
 50
187.185093
 51
192.098887
  0
ARC
  5
515
330
18
100
AcDbEntity
  8
0
100
AcDbCircle
 10
8.292686999999999
 20
5.771446
 30
0.0
 40
0.179424
100
AcDbArc
 50
192.098887
 51
197.734551
  0
ARC
  5
516
330
18
100
AcDbEntity
  8
0
100
AcDbCircle
 10
7.589225
 20
5.546475
 30
0.0
 40
0.559137
100
AcDbArc
 50
14.542962
 51
17.734551
  0
ARC
  5
517
330
18
100
AcDbEntity
  8
0
100
AcDbCircle
 10
7.507371000000001
 20
5.52524
 30
0.0
 40
0.6437000000000001
100
AcDbArc
 50
12.211759
 51
14.542962
  0
ARC
  5
518
330
18
100
AcDbEntity
  8
0
100
AcDbCircle
 10
8.083786999999999
 20
5.64999
 30
0.0
 40
0.053939
100
AcDbArc
 50
4.152419
 51
12.211759
  0
ARC
  5
519
330
18
100
AcDbEntity
  8
0
100
AcDbCircle
 10
8.055882
 20
5.647964
 30
0.0
 40
0.081918
100
AcDbArc
 50
348.425677
 51
4.152419
  0
ARC
  5
51A
330
18
100
AcDbEntity
  8
0
100
AcDbCircle
 10
8.555007000000002
 20
5.545741000000001
 30
0.0
 40
0.427568
100
AcDbArc
 50
168.425677
 51
175.29195
  0
ARC
  5
51B
330
18
100
AcDbEntity
  8
0
100
AcDbCircle
 10
22.759538
 20
4.375907
 30
0.0
 40
14.680189
100
AcDbArc
 50
175.29195
 51
175.407131
  0
ARC
  5
51C
330
18
100
AcDbEntity
  8
0
100
AcDbCircle
 10
-62.553291
 20
11.229327
 30
0.0
 40
70.90747399999999
100
AcDbArc
 50
355.354723
 51
355.407131
  0
ARC
  5
51D
330
18
100
AcDbEntity
  8
0
100
AcDbCircle
 10
3.616132
 20
5.852831
 30
0.0
 40
4.519982
100
AcDbArc
 50
354.818604
 51
355.354723
  0
ARC
  5
51E
330
18
100
AcDbEntity
  8
0
100
AcDbCircle
 10
-5.762249
 20
6.70326
 30
0.0
 40
13.936842
100
AcDbArc
 50
354.748988
 51
354.818604
  0
ARC
  5
51F
330
18
100
AcDbEntity
  8
0
100
AcDbCircle
 10
10.847243
 20
5.124458
 30
0.0
 40
2.69319
100
AcDbArc
 50
173.293718
 51
173.852573
  0
ARC
  5
520
330
18
100
AcDbEntity
  8
0
100
AcDbCircle
 10
15.139667
 20
4.619737000000001
 30
0.0
 40
7.015186
100
AcDbArc
 50
172.743247
 51
173.293718
  0
ARC
  5
521
330
18
100
AcDbEntity
  8
0
100
AcDbCircle
 10
7.869803999999999
 20
5.545451
 30
0.0
 40
0.3133780000000001
100
AcDbArc
 50
352.743247
 51
355.347931
  0
ARC
  5
522
330
18
100
AcDbEntity
  8
0
100
AcDbCircle
 10
8.061318
 20
5.529866999999999
 30
0.0
 40
0.121232
100
AcDbArc
 50
355.347931
 51
1.480991
  0
ARC
  5
523
330
18
100
AcDbEntity
  8
0
100
AcDbCircle
 10
7.394189999999999
 20
5.512619
 30
0.0
 40
0.788582
100
AcDbArc
 50
1.480991
 51
3.884722
  0
ARC
  5
524
330
18
100
AcDbEntity
  8
0
100
AcDbCircle
 10
7.482941
 20
5.518644999999999
 30
0.0
 40
0.699627
100
AcDbArc
 50
3.884722
 51
6.244632000000001
  0
ARC
  5
525
330
18
100
AcDbEntity
  8
0
100
AcDbCircle
 10
7.496529
 20
5.520132
 30
0.0
 40
0.685958
100
AcDbArc
 50
6.244632000000001
 51
8.627943999999999
  0
ARC
  5
526
330
18
100
AcDbEntity
  8
0
100
AcDbCircle
 10
7.98847
 20
5.594777
 30
0.0
 40
0.188386
100
AcDbArc
 50
8.627943999999999
 51
18.169317
  0
ARC
  5
527
330
18
100
AcDbEntity
  8
0
100
AcDbCircle
 10
8.272500000000001
 20
5.687993
 30
0.0
 40
0.11055
100
AcDbArc
 50
185.70376
 51
198.169317
  0
ARC
  5
528
330
18
100
AcDbEntity
  8
0
100
AcDbCircle
 10
9.075196
 20
5.768165
 30
0.0
 40
0.9172389999999999
100
AcDbArc
 50
184.180813
 51
185.70376
  0
ARC
  5
529
330
18
100
AcDbEntity
  8
0
100
AcDbCircle
 10
14.241519
 20
6.145817
 30
0.0
 40
6.097347
100
AcDbArc
 50
183.590143
 51
184.180813
  0
ARC
  5
52A
330
18
100
AcDbEntity
  8
0
100
AcDbCircle
 10
10.957102
 20
5.939746
 30
0.0
 40
2.806472
100
AcDbArc
 50
182.468951
 51
183.590143
  0
ARC
  5
52B
330
18
100
AcDbEntity
  8
0
100
AcDbCircle
 10
7.773303
 20
5.802467
 30
0.0
 40
0.380286
100
AcDbArc
 50
2.468951
 51
5.515089
  0
ARC
  5
52C
330
18
100
AcDbEntity
  8
0
100
AcDbCircle
 10
7.868689
 20
5.811677
 30
0.0
 40
0.284456
100
AcDbArc
 50
5.515089
 51
11.216369
  0
ARC
  5
52D
330
18
100
AcDbEntity
  8
0
100
AcDbCircle
 10
9.000585000000001
 20
6.006727
 30
0.0
 40
0.864242
100
AcDbArc
 50
187.427815
 51
189.303643
  0
ARC
  5
52E
330
18
100
AcDbEntity
  8
0
100
AcDbCircle
 10
9.848993
 20
6.117335
 30
0.0
 40
1.719829
100
AcDbArc
 50
186.270359
 51
187.427815
  0
ARC
  5
52F
330
18
100
AcDbEntity
  8
0
100
AcDbCircle
 10
6.812252
 20
5.787579
 30
0.0
 40
1.334766
100
AcDbArc
 50
6.103395
 51
7.594778999999999
  0
ARC
  5
530
330
18
100
AcDbEntity
  8
0
100
AcDbCircle
 10
7.780580000000001
 20
5.916691
 30
0.0
 40
0.357868
100
AcDbArc
 50
7.594778999999999
 51
9.397974000000001
  0
ARC
  5
531
330
18
100
AcDbEntity
  8
0
100
AcDbCircle
 10
7.003361999999999
 20
5.788052
 30
0.0
 40
1.14566
100
AcDbArc
 50
9.397974000000001
 51
10.405749
  0
ARC
  5
532
330
18
100
AcDbEntity
  8
0
100
AcDbCircle
 10
8.024719000000001
 20
5.975612
 30
0.0
 40
0.107224
100
AcDbArc
 50
10.405749
 51
20.532613
  0
ARC
  5
533
330
18
100
AcDbEntity
  8
0
100
AcDbCircle
 10
8.692797000000001
 20
6.22583
 30
0.0
 40
0.606174
100
AcDbArc
 50
198.502061
 51
200.532613
  0
ARC
  5
534
330
18
100
AcDbEntity
  8
0
100
AcDbCircle
 10
9.621636000000001
 20
6.318611
 30
0.0
 40
1.492112
100
AcDbArc
 50
191.468799
 51
192.029056
  0
ARC
  5
535
330
18
100
AcDbEntity
  8
0
100
AcDbCircle
 10
8.894686999999999
 20
6.163707
 30
0.0
 40
0.748841
100
AcDbArc
 50
192.029056
 51
194.980465
  0
ARC
  5
536
330
18
100
AcDbEntity
  8
0
100
AcDbCircle
 10
10.431248
 20
6.574866
 30
0.0
 40
2.339461
100
AcDbArc
 50
194.980465
 51
195.886471
  0
ARC
  5
537
330
18
100
AcDbEntity
  8
0
100
AcDbCircle
 10
8.029715
 20
5.891385
 30
0.0
 40
0.157438
100
AcDbArc
 50
12.393489
 51
15.886471
  0
ARC
  5
538
330
18
100
AcDbEntity
  8
0
100
AcDbCircle
 10
7.908845
 20
5.864824
 30
0.0
 40
0.281192
100
AcDbArc
 50
4.597771
 51
12.393489
  0
ARC
  5
539
330
18
100
AcDbEntity
  8
0
100
AcDbCircle
 10
8.699916999999999
 20
5.928441
 30
0.0
 40
0.5124340000000001
100
AcDbArc
 50
184.597771
 51
190.370584
  0
ARC
  5
53A
330
18
100
AcDbEntity
  8
0
100
AcDbCircle
 10
17.528335
 20
7.544074
 30
0.0
 40
9.487468
100
AcDbArc
 50
190.370584
 51
190.540473
  0
ARC
  5
53B
330
18
100
AcDbEntity
  8
0
100
AcDbCircle
 10
11.450566
 20
6.413185
 30
0.0
 40
3.305382
100
AcDbArc
 50
190.540473
 51
190.828298
  0
ARC
  5
53C
330
18
100
AcDbEntity
  8
0
100
AcDbCircle
 10
9.504702999999999
 20
6.040996
 30
0.0
 40
1.324244
100
AcDbArc
 50
190.828298
 51
192.26282
  0
ARC
  5
53D
330
18
100
AcDbEntity
  8
0
100
AcDbCircle
 10
6.923139999999999
 20
5.479794
 30
0.0
 40
1.317615
100
AcDbArc
 50
12.065324
 51
12.266429
  0
ARC
  5
53E
330
18
100
AcDbEntity
  8
0
100
AcDbCircle
 10
10.283759
 20
5.729015
 30
0.0
 40
0.050137
100
AcDbArc
 50
290.920112
 51
299.048872
  0
ARC
  5
53F
330
18
100
AcDbEntity
  8
0
100
AcDbCircle
 10
9.965536999999999
 20
6.301948
 30
0.0
 40
0.705512
100
AcDbArc
 50
299.048872
 51
300.2477
  0
ARC
  5
540
330
18
100
AcDbEntity
  8
0
100
AcDbCircle
 10
9.568811999999999
 20
6.982288000000001
 30
0.0
 40
1.493074
100
AcDbArc
 50
300.2477
 51
301.07177
  0
ARC
  5
541
330
18
100
AcDbEntity
  8
0
100
AcDbCircle
 10
10.215174
 20
5.909607
 30
0.0
 40
0.240705
100
AcDbArc
 50
301.07177
 51
304.131567
  0
ARC
  5
542
330
18
100
AcDbEntity
  8
0
100
AcDbCircle
 10
10.435079
 20
5.421333
 30
0.0
 40
0.363544
100
AcDbArc
 50
109.786196
 51
111.53032
  0
ARC
  5
543
330
18
100
AcDbEntity
  8
0
100
AcDbCircle
 10
10.958634
 20
3.966001
 30
0.0
 40
1.910185
100
AcDbArc
 50
109.423678
 51
109.786196
  0
ARC
  5
544
330
18
100
AcDbEntity
  8
0
100
AcDbCircle
 10
10.091474
 20
6.425191000000001
 30
0.0
 40
0.697416
100
AcDbArc
 50
289.423678
 51
290.023638
  0
ARC
  5
545
330
18
100
AcDbEntity
  8
0
100
AcDbCircle
 10
10.216093
 20
6.083243
 30
0.0
 40
0.333467
100
AcDbArc
 50
290.023638
 51
293.719199
  0
ARC
  5
546
330
18
100
AcDbEntity
  8
0
100
AcDbCircle
 10
10.235848
 20
5.976596
 30
0.0
 40
0.151065
100
AcDbArc
 50
288.842949
 51
293.229105
  0
ARC
  5
547
330
18
100
AcDbEntity
  8
0
100
AcDbCircle
 10
10.282027
 20
5.869003
 30
0.0
 40
0.033981
100
AcDbArc
 50
293.229105
 51
302.484965
  0
ARC
  5
548
330
18
100
AcDbEntity
  8
0
100
AcDbCircle
 10
10.159766
 20
6.061026999999999
 30
0.0
 40
0.261623
100
AcDbArc
 50
302.484965
 51
305.749359
  0
ARC
  5
549
330
18
100
AcDbEntity
  8
0
100
AcDbCircle
 10
10.363599
 20
5.777878
 30
0.0
 40
0.087262
100
AcDbArc
 50
120.095497
 51
125.749359
  0
ARC
  5
54A
330
18
100
AcDbEntity
  8
0
100
AcDbCircle
 10
10.39666
 20
5.720834
 30
0.0
 40
0.153195
100
AcDbArc
 50
116.494216
 51
120.095497
  0
ARC
  5
54B
330
18
100
AcDbEntity
  8
0
100
AcDbCircle
 10
10.252818
 20
6.008344999999999
 30
0.0
 40
0.168291
100
AcDbArc
 50
296.65579
 51
299.933923
  0
ARC
  5
54C
330
18
100
AcDbEntity
  8
0
100
AcDbCircle
 10
10.234358
 20
6.040405000000001
 30
0.0
 40
0.205286
100
AcDbArc
 50
299.933923
 51
304.364217
  0
ARC
  5
54D
330
18
100
AcDbEntity
  8
0
100
AcDbCircle
 10
9.973800000000001
 20
6.208544
 30
0.0
 40
0.575824
100
AcDbArc
 50
292.021547
 51
293.967658
  0
ARC
  5
54E
330
18
100
AcDbEntity
  8
0
100
AcDbCircle
 10
10.054815
 20
6.026305000000001
 30
0.0
 40
0.376388
100
AcDbArc
 50
293.967658
 51
296.374823
  0
ARC
  5
54F
330
18
100
AcDbEntity
  8
0
100
AcDbCircle
 10
9.926810000000002
 20
6.284454
 30
0.0
 40
0.6645310000000001
100
AcDbArc
 50
296.374823
 51
297.144261
  0
ARC
  5
550
330
18
100
AcDbEntity
  8
0
100
AcDbCircle
 10
10.258605
 20
5.637304
 30
0.0
 40
0.062718
100
AcDbArc
 50
114.639493
 51
117.144261
  0
ARC
  5
551
330
18
100
AcDbEntity
  8
0
100
AcDbCircle
 10
10.246218
 20
5.664308999999999
 30
0.0
 40
0.033007
100
AcDbArc
 50
103.389863
 51
114.639493
  0
ARC
  5
552
330
18
100
AcDbEntity
  8
0
100
AcDbCircle
 10
10.324741
 20
5.334444
 30
0.0
 40
0.37209
100
AcDbArc
 50
100.044201
 51
103.389863
  0
ARC
  5
553
330
18
100
AcDbEntity
  8
0
100
AcDbCircle
 10
10.285835
 20
5.5541
 30
0.0
 40
0.149015
100
AcDbArc
 50
92.80946999999999
 51
100.044201
  0
ARC
  5
554
330
18
100
AcDbEntity
  8
0
100
AcDbCircle
 10
10.275176
 20
5.771309
 30
0.0
 40
0.068455
100
AcDbArc
 50
272.80947
 51
283.492008
  0
ARC
  5
555
330
18
100
AcDbEntity
  8
0
100
AcDbCircle
 10
10.28651
 20
5.724069999999999
 30
0.0
 40
0.019876
100
AcDbArc
 50
283.492008
 51
287.347751
  0
ARC
  5
556
330
18
100
AcDbEntity
  8
0
100
AcDbCircle
 10
8.896255
 20
10.174597
 30
0.0
 40
4.682494
100
AcDbArc
 50
287.347751
 51
287.466039
  0
ARC
  5
557
330
18
100
AcDbEntity
  8
0
100
AcDbCircle
 10
10.328614
 20
5.458736
 30
0.0
 40
0.322861
100
AcDbArc
 50
113.590799
 51
115.482394
  0
ARC
  5
558
330
18
100
AcDbEntity
  8
0
100
AcDbCircle
 10
10.241787
 20
5.657563
 30
0.0
 40
0.105902
100
AcDbArc
 50
110.28768
 51
113.590799
  0
ARC
  5
559
330
18
100
AcDbEntity
  8
0
100
AcDbCircle
 10
11.082112
 20
3.384365
 30
0.0
 40
2.529447
100
AcDbArc
 50
109.976222
 51
110.28768
  0
ARC
  5
55A
330
18
100
AcDbEntity
  8
0
100
AcDbCircle
 10
10.228484
 20
5.732722
 30
0.0
 40
0.030756
100
AcDbArc
 50
107.151409
 51
109.976222
  0
ARC
  5
55B
330
18
100
AcDbEntity
  8
0
100
AcDbCircle
 10
10.267741
 20
5.605519999999999
 30
0.0
 40
0.163878
100
AcDbArc
 50
104.031241
 51
107.151409
  0
ARC
  5
55C
330
18
100
AcDbEntity
  8
0
100
AcDbCircle
 10
10.389122
 20
5.119816999999999
 30
0.0
 40
0.6645180000000001
100
AcDbArc
 50
102.481911
 51
104.031241
  0
ARC
  5
55D
330
18
100
AcDbEntity
  8
0
100
AcDbCircle
 10
10.450355
 20
4.843198
 30
0.0
 40
0.9478340000000001
100
AcDbArc
 50
101.765513
 51
102.481911
  0
ARC
  5
55E
330
18
100
AcDbEntity
  8
0
100
AcDbCircle
 10
10.814345
 20
3.095623
 30
0.0
 40
2.732912
100
AcDbArc
 50
101.343616
 51
101.765513
  0
ARC
  5
55F
330
18
100
AcDbEntity
  8
0
100
AcDbCircle
 10
10.311051
 20
5.604422000000001
 30
0.0
 40
0.174128
100
AcDbArc
 50
98.17732200000002
 51
101.343616
  0
ARC
  5
560
330
18
100
AcDbEntity
  8
0
100
AcDbCircle
 10
10.232498
 20
6.151074
 30
0.0
 40
0.378139
100
AcDbArc
 50
278.177322
 51
280.325794
  0
ARC
  5
561
330
18
100
AcDbEntity
  8
0
100
AcDbCircle
 10
10.291474
 20
5.827382
 30
0.0
 40
0.049118
100
AcDbArc
 50
280.325794
 51
281.97003
  0
ARC
  5
562
330
18
100
AcDbEntity
  8
0
100
AcDbCircle
 10
9.885000999999999
 20
6.498811
 30
0.0
 40
0.9418280000000001
100
AcDbArc
 50
288.876408
 51
290.185743
  0
ARC
  5
563
330
18
100
AcDbEntity
  8
0
100
AcDbCircle
 10
10.066536
 20
6.005033
 30
0.0
 40
0.415738
100
AcDbArc
 50
290.185743
 51
292.156526
  0
ARC
  5
564
330
18
100
AcDbEntity
  8
0
100
AcDbCircle
 10
9.828225
 20
6.590265
 30
0.0
 40
1.047631
100
AcDbArc
 50
292.156526
 51
293.196845
  0
ARC
  5
565
330
18
100
AcDbEntity
  8
0
100
AcDbCircle
 10
10.268896
 20
5.561945
 30
0.0
 40
0.071134
100
AcDbArc
 50
109.203699
 51
113.196845
  0
ARC
  5
566
330
18
100
AcDbEntity
  8
0
100
AcDbCircle
 10
10.267795
 20
5.565108
 30
0.0
 40
0.067784
100
AcDbArc
 50
100.301199
 51
109.203699
  0
ARC
  5
567
330
18
100
AcDbEntity
  8
0
100
AcDbCircle
 10
10.191086
 20
5.987158
 30
0.0
 40
0.36118
100
AcDbArc
 50
280.301199
 51
284.154738
  0
ARC
  5
568
330
18
100
AcDbEntity
  8
0
100
AcDbCircle
 10
10.215565
 20
5.890097
 30
0.0
 40
0.26108
100
AcDbArc
 50
284.154738
 51
285.940635
  0
ARC
  5
569
330
18
100
AcDbEntity
  8
0
100
AcDbCircle
 10
9.322947000000001
 20
9.015241
 30
0.0
 40
3.511202
100
AcDbArc
 50
285.940635
 51
286.185034
  0
ARC
  5
56A
330
18
100
AcDbEntity
  8
0
100
AcDbCircle
 10
12.483393
 20
2.305659
 30
0.0
 40
4.12911
100
AcDbArc
 50
124.528223
 51
124.766524
  0
ARC
  5
56B
330
18
100
AcDbEntity
  8
0
100
AcDbCircle
 10
9.896372
 20
6.065829
 30
0.0
 40
0.43505
100
AcDbArc
 50
304.528223
 51
305.707457
  0
ARC
  5
56C
330
18
100
AcDbEntity
  8
0
100
AcDbCircle
 10
10.120998
 20
5.753314
 30
0.0
 40
0.050184
100
AcDbArc
 50
305.707457
 51
312.386605
  0
ARC
  5
56D
330
18
100
AcDbEntity
  8
0
100
AcDbCircle
 10
8.957737
 20
7.027846
 30
0.0
 40
1.775758
100
AcDbArc
 50
312.386605
 51
313.508806
  0
ARC
  5
56E
330
18
100
AcDbEntity
  8
0
100
AcDbCircle
 10
10.109529
 20
5.814483999999999
 30
0.0
 40
0.102775
100
AcDbArc
 50
313.508806
 51
321.273588
  0
ARC
  5
56F
330
18
100
AcDbEntity
  8
0
100
AcDbCircle
 10
10.065076
 20
5.808676
 30
0.0
 40
0.189523
100
AcDbArc
 50
289.659108
 51
290.318007
  0
ARC
  5
570
330
18
100
AcDbEntity
  8
0
100
AcDbCircle
 10
10.112484
 20
5.68064
 30
0.0
 40
0.052991
100
AcDbArc
 50
290.318007
 51
304.453389
  0
ARC
  5
571
330
18
100
AcDbEntity
  8
0
100
AcDbCircle
 10
9.717891
 20
6.255778
 30
0.0
 40
0.7504770000000001
100
AcDbArc
 50
304.453389
 51
306.859916
  0
ARC
  5
572
330
18
100
AcDbEntity
  8
0
100
AcDbCircle
 10
10.077385
 20
5.776276999999999
 30
0.0
 40
0.151181
100
AcDbArc
 50
306.859916
 51
312.223289
  0
ARC
  5
573
330
18
100
AcDbEntity
  8
0
100
AcDbCircle
 10
10.045254
 20
5.811685
 30
0.0
 40
0.198994
100
AcDbArc
 50
312.223289
 51
314.991723
  0
ARC
  5
574
330
18
100
AcDbEntity
  8
0
100
AcDbCircle
 10
9.053721000000001
 20
6.803503999999999
 30
0.0
 40
1.601436
100
AcDbArc
 50
314.991723
 51
315.182503
  0
ARC
  5
575
330
18
100
AcDbEntity
  8
0
100
AcDbCircle
 10
10.06929
 20
5.697487000000001
 30
0.0
 40
0.139657
100
AcDbArc
 50
295.23732
 51
300.349101
  0
ARC
  5
576
330
18
100
AcDbEntity
  8
0
100
AcDbCircle
 10
6.89744
 20
11.114795
 30
0.0
 40
6.417224
100
AcDbArc
 50
300.349101
 51
300.569441
  0
ARC
  5
577
330
18
100
AcDbEntity
  8
0
100
AcDbCircle
 10
9.760339999999999
 20
6.267998
 30
0.0
 40
0.788048
100
AcDbArc
 50
300.569441
 51
301.198211
  0
ARC
  5
578
330
18
100
AcDbEntity
  8
0
100
AcDbCircle
 10
10.065623
 20
5.76388
 30
0.0
 40
0.198698
100
AcDbArc
 50
301.198211
 51
303.103234
  0
ARC
  5
579
330
18
100
AcDbEntity
  8
0
100
AcDbCircle
 10
8.053348
 20
8.850322
 30
0.0
 40
3.883176
100
AcDbArc
 50
303.103234
 51
303.377847
  0
ARC
  5
57A
330
18
100
AcDbEntity
  8
0
100
AcDbCircle
 10
10.204577
 20
5.880615
 30
0.0
 40
0.071208
100
AcDbArc
 50
120.395013
 51
124.928257
  0
ARC
  5
57B
330
18
100
AcDbEntity
  8
0
100
AcDbCircle
 10
12.232436
 20
2.423524
 30
0.0
 40
4.079162
100
AcDbArc
 50
120.060778
 51
120.395013
  0
ARC
  5
57C
330
18
100
AcDbEntity
  8
0
100
AcDbCircle
 10
10.273519
 20
5.808171
 30
0.0
 40
0.168511
100
AcDbArc
 50
118.416262
 51
120.060778
  0
ARC
  5
57D
330
18
100
AcDbEntity
  8
0
100
AcDbCircle
 10
10.435238
 20
5.509282
 30
0.0
 40
0.5083449999999999
100
AcDbArc
 50
117.459922
 51
118.416262
  0
ARC
  5
57E
330
18
100
AcDbEntity
  8
0
100
AcDbCircle
 10
8.960655000000001
 20
8.346772
 30
0.0
 40
2.689426
100
AcDbArc
 50
297.459922
 51
297.471138
  0
ARC
  5
57F
330
18
100
AcDbEntity
  8
0
100
AcDbCircle
 10
12.898054
 20
2.679521
 30
0.0
 40
4.300019
100
AcDbArc
 50
129.28358
 51
129.484445
  0
ARC
  5
580
330
18
100
AcDbEntity
  8
0
100
AcDbCircle
 10
10.187429
 20
5.993195
 30
0.0
 40
0.018906
100
AcDbArc
 50
125.790106
 51
129.28358
  0
ARC
  5
581
330
18
100
AcDbEntity
  8
0
100
AcDbCircle
 10
10.191056
 20
5.988164
 30
0.0
 40
0.025108
100
AcDbArc
 50
116.280553
 51
125.790106
  0
ARC
  5
582
330
18
100
AcDbEntity
  8
0
100
AcDbCircle
 10
9.971707
 20
6.432363
 30
0.0
 40
0.470297
100
AcDbArc
 50
296.280553
 51
298.475436
  0
ARC
  5
583
330
18
100
AcDbEntity
  8
0
100
AcDbCircle
 10
10.078176
 20
6.23607
 30
0.0
 40
0.246989
100
AcDbArc
 50
298.475436
 51
299.898677
  0
ARC
  5
584
330
18
100
AcDbEntity
  8
0
100
AcDbCircle
 10
10.063441
 20
6.163121
 30
0.0
 40
0.143972
100
AcDbArc
 50
297.244494
 51
305.274997
  0
ARC
  5
585
330
18
100
AcDbEntity
  8
0
100
AcDbCircle
 10
10.099418
 20
6.112262
 30
0.0
 40
0.081674
100
AcDbArc
 50
305.274997
 51
315.943695
  0
ARC
  5
586
330
18
100
AcDbEntity
  8
0
100
AcDbCircle
 10
10.061928
 20
6.148537
 30
0.0
 40
0.133841
100
AcDbArc
 50
315.943695
 51
321.68317
  0
ARC
  5
587
330
18
100
AcDbEntity
  8
0
100
AcDbCircle
 10
10.187928
 20
6.048968
 30
0.0
 40
0.026752
100
AcDbArc
 50
128.823734
 51
141.68317
  0
ARC
  5
588
330
18
100
AcDbEntity
  8
0
100
AcDbCircle
 10
10.19256
 20
6.043212000000001
 30
0.0
 40
0.03414
100
AcDbArc
 50
120.060778
 51
128.823734
  0
ARC
  5
589
330
18
100
AcDbEntity
  8
0
100
AcDbCircle
 10
10.520589
 20
5.47644
 30
0.0
 40
0.688994
100
AcDbArc
 50
118.111954
 51
120.060778
  0
ARC
  5
58A
330
18
100
AcDbEntity
  8
0
100
AcDbCircle
 10
10.243226
 20
5.995633
 30
0.0
 40
0.100359
100
AcDbArc
 50
114.698288
 51
118.111954
  0
ARC
  5
58B
330
18
100
AcDbEntity
  8
0
100
AcDbCircle
 10
10.149419
 20
5.714201
 30
0.0
 40
0.147997
100
AcDbArc
 50
115.862114
 51
124.176396
  0
ARC
  5
58C
330
18
100
AcDbEntity
  8
0
100
AcDbCircle
 10
10.112598
 20
5.790159
 30
0.0
 40
0.063585
100
AcDbArc
 50
103.16275
 51
115.862114
  0
ARC
  5
58D
330
18
100
AcDbEntity
  8
0
100
AcDbCircle
 10
10.247447
 20
5.21354
 30
0.0
 40
0.655762
100
AcDbArc
 50
101.305702
 51
103.16275
  0
ARC
  5
58E
330
18
100
AcDbEntity
  8
0
100
AcDbCircle
 10
10.127074
 20
5.815634999999999
 30
0.0
 40
0.041752
100
AcDbArc
 50
93.941281
 51
101.305702
  0
ARC
  5
58F
330
18
100
AcDbEntity
  8
0
100
AcDbCircle
 10
10.133549
 20
5.721657
 30
0.0
 40
0.135954
100
AcDbArc
 50
86.82851600000001
 51
93.941281
  0
ARC
  5
590
330
18
100
AcDbEntity
  8
0
100
AcDbCircle
 10
10.152682
 20
6.066955999999999
 30
0.0
 40
0.209876
100
AcDbArc
 50
266.828516
 51
272.551917
  0
ARC
  5
591
330
18
100
AcDbEntity
  8
0
100
AcDbCircle
 10
10.151965
 20
6.083044999999999
 30
0.0
 40
0.22598
100
AcDbArc
 50
272.551917
 51
273.003846
  0
ARC
  5
592
330
18
100
AcDbEntity
  8
0
100
AcDbCircle
 10
10.432911
 20
4.663762
 30
0.0
 40
1.298197
100
AcDbArc
 50
105.581815
 51
106.404283
  0
ARC
  5
593
330
18
100
AcDbEntity
  8
0
100
AcDbCircle
 10
10.221856
 20
5.420601
 30
0.0
 40
0.512482
100
AcDbArc
 50
104.272765
 51
105.581815
  0
ARC
  5
594
330
18
100
AcDbEntity
  8
0
100
AcDbCircle
 10
11.586765
 20
0.055197
 30
0.0
 40
6.048774
100
AcDbArc
 50
104.030513
 51
104.272765
  0
ARC
  5
595
330
18
100
AcDbEntity
  8
0
100
AcDbCircle
 10
10.124184
 20
5.908009
 30
0.0
 40
0.015985
100
AcDbArc
 50
99.316743
 51
104.030513
  0
ARC
  5
596
330
18
100
AcDbEntity
  8
0
100
AcDbCircle
 10
10.130443
 20
5.869859
 30
0.0
 40
0.054645
100
AcDbArc
 50
89.602299
 51
99.316743
  0
ARC
  5
597
330
18
100
AcDbEntity
  8
0
100
AcDbCircle
 10
10.134445
 20
6.446529
 30
0.0
 40
0.52204
100
AcDbArc
 50
269.602299
 51
272.7418990000001
  0
ARC
  5
598
330
18
100
AcDbEntity
  8
0
100
AcDbCircle
 10
10.117109
 20
6.808514999999999
 30
0.0
 40
0.88444
100
AcDbArc
 50
272.7418990000001
 51
273.026567
  0
ARC
  5
599
330
18
100
AcDbEntity
  8
0
100
AcDbCircle
 10
49.892371
 20
801.978802
 30
0.0
 40
797.003857
100
AcDbArc
 50
267.135602
 51
267.136776
  0
ARC
  5
59A
330
18
100
AcDbEntity
  8
0
100
AcDbCircle
 10
24.352598
 20
291.329632
 30
0.0
 40
285.716409
100
AcDbArc
 50
267.136776
 51
267.138738
  0
ARC
  5
59B
330
18
100
AcDbEntity
  8
0
100
AcDbCircle
 10
184.707208
 20
3499.70489
 30
0.0
 40
3498.096429
100
AcDbArc
 50
267.138738
 51
267.139125
  0
ARC
  5
59C
330
18
100
AcDbEntity
  8
0
100
AcDbCircle
 10
12.016982
 20
44.05003
 30
0.0
 40
38.12931500000001
100
AcDbArc
 50
267.139125
 51
267.142835
  0
ARC
  5
59D
330
18
100
AcDbEntity
  8
0
100
AcDbCircle
 10
10.118677
 20
6.014168
 30
0.0
 40
0.046113
100
AcDbArc
 50
267.142835
 51
278.528568
  0
ARC
  5
59E
330
18
100
AcDbEntity
  8
0
100
AcDbCircle
 10
10.101069
 20
6.131585
 30
0.0
 40
0.164843
100
AcDbArc
 50
278.528568
 51
284.543366
  0
ARC
  5
59F
330
18
100
AcDbEntity
  8
0
100
AcDbCircle
 10
10.047554
 20
6.337866
 30
0.0
 40
0.377952
100
AcDbArc
 50
284.543366
 51
286.123992
  0
ARC
  5
5A0
330
18
100
AcDbEntity
  8
0
100
AcDbCircle
 10
10.682763
 20
4.140588
 30
0.0
 40
1.9093
100
AcDbArc
 50
105.771659
 51
106.123992
  0
ARC
  5
5A1
330
18
100
AcDbEntity
  8
0
100
AcDbCircle
 10
9.940395000000001
 20
5.963233
 30
0.0
 40
0.094387
100
AcDbArc
 50
310.726618
 51
316.158427
  0
ARC
  5
5A2
330
18
100
AcDbEntity
  8
0
100
AcDbCircle
 10
9.965038
 20
5.939567
 30
0.0
 40
0.06022
100
AcDbArc
 50
316.158427
 51
335.564817
  0
ARC
  5
5A3
330
18
100
AcDbEntity
  8
0
100
AcDbCircle
 10
9.907997999999999
 20
5.965484
 30
0.0
 40
0.122872
100
AcDbArc
 50
335.564817
 51
340.660285
  0
ARC
  5
5A4
330
18
100
AcDbEntity
  8
0
100
AcDbCircle
 10
10.059263
 20
5.912393
 30
0.0
 40
0.03744
100
AcDbArc
 50
151.422395
 51
160.660285
  0
ARC
  5
5A5
330
18
100
AcDbEntity
  8
0
100
AcDbCircle
 10
10.131265
 20
5.873173
 30
0.0
 40
0.11943
100
AcDbArc
 50
142.686293
 51
151.422395
  0
ARC
  5
5A6
330
18
100
AcDbEntity
  8
0
100
AcDbCircle
 10
10.112953
 20
5.887131
 30
0.0
 40
0.096405
100
AcDbArc
 50
132.96048
 51
142.686293
  0
ARC
  5
5A7
330
18
100
AcDbEntity
  8
0
100
AcDbCircle
 10
10.085173
 20
5.916961
 30
0.0
 40
0.055643
100
AcDbArc
 50
123.513458
 51
132.96048
  0
ARC
  5
5A8
330
18
100
AcDbEntity
  8
0
100
AcDbCircle
 10
9.999768
 20
6.045929
 30
0.0
 40
0.099039
100
AcDbArc
 50
303.513458
 51
310.590964
  0
ARC
  5
5A9
330
18
100
AcDbEntity
  8
0
100
AcDbCircle
 10
10.038396
 20
6.000846
 30
0.0
 40
0.039672
100
AcDbArc
 50
310.590964
 51
314.662892
  0
ARC
  5
5AA
330
18
100
AcDbEntity
  8
0
100
AcDbCircle
 10
9.793383
 20
6.134843
 30
0.0
 40
0.362049
100
AcDbArc
 50
305.180196
 51
306.519099
  0
ARC
  5
5AB
330
18
100
AcDbEntity
  8
0
100
AcDbCircle
 10
9.877407
 20
6.02137
 30
0.0
 40
0.220853
100
AcDbArc
 50
306.519099
 51
311.509476
  0
ARC
  5
5AC
330
18
100
AcDbEntity
  8
0
100
AcDbCircle
 10
8.665592999999999
 20
7.390621
 30
0.0
 40
2.049334
100
AcDbArc
 50
311.509476
 51
311.975621
  0
ARC
  5
5AD
330
18
100
AcDbEntity
  8
0
100
AcDbCircle
 10
10.032448
 20
5.871275
 30
0.0
 40
0.005636
100
AcDbArc
 50
311.975621
 51
320.873689
  0
ARC
  5
5AE
330
18
100
AcDbEntity
  8
0
100
AcDbCircle
 10
9.985010000000001
 20
5.909863
 30
0.0
 40
0.066786
100
AcDbArc
 50
320.873689
 51
327.509792
  0
ARC
  5
5AF
330
18
100
AcDbEntity
  8
0
100
AcDbCircle
 10
10.332947
 20
5.688286
 30
0.0
 40
0.345714
100
AcDbArc
 50
144.594364
 51
147.509792
  0
ARC
  5
5B0
330
18
100
AcDbEntity
  8
0
100
AcDbCircle
 10
10.424279
 20
5.623367
 30
0.0
 40
0.457768
100
AcDbArc
 50
143.52171
 51
144.594364
  0
ARC
  5
5B1
330
18
100
AcDbEntity
  8
0
100
AcDbCircle
 10
14.191558
 20
2.837935
 30
0.0
 40
5.14296
100
AcDbArc
 50
143.333114
 51
143.52171
  0
ARC
  5
5B2
330
18
100
AcDbEntity
  8
0
100
AcDbCircle
 10
10.978812
 20
4.324742
 30
0.0
 40
1.76417
100
AcDbArc
 50
123.027898
 51
123.621742
  0
ARC
  5
5B3
330
18
100
AcDbEntity
  8
0
100
AcDbCircle
 10
31.268192
 20
-26.884884
 30
0.0
 40
38.989158
100
AcDbArc
 50
123.005041
 51
123.027898
  0
ARC
  5
5B4
330
18
100
AcDbEntity
  8
0
100
AcDbCircle
 10
9.259171
 20
7.013265
 30
0.0
 40
1.427213
100
AcDbArc
 50
302.704256
 51
303.328683
  0
ARC
  5
5B5
330
18
100
AcDbEntity
  8
0
100
AcDbCircle
 10
9.991728
 20
5.899269
 30
0.0
 40
0.093936
100
AcDbArc
 50
303.328683
 51
304.684913
  0
ARC
  5
5B6
330
18
100
AcDbEntity
  8
0
100
AcDbCircle
 10
-6.414375
 20
29.606026
 30
0.0
 40
28.923965
100
AcDbArc
 50
304.684913
 51
304.735756
  0
TEXT
  5
5B7
330
18
100
AcDbEntity
  8
0
100
AcDbText
 10
5.305917095238096
 20
3.475723
 30
0.0
 40
0.2
  1
MTS12
 41
0.8
 72
     1
 11
5.690679
 21
3.475723
 31
0.0
100
AcDbText
  0
TEXT
  5
5B8
330
18
100
AcDbEntity
  8
0
100
AcDbText
 10
7.083322
 20
7.016373
 30
0.0
 40
0.18
  1
F
100
AcDbText
  0
TEXT
  5
5B9
330
18
100
AcDbEntity
  8
0
100
AcDbText
 10
7.2182
 20
6.957958000000001
 30
0.0
 40
0.15
  1
1
100
AcDbText
  0
TEXT
  5
5BA
330
18
100
AcDbEntity
  8
0
100
AcDbText
 10
7.879749
 20
7.503064
 30
0.0
 40
0.18
  1
F
100
AcDbText
  0
TEXT
  5
5BB
330
18
100
AcDbEntity
  8
0
100
AcDbText
 10
8.014627000000001
 20
7.444649000000001
 30
0.0
 40
0.15
  1
2
100
AcDbText
  0
TEXT
  5
5BC
330
18
100
AcDbEntity
  8
0
100
AcDbText
 10
1.462129
 20
2.509696
 30
0.0
 40
0.2
  1
Simpson Strong-Tie
100
AcDbText
  0
TEXT
  5
5BD
330
18
100
AcDbEntity
  8
0
100
AcDbText
 10
1.462129
 20
2.185887
 30
0.0
 40
0.2
  1
Truss and Rafter Connections to Wood Top Plates
100
AcDbText
  0
ENDSEC
  0
SECTION
  2
OBJECTS
  0
DICTIONARY
  5
C
330
0
100
AcDbDictionary
281
     1
  3
ACAD_COLOR
350
5C3
  3
ACAD_GROUP
350
D
  3
ACAD_LAYOUT
350
15
  3
ACAD_MATERIAL
350
5C5
  3
ACAD_MLINESTYLE
350
12
  3
ACAD_PLOTSETTINGS
350
14
  3
ACAD_PLOTSTYLENAME
350
E
  3
ACDBHEADERROUNDTRIPXREC
350
5C2
  0
DICTIONARY
  5
5C3
102
{ACAD_REACTORS
330
C
102
}
330
C
100
AcDbDictionary
281
     1
  0
DICTIONARY
  5
D
102
{ACAD_REACTORS
330
C
102
}
330
C
100
AcDbDictionary
281
     1
  0
DICTIONARY
  5
15
102
{ACAD_REACTORS
330
C
102
}
330
C
100
AcDbDictionary
281
     1
  3
Layout1
350
17
  3
Model
350
19
  0
DICTIONARY
  5
5C5
102
{ACAD_REACTORS
330
C
102
}
330
C
100
AcDbDictionary
281
     1
  0
DICTIONARY
  5
12
102
{ACAD_REACTORS
330
C
102
}
330
C
100
AcDbDictionary
281
     1
  3
Standard
350
13
  0
DICTIONARY
  5
14
102
{ACAD_REACTORS
330
C
102
}
330
C
100
AcDbDictionary
281
     1
  0
ACDBDICTIONARYWDFLT
  5
E
102
{ACAD_REACTORS
330
C
102
}
330
C
100
AcDbDictionary
281
     1
  3
Normal
350
F
100
AcDbDictionaryWithDefault
340
F
  0
DICTIONARY
  5
5C2
102
{ACAD_REACTORS
330
C
102
}
330
C
100
AcDbDictionary
281
     1
  3
COLORDICT
350
5C4
  3
MATERIALDICT
350
5C6
  0
LAYOUT
  5
17
102
{ACAD_REACTORS
330
15
102
}
102
{ACAD_XDICTIONARY
360
5C7
102
}
330
15
100
AcDbPlotSettings
  1

  2

  4

  6

 40
0.0
 41
0.0
 42
0.0
 43
0.0
 44
0.0
 45
0.0
 46
0.0
 47
0.0
 48
0.0
 49
0.0
140
0.0
141
0.0
142
1.0
143
1.0
 70
   688
 72
     0
 73
     0
 74
     5
  7

 75
    16
147
1.0
148
0.0
149
0.0
100
AcDbLayout
  1
Layout1
 70
     1
 71
     1
 10
0.0
 20
0.0
 11
12.0
 21
9.0
 12
0.0
 22
0.0
 32
0.0
 14
1.000000000000000E+20
 24
1.000000000000000E+20
 34
1.000000000000000E+20
 15
-1.000000000000000E+20
 25
-1.000000000000000E+20
 35
-1.000000000000000E+20
146
0.0
 13
0.0
 23
0.0
 33
0.0
 16
1.0
 26
0.0
 36
0.0
 17
0.0
 27
1.0
 37
0.0
 76
     0
330
16
  0
LAYOUT
  5
19
102
{ACAD_REACTORS
330
15
102
}
102
{ACAD_XDICTIONARY
360
5C9
102
}
330
15
100
AcDbPlotSettings
  1

  2

  4

  6

 40
0.0
 41
0.0
 42
0.0
 43
0.0
 44
0.0
 45
0.0
 46
0.0
 47
0.0
 48
0.0
 49
0.0
140
0.0
141
0.0
142
1.0
143
1.0
 70
  1712
 72
     0
 73
     0
 74
     0
  7

 75
     0
147
1.0
148
0.0
149
0.0
100
AcDbLayout
  1
Model
 70
     1
 71
     0
 10
0.0
 20
0.0
 11
0.0
 21
0.0
 12
0.0
 22
0.0
 32
0.0
 14
0.0
 24
0.0
 34
0.0
 15
0.0
 25
0.0
 35
0.0
146
0.0
 13
0.0
 23
0.0
 33
0.0
 16
1.0
 26
0.0
 36
0.0
 17
0.0
 27
1.0
 37
0.0
 76
     0
330
18
  0
MLINESTYLE
  5
13
102
{ACAD_REACTORS
330
12
102
}
330
12
100
AcDbMlineStyle
  2
Standard
 70
     0
  3

 62
   256
 51
90.0
 52
90.0
 71
     2
 49
0.5
 62
   256
  6
BYLAYER
 49
-0.5
 62
   256
  6
BYLAYER
  0
ACDBPLACEHOLDER
  5
F
102
{ACAD_REACTORS
330
E
102
}
330
E
  0
XRECORD
  5
5C4
102
{ACAD_REACTORS
330
5C2
102
}
330
5C2
100
AcDbXrecord
340
5C3
  0
XRECORD
  5
5C6
102
{ACAD_REACTORS
330
5C2
102
}
330
5C2
100
AcDbXrecord
340
5C5
  0
DICTIONARY
  5
5C7
330
17
100
AcDbDictionary
280
     1
281
     1
  3
ACAD_XREC_ROUNDTRIP
360
5C8
  0
DICTIONARY
  5
5C9
330
19
100
AcDbDictionary
280
     1
281
     1
  3
ACAD_XREC_ROUNDTRIP
360
5CA
  0
XRECORD
  5
5C8
102
{ACAD_REACTORS
330
5C7
102
}
330
5C7
100
AcDbXrecord
102
SHADEPLOT
 70
     0
102
SHADEPLOTRESLEVEL
 70
     0
102
SHADEPLOTCUSTOMDPI
 70
     0
  0
XRECORD
  5
5CA
102
{ACAD_REACTORS
330
5C9
102
}
330
5C9
100
AcDbXrecord
102
SHADEPLOT
 70
     0
102
SHADEPLOTRESLEVEL
 70
     0
102
SHADEPLOTCUSTOMDPI
 70
     0
  0
ENDSEC
  0
EOF
