  0
SECTION
  2
HEADER
  9
$ACADVER
  1
AC1015
  9
$ACADMAINTVER
 70
     6
  9
$DWGCODEPAGE
  3
ASCII
  9
$INSBASE
 10
0.0
 20
0.0
 30
0.0
  9
$EXTMIN
 10
0.5165160003065717
 20
0.9828980000000037
 30
0.0
  9
$EXTMAX
 10
10.60407851642408
 20
10.03723895499915
 30
0.0
  9
$LIMMIN
 10
0.0
 20
0.0
  9
$LIMMAX
 10
8.5
 20
11.0
  9
$ORTHOMODE
 70
     0
  9
$REGENMODE
 70
     0
  9
$FILLMODE
 70
     1
  9
$QTEXTMODE
 70
     0
  9
$MIRRTEXT
 70
     1
  9
$LTSCALE
 40
0.2
  9
$ATTMODE
 70
     1
  9
$TEXTSIZE
 40
0.15
  9
$TRACEWID
 40
0.05
  9
$TEXTSTYLE
  7
STANDARD
  9
$CLAYER
  8
0
  9
$CELTYPE
  6
ByLayer
  9
$CECOLOR
 62
   256
  9
$CELTSCALE
 40
1.0
  9
$DISPSILH
 70
     0
  9
$DIMSCALE
 40
1.0
  9
$DIMASZ
 40
0.2
  9
$DIMEXO
 40
0.0625
  9
$DIMDLI
 40
0.38
  9
$DIMRND
 40
0.0
  9
$DIMDLE
 40
0.0
  9
$DIMEXE
 40
0.075
  9
$DIMTP
 40
0.0
  9
$DIMTM
 40
0.0
  9
$DIMTXT
 40
0.1
  9
$DIMCEN
 40
0.09
  9
$DIMTSZ
 40
0.0
  9
$DIMTOL
 70
     0
  9
$DIMLIM
 70
     0
  9
$DIMTIH
 70
     0
  9
$DIMTOH
 70
     0
  9
$DIMSE1
 70
     0
  9
$DIMSE2
 70
     0
  9
$DIMTAD
 70
     1
  9
$DIMZIN
 70
     0
  9
$DIMBLK
  1

  9
$DIMASO
 70
     0
  9
$DIMSHO
 70
     1
  9
$DIMPOST
  1

  9
$DIMAPOST
  1

  9
$DIMALT
 70
     0
  9
$DIMALTD
 70
     2
  9
$DIMALTF
 40
25.4
  9
$DIMLFAC
 40
1.0
  9
$DIMTOFL
 70
     0
  9
$DIMTVP
 40
0.0
  9
$DIMTIX
 70
     0
  9
$DIMSOXD
 70
     0
  9
$DIMSAH
 70
     0
  9
$DIMBLK1
  1

  9
$DIMBLK2
  1

  9
$DIMSTYLE
  2
Standard
  9
$DIMCLRD
 70
     0
  9
$DIMCLRE
 70
     0
  9
$DIMCLRT
 70
     0
  9
$DIMTFAC
 40
1.0
  9
$DIMGAP
 40
0.09
  9
$DIMJUST
 70
     0
  9
$DIMSD1
 70
     0
  9
$DIMSD2
 70
     0
  9
$DIMTOLJ
 70
     1
  9
$DIMTZIN
 70
     0
  9
$DIMALTZ
 70
     0
  9
$DIMALTTZ
 70
     0
  9
$DIMUPT
 70
     0
  9
$DIMDEC
 70
     4
  9
$DIMTDEC
 70
     4
  9
$DIMALTU
 70
     2
  9
$DIMALTTD
 70
     2
  9
$DIMTXSTY
  7
STANDARD
  9
$DIMAUNIT
 70
     0
  9
$DIMADEC
 70
     0
  9
$DIMALTRND
 40
0.0
  9
$DIMAZIN
 70
     0
  9
$DIMDSEP
 70
    46
  9
$DIMATFIT
 70
     3
  9
$DIMFRAC
 70
     0
  9
$DIMLDRBLK
  1

  9
$DIMLUNIT
 70
     2
  9
$DIMLWD
 70
    -2
  9
$DIMLWE
 70
    -2
  9
$DIMTMOVE
 70
     0
  9
$LUNITS
 70
     2
  9
$LUPREC
 70
     4
  9
$SKETCHINC
 40
0.1
  9
$FILLETRAD
 40
0.01
  9
$AUNITS
 70
     0
  9
$AUPREC
 70
     0
  9
$MENU
  1
acad
  9
$ELEVATION
 40
0.0
  9
$PELEVATION
 40
0.0
  9
$THICKNESS
 40
0.0
  9
$LIMCHECK
 70
     0
  9
$CHAMFERA
 40
0.0
  9
$CHAMFERB
 40
0.0
  9
$CHAMFERC
 40
1.0
  9
$CHAMFERD
 40
0.0
  9
$SKPOLY
 70
     0
  9
$TDCREATE
 40
2453955.560362188
  9
$TDUCREATE
 40
2453955.893695521
  9
$TDUPDATE
 40
2453955.602028866
  9
$TDUUPDATE
 40
2453955.893695532
  9
$TDINDWG
 40
0.0000000116
  9
$TDUSRTIMER
 40
0.0000000116
  9
$USRTIMER
 70
     1
  9
$ANGBASE
 50
0.0
  9
$ANGDIR
 70
     0
  9
$PDMODE
 70
     0
  9
$PDSIZE
 40
0.0
  9
$PLINEWID
 40
0.0
  9
$SPLFRAME
 70
     0
  9
$SPLINETYPE
 70
     6
  9
$SPLINESEGS
 70
     8
  9
$HANDSEED
  5
74D
  9
$SURFTAB1
 70
     6
  9
$SURFTAB2
 70
     6
  9
$SURFTYPE
 70
     6
  9
$SURFU
 70
     6
  9
$SURFV
 70
     6
  9
$UCSBASE
  2

  9
$UCSNAME
  2

  9
$UCSORG
 10
0.0
 20
0.0
 30
0.0
  9
$UCSXDIR
 10
1.0
 20
0.0
 30
0.0
  9
$UCSYDIR
 10
0.0
 20
1.0
 30
0.0
  9
$UCSORTHOREF
  2

  9
$UCSORTHOVIEW
 70
     0
  9
$UCSORGTOP
 10
0.0
 20
0.0
 30
0.0
  9
$UCSORGBOTTOM
 10
0.0
 20
0.0
 30
0.0
  9
$UCSORGLEFT
 10
0.0
 20
0.0
 30
0.0
  9
$UCSORGRIGHT
 10
0.0
 20
0.0
 30
0.0
  9
$UCSORGFRONT
 10
0.0
 20
0.0
 30
0.0
  9
$UCSORGBACK
 10
0.0
 20
0.0
 30
0.0
  9
$PUCSBASE
  2

  9
$PUCSNAME
  2

  9
$PUCSORG
 10
0.0
 20
0.0
 30
0.0
  9
$PUCSXDIR
 10
1.0
 20
0.0
 30
0.0
  9
$PUCSYDIR
 10
0.0
 20
1.0
 30
0.0
  9
$PUCSORTHOREF
  2

  9
$PUCSORTHOVIEW
 70
     0
  9
$PUCSORGTOP
 10
0.0
 20
0.0
 30
0.0
  9
$PUCSORGBOTTOM
 10
0.0
 20
0.0
 30
0.0
  9
$PUCSORGLEFT
 10
0.0
 20
0.0
 30
0.0
  9
$PUCSORGRIGHT
 10
0.0
 20
0.0
 30
0.0
  9
$PUCSORGFRONT
 10
0.0
 20
0.0
 30
0.0
  9
$PUCSORGBACK
 10
0.0
 20
0.0
 30
0.0
  9
$USERI1
 70
     0
  9
$USERI2
 70
     0
  9
$USERI3
 70
     0
  9
$USERI4
 70
     0
  9
$USERI5
 70
     0
  9
$USERR1
 40
0.0
  9
$USERR2
 40
0.0
  9
$USERR3
 40
0.0
  9
$USERR4
 40
0.0
  9
$USERR5
 40
0.0
  9
$WORLDVIEW
 70
     1
  9
$SHADEDGE
 70
     3
  9
$SHADEDIF
 70
    70
  9
$TILEMODE
 70
     1
  9
$MAXACTVP
 70
    16
  9
$PINSBASE
 10
0.0
 20
0.0
 30
0.0
  9
$PLIMCHECK
 70
     0
  9
$PEXTMIN
 10
1.000000000000000E+20
 20
1.000000000000000E+20
 30
1.000000000000000E+20
  9
$PEXTMAX
 10
-1.000000000000000E+20
 20
-1.000000000000000E+20
 30
-1.000000000000000E+20
  9
$PLIMMIN
 10
0.0
 20
0.0
  9
$PLIMMAX
 10
12.0
 20
9.0
  9
$UNITMODE
 70
     0
  9
$VISRETAIN
 70
     0
  9
$PLINEGEN
 70
     0
  9
$PSLTSCALE
 70
     1
  9
$TREEDEPTH
 70
  3020
  9
$CMLSTYLE
  2
Standard
  9
$CMLJUST
 70
     0
  9
$CMLSCALE
 40
1.0
  9
$PROXYGRAPHICS
 70
     1
  9
$MEASUREMENT
 70
     0
  9
$CELWEIGHT
370
    -1
  9
$ENDCAPS
280
     0
  9
$JOINSTYLE
280
     0
  9
$LWDISPLAY
290
     0
  9
$INSUNITS
 70
     1
  9
$HYPERLINKBASE
  1

  9
$STYLESHEET
  1

  9
$XEDIT
290
     1
  9
$CEPSNTYPE
380
     0
  9
$PSTYLEMODE
290
     0
  9
$FINGERPRINTGUID
  2
{FAEB1C30-E019-11D5-929B-00C0DF256EC4}
  9
$VERSIONGUID
  2
{FAEB1C32-E019-11D5-929B-00C0DF256EC4}
  9
$EXTNAMES
290
     1
  9
$PSVPSCALE
 40
0.0
  9
$OLESTARTUP
290
     0
  0
ENDSEC
  0
SECTION
  2
CLASSES
  0
CLASS
  1
ACDBDICTIONARYWDFLT
  2
AcDbDictionaryWithDefault
  3
AutoCAD 2000
 90
        0
280
     0
281
     0
  0
CLASS
  1
ACDBPLACEHOLDER
  2
AcDbPlaceHolder
  3
ObjectDBX Classes
 90
        0
280
     0
281
     0
  0
CLASS
  1
LAYOUT
  2
AcDbLayout
  3
ObjectDBX Classes
 90
        0
280
     0
281
     0
  0
ENDSEC
  0
SECTION
  2
TABLES
  0
TABLE
  2
VPORT
  5
8
330
0
100
AcDbSymbolTable
 70
     2
  0
VPORT
  5
22
330
8
100
AcDbSymbolTableRecord
100
AcDbViewportTableRecord
  2
*ACTIVE
 70
     0
 10
0.0
 20
0.0
 11
1.0
 21
1.0
 12
7.654302946067357
 22
4.611145510835898
 13
0.0
 23
0.0
 14
1.0
 24
1.0
 15
0.0
 25
0.0
 16
0.0
 26
0.0
 36
1.0
 17
0.0
 27
0.0
 37
0.0
 40
9.372085162570517
 41
0.689102564102564
 42
50.0
 43
0.0
 44
0.0
 50
0.0
 51
0.0
 71
     0
 72
  2000
 73
     1
 74
     0
 75
     0
 76
     0
 77
     0
 78
     0
281
     0
 65
     1
110
0.0
120
0.0
130
0.0
111
1.0
121
0.0
131
0.0
112
0.0
122
1.0
132
0.0
 79
     0
146
0.0
  0
ENDTAB
  0
TABLE
  2
LTYPE
  5
5
330
0
100
AcDbSymbolTable
 70
     2
  0
LTYPE
  5
10
330
5
100
AcDbSymbolTableRecord
100
AcDbLinetypeTableRecord
  2
ByBlock
 70
     0
  3

 72
    65
 73
     0
 40
0.0
  0
LTYPE
  5
11
330
5
100
AcDbSymbolTableRecord
100
AcDbLinetypeTableRecord
  2
ByLayer
 70
     0
  3

 72
    65
 73
     0
 40
0.0
  0
LTYPE
  5
1E
330
5
100
AcDbSymbolTableRecord
100
AcDbLinetypeTableRecord
  2
CONTINUOUS
 70
     0
  3
Solid line
 72
    65
 73
     0
 40
0.0
  0
LTYPE
  5
1F
330
5
100
AcDbSymbolTableRecord
100
AcDbLinetypeTableRecord
  2
HIDDEN
 70
     0
  3
__ __ __ __ __ __ __ __ __ __ __ __ __ __ __ __
 72
    65
 73
     2
 40
0.375
 49
0.25
 74
     0
 49
-0.125
 74
     0
  0
ENDTAB
  0
TABLE
  2
LAYER
  5
2
330
0
100
AcDbSymbolTable
 70
     1
  0
LAYER
  5
20
330
2
100
AcDbSymbolTableRecord
100
AcDbLayerTableRecord
  2
0
 70
     0
 62
     7
  6
CONTINUOUS
370
    -3
390
F
  0
ENDTAB
  0
TABLE
  2
STYLE
  5
3
330
0
100
AcDbSymbolTable
 70
     1
  0
STYLE
  5
25
330
3
100
AcDbSymbolTableRecord
100
AcDbTextStyleTableRecord
  2
STANDARD
 70
     0
 40
0.0
 41
1.0
 50
0.0
 71
     0
 42
0.15
  3
ROMANS.SHX
  4

  0
ENDTAB
  0
TABLE
  2
VIEW
  5
6
330
0
100
AcDbSymbolTable
 70
     1
  0
VIEW
  5
24
330
6
100
AcDbSymbolTableRecord
100
AcDbViewTableRecord
  2
1
 70
     0
 40
11.0
 10
7.225941000000001
 20
5.5
 41
14.451883
 11
0.0
 21
0.0
 31
1.0
 12
0.0
 22
0.0
 32
0.0
 42
50.0
 43
0.0
 44
0.0
 50
0.0
 71
     0
281
     0
 72
     0
  0
ENDTAB
  0
TABLE
  2
UCS
  5
7
330
0
100
AcDbSymbolTable
 70
     0
  0
ENDTAB
  0
TABLE
  2
APPID
  5
9
330
0
100
AcDbSymbolTable
 70
     1
  0
APPID
  5
23
330
9
100
AcDbSymbolTableRecord
100
AcDbRegAppTableRecord
  2
ACAD
 70
     0
  0
ENDTAB
  0
TABLE
  2
DIMSTYLE
  5
A
330
0
100
AcDbSymbolTable
 70
     1
100
AcDbDimStyleTable
  0
DIMSTYLE
105
26
330
A
100
AcDbSymbolTableRecord
100
AcDbDimStyleTableRecord
  2
Standard
 70
     0
  3

  4

340
25
  0
ENDTAB
  0
TABLE
  2
BLOCK_RECORD
  5
1
330
0
100
AcDbSymbolTable
 70
     3
  0
BLOCK_RECORD
  5
18
330
1
100
AcDbSymbolTableRecord
100
AcDbBlockTableRecord
  2
*Model_Space
340
19
  0
BLOCK_RECORD
  5
16
330
1
100
AcDbSymbolTableRecord
100
AcDbBlockTableRecord
  2
*Paper_Space
340
17
  0
BLOCK_RECORD
  5
1B
330
1
100
AcDbSymbolTableRecord
100
AcDbBlockTableRecord
  2
ACAD177B
340
0
  0
BLOCK_RECORD
  5
1C
330
1
100
AcDbSymbolTableRecord
100
AcDbBlockTableRecord
  2
ACAD2824
340
0
  0
BLOCK_RECORD
  5
1D
330
1
100
AcDbSymbolTableRecord
100
AcDbBlockTableRecord
  2
ACAD0049
340
0
  0
ENDTAB
  0
ENDSEC
  0
SECTION
  2
BLOCKS
  0
BLOCK
  5
742
330
18
100
AcDbEntity
  8
0
100
AcDbBlockBegin
  2
*Model_Space
 70
     0
 10
0.0
 20
0.0
 30
0.0
  3
*Model_Space
  1

  4

  0
ENDBLK
  5
743
330
18
100
AcDbEntity
  8
0
100
AcDbBlockEnd
  0
BLOCK
  5
740
330
16
100
AcDbEntity
 67
     1
  8
0
100
AcDbBlockBegin
  2
*Paper_Space
 70
     0
 10
0.0
 20
0.0
 30
0.0
  3
*Paper_Space
  1

  4

  0
ENDBLK
  5
741
330
16
100
AcDbEntity
 67
     1
  8
0
100
AcDbBlockEnd
  0
BLOCK
  5
1DE
330
1B
100
AcDbEntity
  8
0
100
AcDbBlockBegin
  2
ACAD177B
 70
     0
 10
0.0
 20
0.0
 30
0.0
  3
ACAD177B
  1

  4

  0
LWPOLYLINE
  5
28
330
1B
100
AcDbEntity
  8
0
  6
HIDDEN
100
AcDbPolyline
 90
        2
 70
     0
 43
0.0
 10
3.14485734656758
 20
5.046294839855525
 10
3.21761634656758
 20
5.124663839855526
  0
LWPOLYLINE
  5
2D
330
1B
100
AcDbEntity
  8
0
  6
HIDDEN
100
AcDbPolyline
 90
        2
 70
     0
 43
0.0
 10
3.21211034656758
 20
5.249766839855525
 10
3.142330346567579
 20
5.177415839855525
  0
LWPOLYLINE
  5
32
330
1B
100
AcDbEntity
  8
0
  6
HIDDEN
100
AcDbPolyline
 90
        8
 70
     0
 43
0.0
 10
3.338513014963593
 20
4.68741344516401
 10
3.20219434656758
 20
4.726203839855526
 10
3.101603346567581
 20
4.848923839855525
 10
3.101603346567581
 20
5.221310839855526
 10
3.17491334656758
 20
5.289657839855526
 10
3.303033346567581
 20
5.23705640735388
 10
3.303033346567581
 20
4.912789839855526
 10
3.38374334656758
 20
4.887002839855525
  0
LINE
  5
3D
330
1B
100
AcDbEntity
  8
0
 62
     0
100
AcDbLine
 10
3.068523
 20
5.29448
 30
0.0
 11
3.098409
 21
5.291865000000001
 31
0.0
  0
LWPOLYLINE
  5
3E
330
1B
100
AcDbEntity
  8
0
100
AcDbPolyline
 90
       10
 70
     0
 43
0.0
 10
3.478267750049187
 20
4.854112429499127
 10
3.39377334656758
 20
4.815333839855525
 10
3.38374334656758
 20
4.820298839855525
 10
3.38374334656758
 20
5.134337839855525
 10
3.476520346567581
 20
5.212283839855525
 10
3.591772346567581
 20
5.179214839855526
 10
3.658250346567581
 20
5.091313839855525
 10
3.658250346567581
 20
4.694005839855526
 10
3.56192134656758
 20
4.623840839855525
 10
3.338513053134961
 20
4.687413497554222
  0
LWPOLYLINE
  5
4B
330
1B
100
AcDbEntity
  8
0
100
AcDbPolyline
 90
        2
 70
     0
 43
0.0
 10
3.476520346567581
 20
5.212283839855525
 10
3.477575346567581
 20
5.199778839855526
  0
LWPOLYLINE
  5
50
330
1B
100
AcDbEntity
  8
0
100
AcDbPolyline
 90
        2
 70
     0
 43
0.0
 10
3.658250346567581
 20
5.091313839855525
 10
3.647275346567581
 20
5.082260839855525
  0
LWPOLYLINE
  5
55
330
1B
100
AcDbEntity
  8
0
100
AcDbPolyline
 90
        7
 70
     0
 43
0.0
 10
3.47196334656758
 20
4.851407839855526
 10
3.39377334656758
 20
4.815333839855525
 10
3.39377334656758
 20
5.129372839855526
 10
3.477575346567581
 20
5.199778839855526
 10
3.580797346567581
 20
5.170161839855526
 10
3.647275346567581
 20
5.082260839855525
 10
3.647275346567581
 20
4.684952839855526
  0
CIRCLE
  5
5F
330
1B
100
AcDbEntity
  8
0
  6
HIDDEN
100
AcDbCircle
 10
3.28879534656758
 20
4.847671839855526
 30
0.0
 40
0.007996
  0
LINE
  5
60
330
1B
100
AcDbEntity
  8
0
  6
HIDDEN
100
AcDbLine
 10
3.521000346567581
 20
4.854607839855525
 30
0.0
 11
3.62725234656758
 21
4.817995839855525
 31
0.0
  0
CIRCLE
  5
61
330
1B
100
AcDbEntity
  8
0
  6
HIDDEN
100
AcDbCircle
 10
3.240079346567581
 20
4.764393839855526
 30
0.0
 40
0.007996
  0
CIRCLE
  5
62
330
1B
100
AcDbEntity
  8
0
  6
HIDDEN
100
AcDbCircle
 10
3.363417346567581
 20
4.710832839855526
 30
0.0
 40
0.007996
  0
CIRCLE
  5
63
330
1B
100
AcDbEntity
  8
0
  6
HIDDEN
100
AcDbCircle
 10
3.371136346567581
 20
4.782935839855526
 30
0.0
 40
0.007996
  0
LWPOLYLINE
  5
64
330
1B
100
AcDbEntity
  8
0
100
AcDbPolyline
 90
        2
 70
     0
 43
0.0
 10
3.524698524297436
 20
4.680448978997706
 42
0.0812356170998628
 10
3.527699113720352
 20
4.671526143112507
 42
0.0812356170998628
  0
ARC
  5
69
330
1B
100
AcDbEntity
  8
0
100
AcDbCircle
 10
3.54101334656758
 20
4.676722839855525
 30
0.0
 40
0.024043
100
AcDbArc
 50
348.81966
 51
9.298347999999999
  0
ARC
  5
6A
330
1B
100
AcDbEntity
  8
0
100
AcDbCircle
 10
3.54995134656758
 20
4.681449839855525
 30
0.0
 40
0.024043
100
AcDbArc
 50
226.452425
 51
246.931113
  0
ARC
  5
6B
330
1B
100
AcDbEntity
  8
0
100
AcDbCircle
 10
3.55347734656758
 20
4.685160839855525
 30
0.0
 40
0.029162
100
AcDbArc
 50
207.875387
 51
226.452425
  0
ARC
  5
6C
330
1B
100
AcDbEntity
  8
0
100
AcDbCircle
 10
3.54491234656758
 20
4.675952839855525
 30
0.0
 40
0.020069
100
AcDbArc
 50
324.919477
 51
348.81966
  0
ARC
  5
6D
330
1B
100
AcDbEntity
  8
0
100
AcDbCircle
 10
3.548456346567581
 20
4.673463839855526
 30
0.0
 40
0.015738
100
AcDbArc
 50
297.875387
 51
324.919477
  0
ARC
  5
6E
330
1B
100
AcDbEntity
  8
0
100
AcDbCircle
 10
3.548456346567581
 20
4.673463839855526
 30
0.0
 40
0.015738
100
AcDbArc
 50
270.831296
 51
297.875387
  0
ARC
  5
6F
330
1B
100
AcDbEntity
  8
0
100
AcDbCircle
 10
3.54839334656758
 20
4.677793839855525
 30
0.0
 40
0.020069
100
AcDbArc
 50
246.931113
 51
270.831296
  0
POLYLINE
  5
70
330
1B
100
AcDbEntity
  8
0
100
AcDb2dPolyline
 66
     1
 10
0.0
 20
0.0
 30
0.0
 70
     5
 75
     6
  0
VERTEX
  5
71
330
70
100
AcDbEntity
  8
0
100
AcDbVertex
100
AcDb2dVertex
 10
3.516691618874657
 20
4.822143754429706
 30
0.0
 70
    16
  0
VERTEX
  5
72
330
70
100
AcDbEntity
  8
0
100
AcDbVertex
100
AcDb2dVertex
 10
3.521578721561664
 20
4.822063361909293
 30
0.0
 70
     8
  0
VERTEX
  5
73
330
70
100
AcDbEntity
  8
0
100
AcDbVertex
100
AcDb2dVertex
 10
3.522207364024001
 20
4.821993452118941
 30
0.0
 70
     8
  0
VERTEX
  5
74
330
70
100
AcDbEntity
  8
0
100
AcDbVertex
100
AcDb2dVertex
 10
3.522840720127348
 20
4.821903523308732
 30
0.0
 70
     8
  0
VERTEX
  5
75
330
70
100
AcDbEntity
  8
0
100
AcDbVertex
100
AcDb2dVertex
 10
3.523477847172841
 20
4.821792397866139
 30
0.0
 70
     8
  0
VERTEX
  5
76
330
70
100
AcDbEntity
  8
0
100
AcDbVertex
100
AcDb2dVertex
 10
3.524117802461616
 20
4.821658898178638
 30
0.0
 70
     8
  0
VERTEX
  5
77
330
70
100
AcDbEntity
  8
0
100
AcDbVertex
100
AcDb2dVertex
 10
3.52475964329481
 20
4.8215018466337
 30
0.0
 70
     8
  0
VERTEX
  5
78
330
70
100
AcDbEntity
  8
0
100
AcDbVertex
100
AcDb2dVertex
 10
3.525402426973557
 20
4.821320065618798
 30
0.0
 70
     8
  0
VERTEX
  5
79
330
70
100
AcDbEntity
  8
0
100
AcDbVertex
100
AcDb2dVertex
 10
3.526045210798993
 20
4.821112377521407
 30
0.0
 70
     8
  0
VERTEX
  5
7A
330
70
100
AcDbEntity
  8
0
100
AcDbVertex
100
AcDb2dVertex
 10
3.526687052072254
 20
4.820877604729001
 30
0.0
 70
     8
  0
VERTEX
  5
7B
330
70
100
AcDbEntity
  8
0
100
AcDbVertex
100
AcDb2dVertex
 10
3.527327047358316
 20
4.820614962158371
 30
0.0
 70
     8
  0
VERTEX
  5
7C
330
70
100
AcDbEntity
  8
0
100
AcDbVertex
100
AcDb2dVertex
 10
3.527964450277509
 20
4.820325234843589
 30
0.0
 70
     8
  0
VERTEX
  5
7D
330
70
100
AcDbEntity
  8
0
100
AcDbVertex
100
AcDb2dVertex
 10
3.528598553714004
 20
4.820009600348042
 30
0.0
 70
     8
  0
VERTEX
  5
7E
330
70
100
AcDbEntity
  8
0
100
AcDbVertex
100
AcDb2dVertex
 10
3.529228650551973
 20
4.819669236235123
 30
0.0
 70
     8
  0
VERTEX
  5
7F
330
70
100
AcDbEntity
  8
0
100
AcDbVertex
100
AcDb2dVertex
 10
3.529854033675588
 20
4.81930532006822
 30
0.0
 70
     8
  0
VERTEX
  5
80
330
70
100
AcDbEntity
  8
0
100
AcDbVertex
100
AcDb2dVertex
 10
3.530473995969017
 20
4.818919029410723
 30
0.0
 70
     8
  0
VERTEX
  5
81
330
70
100
AcDbEntity
  8
0
100
AcDbVertex
100
AcDb2dVertex
 10
3.531087830316433
 20
4.818511541826022
 30
0.0
 70
     8
  0
VERTEX
  5
82
330
70
100
AcDbEntity
  8
0
100
AcDbVertex
100
AcDb2dVertex
 10
3.531694829602007
 20
4.818084034877507
 30
0.0
 70
     8
  0
VERTEX
  5
83
330
70
100
AcDbEntity
  8
0
100
AcDbVertex
100
AcDb2dVertex
 10
3.532294208170006
 20
4.817637686144946
 30
0.0
 70
     8
  0
VERTEX
  5
84
330
70
100
AcDbEntity
  8
0
100
AcDbVertex
100
AcDb2dVertex
 10
3.53288486620509
 20
4.817173673273623
 30
0.0
 70
     8
  0
VERTEX
  5
85
330
70
100
AcDbEntity
  8
0
100
AcDbVertex
100
AcDb2dVertex
 10
3.533465625352013
 20
4.816693173925203
 30
0.0
 70
     8
  0
VERTEX
  5
86
330
70
100
AcDbEntity
  8
0
100
AcDbVertex
100
AcDb2dVertex
 10
3.534035307255533
 20
4.816197365761348
 30
0.0
 70
     8
  0
VERTEX
  5
87
330
70
100
AcDbEntity
  8
0
100
AcDbVertex
100
AcDb2dVertex
 10
3.534592733560404
 20
4.815687426443723
 30
0.0
 70
     8
  0
VERTEX
  5
88
330
70
100
AcDbEntity
  8
0
100
AcDbVertex
100
AcDb2dVertex
 10
3.535136725911383
 20
4.815164533633988
 30
0.0
 70
     8
  0
VERTEX
  5
89
330
70
100
AcDbEntity
  8
0
100
AcDbVertex
100
AcDb2dVertex
 10
3.535666105953225
 20
4.814629864993809
 30
0.0
 70
     8
  0
VERTEX
  5
8A
330
70
100
AcDbEntity
  8
0
100
AcDbVertex
100
AcDb2dVertex
 10
3.536179695330686
 20
4.81408459818485
 30
0.0
 70
     8
  0
VERTEX
  5
8B
330
70
100
AcDbEntity
  8
0
100
AcDbVertex
100
AcDb2dVertex
 10
3.536676590645413
 20
4.813529439818848
 30
0.0
 70
     8
  0
VERTEX
  5
8C
330
70
100
AcDbEntity
  8
0
100
AcDbVertex
100
AcDb2dVertex
 10
3.53715698832662
 20
4.812963212307845
 30
0.0
 70
     8
  0
VERTEX
  5
8D
330
70
100
AcDbEntity
  8
0
100
AcDbVertex
100
AcDb2dVertex
 10
3.537621359760411
 20
4.812384267013959
 30
0.0
 70
     8
  0
VERTEX
  5
8E
330
70
100
AcDbEntity
  8
0
100
AcDbVertex
100
AcDb2dVertex
 10
3.538070176332889
 20
4.811790955299309
 30
0.0
 70
     8
  0
VERTEX
  5
8F
330
70
100
AcDbEntity
  8
0
100
AcDbVertex
100
AcDb2dVertex
 10
3.538503909430161
 20
4.81118162852601
 30
0.0
 70
     8
  0
VERTEX
  5
90
330
70
100
AcDbEntity
  8
0
100
AcDbVertex
100
AcDb2dVertex
 10
3.53892303043833
 20
4.810554638056182
 30
0.0
 70
     8
  0
VERTEX
  5
91
330
70
100
AcDbEntity
  8
0
100
AcDbVertex
100
AcDb2dVertex
 10
3.539328010743501
 20
4.809908335251941
 30
0.0
 70
     8
  0
VERTEX
  5
92
330
70
100
AcDbEntity
  8
0
100
AcDbVertex
100
AcDb2dVertex
 10
3.539719321731778
 20
4.809241071475405
 30
0.0
 70
     8
  0
VERTEX
  5
93
330
70
100
AcDbEntity
  8
0
100
AcDbVertex
100
AcDb2dVertex
 10
3.540097120531862
 20
4.808552022391254
 30
0.0
 70
     8
  0
VERTEX
  5
94
330
70
100
AcDbEntity
  8
0
100
AcDbVertex
100
AcDb2dVertex
 10
3.540460307242844
 20
4.807843660874417
 30
0.0
 70
     8
  0
VERTEX
  5
95
330
70
100
AcDbEntity
  8
0
100
AcDbVertex
100
AcDb2dVertex
 10
3.54080746770641
 20
4.807119284102384
 30
0.0
 70
     8
  0
VERTEX
  5
96
330
70
100
AcDbEntity
  8
0
100
AcDbVertex
100
AcDb2dVertex
 10
3.541137187764246
 20
4.806382189252649
 30
0.0
 70
     8
  0
VERTEX
  5
97
330
70
100
AcDbEntity
  8
0
100
AcDbVertex
100
AcDb2dVertex
 10
3.541448053258039
 20
4.8056356735027
 30
0.0
 70
     8
  0
VERTEX
  5
98
330
70
100
AcDbEntity
  8
0
100
AcDbVertex
100
AcDb2dVertex
 10
3.541738650029475
 20
4.804883034030032
 30
0.0
 70
     8
  0
VERTEX
  5
99
330
70
100
AcDbEntity
  8
0
100
AcDbVertex
100
AcDb2dVertex
 10
3.542007563920242
 20
4.804127568012133
 30
0.0
 70
     8
  0
VERTEX
  5
9A
330
70
100
AcDbEntity
  8
0
100
AcDbVertex
100
AcDb2dVertex
 10
3.542253380772026
 20
4.803372572626495
 30
0.0
 70
     8
  0
VERTEX
  5
9B
330
70
100
AcDbEntity
  8
0
100
AcDbVertex
100
AcDb2dVertex
 10
3.542474961407853
 20
4.802620520764427
 30
0.0
 70
     8
  0
VERTEX
  5
9C
330
70
100
AcDbEntity
  8
0
100
AcDbVertex
100
AcDb2dVertex
 10
3.542672266576107
 20
4.801870588172503
 30
0.0
 70
     8
  0
VERTEX
  5
9D
330
70
100
AcDbEntity
  8
0
100
AcDbVertex
100
AcDb2dVertex
 10
3.542845532006514
 20
4.801121126311114
 30
0.0
 70
     8
  0
VERTEX
  5
9E
330
70
100
AcDbEntity
  8
0
100
AcDbVertex
100
AcDb2dVertex
 10
3.542994993428798
 20
4.800370486640651
 30
0.0
 70
     8
  0
VERTEX
  5
9F
330
70
100
AcDbEntity
  8
0
100
AcDbVertex
100
AcDb2dVertex
 10
3.543120886572684
 20
4.799617020621506
 30
0.0
 70
     8
  0
VERTEX
  5
A0
330
70
100
AcDbEntity
  8
0
100
AcDbVertex
100
AcDb2dVertex
 10
3.543223447167895
 20
4.798859079714069
 30
0.0
 70
     8
  0
VERTEX
  5
A1
330
70
100
AcDbEntity
  8
0
100
AcDbVertex
100
AcDb2dVertex
 10
3.543302910944158
 20
4.798095015378733
 30
0.0
 70
     8
  0
VERTEX
  5
A2
330
70
100
AcDbEntity
  8
0
100
AcDbVertex
100
AcDb2dVertex
 10
3.543359513631196
 20
4.797323179075886
 30
0.0
 70
     8
  0
VERTEX
  5
A3
330
70
100
AcDbEntity
  8
0
100
AcDbVertex
100
AcDb2dVertex
 10
3.543393255265681
 20
4.796542393283089
 30
0.0
 70
     8
  0
VERTEX
  5
A4
330
70
100
AcDbEntity
  8
0
100
AcDbVertex
100
AcDb2dVertex
 10
3.543403193112078
 20
4.795753364546563
 30
0.0
 70
     8
  0
VERTEX
  5
A5
330
70
100
AcDbEntity
  8
0
100
AcDbVertex
100
AcDb2dVertex
 10
3.543388148741796
 20
4.794957270429699
 30
0.0
 70
     8
  0
VERTEX
  5
A6
330
70
100
AcDbEntity
  8
0
100
AcDbVertex
100
AcDb2dVertex
 10
3.543346943726248
 20
4.794155288495887
 30
0.0
 70
     8
  0
VERTEX
  5
A7
330
70
100
AcDbEntity
  8
0
100
AcDbVertex
100
AcDb2dVertex
 10
3.543278399636844
 20
4.793348596308515
 30
0.0
 70
     8
  0
VERTEX
  5
A8
330
70
100
AcDbEntity
  8
0
100
AcDbVertex
100
AcDb2dVertex
 10
3.543181338044996
 20
4.792538371430974
 30
0.0
 70
     8
  0
VERTEX
  5
A9
330
70
100
AcDbEntity
  8
0
100
AcDbVertex
100
AcDb2dVertex
 10
3.543054580522115
 20
4.791725791426653
 30
0.0
 70
     8
  0
VERTEX
  5
AA
330
70
100
AcDbEntity
  8
0
100
AcDbVertex
100
AcDb2dVertex
 10
3.542896948639612
 20
4.790912033858943
 30
0.0
 70
     8
  0
VERTEX
  5
AB
330
70
100
AcDbEntity
  8
0
100
AcDbVertex
100
AcDb2dVertex
 10
3.542707460373662
 20
4.790098668828741
 30
0.0
 70
     8
  0
VERTEX
  5
AC
330
70
100
AcDbEntity
  8
0
100
AcDbVertex
100
AcDb2dVertex
 10
3.542485919319501
 20
4.789288836586983
 30
0.0
 70
     8
  0
VERTEX
  5
AD
330
70
100
AcDbEntity
  8
0
100
AcDbVertex
100
AcDb2dVertex
 10
3.54223232547713
 20
4.78848606992211
 30
0.0
 70
     8
  0
VERTEX
  5
AE
330
70
100
AcDbEntity
  8
0
100
AcDbVertex
100
AcDb2dVertex
 10
3.541946678846547
 20
4.787693901622565
 30
0.0
 70
     8
  0
VERTEX
  5
AF
330
70
100
AcDbEntity
  8
0
100
AcDbVertex
100
AcDb2dVertex
 10
3.541628979427754
 20
4.786915864476792
 30
0.0
 70
     8
  0
VERTEX
  5
B0
330
70
100
AcDbEntity
  8
0
100
AcDbVertex
100
AcDb2dVertex
 10
3.54127922722075
 20
4.786155491273233
 30
0.0
 70
     8
  0
VERTEX
  5
B1
330
70
100
AcDbEntity
  8
0
100
AcDbVertex
100
AcDb2dVertex
 10
3.540897422225534
 20
4.78541631480033
 30
0.0
 70
     8
  0
VERTEX
  5
B2
330
70
100
AcDbEntity
  8
0
100
AcDbVertex
100
AcDb2dVertex
 10
3.540483564442108
 20
4.784701867846528
 30
0.0
 70
     8
  0
VERTEX
  5
B3
330
70
100
AcDbEntity
  8
0
100
AcDbVertex
100
AcDb2dVertex
 10
3.540038360912955
 20
4.784015369175174
 30
0.0
 70
     8
  0
VERTEX
  5
B4
330
70
100
AcDbEntity
  8
0
100
AcDbVertex
100
AcDb2dVertex
 10
3.539565346850498
 20
4.783358781449246
 30
0.0
 70
     8
  0
VERTEX
  5
B5
330
70
100
AcDbEntity
  8
0
100
AcDbVertex
100
AcDb2dVertex
 10
3.539068764509642
 20
4.782733753306625
 30
0.0
 70
     8
  0
VERTEX
  5
B6
330
70
100
AcDbEntity
  8
0
100
AcDbVertex
100
AcDb2dVertex
 10
3.538552856145294
 20
4.782141933385194
 30
0.0
 70
     8
  0
VERTEX
  5
B7
330
70
100
AcDbEntity
  8
0
100
AcDbVertex
100
AcDb2dVertex
 10
3.53802186401236
 20
4.781584970322836
 30
0.0
 70
     8
  0
VERTEX
  5
B8
330
70
100
AcDbEntity
  8
0
100
AcDbVertex
100
AcDb2dVertex
 10
3.537480030365746
 20
4.781064512757433
 30
0.0
 70
     8
  0
VERTEX
  5
B9
330
70
100
AcDbEntity
  8
0
100
AcDbVertex
100
AcDb2dVertex
 10
3.53693159746036
 20
4.780582209326866
 30
0.0
 70
     8
  0
VERTEX
  5
BA
330
70
100
AcDbEntity
  8
0
100
AcDbVertex
100
AcDb2dVertex
 10
3.536380807551106
 20
4.780139708669019
 30
0.0
 70
     8
  0
VERTEX
  5
BB
330
70
100
AcDbEntity
  8
0
100
AcDbVertex
100
AcDb2dVertex
 10
3.535831156586568
 20
4.779737913607058
 30
0.0
 70
     8
  0
VERTEX
  5
BC
330
70
100
AcDbEntity
  8
0
100
AcDbVertex
100
AcDb2dVertex
 10
3.535283155290034
 20
4.779374743705292
 30
0.0
 70
     8
  0
VERTEX
  5
BD
330
70
100
AcDbEntity
  8
0
100
AcDbVertex
100
AcDb2dVertex
 10
3.534736568078468
 20
4.779047372713309
 30
0.0
 70
     8
  0
VERTEX
  5
BE
330
70
100
AcDbEntity
  8
0
100
AcDbVertex
100
AcDb2dVertex
 10
3.534191159368836
 20
4.778752974380701
 30
0.0
 70
     8
  0
VERTEX
  5
BF
330
70
100
AcDbEntity
  8
0
100
AcDbVertex
100
AcDb2dVertex
 10
3.533646693578103
 20
4.77848872245706
 30
0.0
 70
     8
  0
VERTEX
  5
C0
330
70
100
AcDbEntity
  8
0
100
AcDbVertex
100
AcDb2dVertex
 10
3.533102935123232
 20
4.778251790691975
 30
0.0
 70
     8
  0
VERTEX
  5
C1
330
70
100
AcDbEntity
  8
0
100
AcDbVertex
100
AcDb2dVertex
 10
3.53255964842119
 20
4.778039352835039
 30
0.0
 70
     8
  0
VERTEX
  5
C2
330
70
100
AcDbEntity
  8
0
100
AcDbVertex
100
AcDb2dVertex
 10
3.532016597888939
 20
4.777848582635842
 30
0.0
 70
     8
  0
VERTEX
  5
C3
330
70
100
AcDbEntity
  8
0
100
AcDbVertex
100
AcDb2dVertex
 10
3.531473272949882
 20
4.777677164137824
 30
0.0
 70
     8
  0
VERTEX
  5
C4
330
70
100
AcDbEntity
  8
0
100
AcDbVertex
100
AcDb2dVertex
 10
3.530928063053164
 20
4.777524822559813
 30
0.0
 70
     8
  0
VERTEX
  5
C5
330
70
100
AcDbEntity
  8
0
100
AcDbVertex
100
AcDb2dVertex
 10
3.530379082654369
 20
4.777391793414489
 30
0.0
 70
     8
  0
VERTEX
  5
C6
330
70
100
AcDbEntity
  8
0
100
AcDbVertex
100
AcDb2dVertex
 10
3.529824446209076
 20
4.777278312214528
 30
0.0
 70
     8
  0
VERTEX
  5
C7
330
70
100
AcDbEntity
  8
0
100
AcDbVertex
100
AcDb2dVertex
 10
3.529262268172869
 20
4.77718461447261
 30
0.0
 70
     8
  0
VERTEX
  5
C8
330
70
100
AcDbEntity
  8
0
100
AcDbVertex
100
AcDb2dVertex
 10
3.52869066300133
 20
4.777110935701411
 30
0.0
 70
     8
  0
VERTEX
  5
C9
330
70
100
AcDbEntity
  8
0
100
AcDbVertex
100
AcDb2dVertex
 10
3.528107745150042
 20
4.777057511413611
 30
0.0
 70
     8
  0
VERTEX
  5
CA
330
70
100
AcDbEntity
  8
0
100
AcDbVertex
100
AcDb2dVertex
 10
3.527511629074585
 20
4.777024577121886
 30
0.0
 70
     8
  0
VERTEX
  5
CB
330
70
100
AcDbEntity
  8
0
100
AcDbVertex
100
AcDb2dVertex
 10
3.526901254125665
 20
4.777012329094992
 30
0.0
 70
     8
  0
VERTEX
  5
CC
330
70
100
AcDbEntity
  8
0
100
AcDbVertex
100
AcDb2dVertex
 10
3.526278859234476
 20
4.777020806625989
 30
0.0
 70
     8
  0
VERTEX
  5
CD
330
70
100
AcDbEntity
  8
0
100
AcDbVertex
100
AcDb2dVertex
 10
3.525647508227336
 20
4.777050009764013
 30
0.0
 70
     8
  0
VERTEX
  5
CE
330
70
100
AcDbEntity
  8
0
100
AcDbVertex
100
AcDb2dVertex
 10
3.525010264930563
 20
4.777099938558201
 30
0.0
 70
     8
  0
VERTEX
  5
CF
330
70
100
AcDbEntity
  8
0
100
AcDbVertex
100
AcDb2dVertex
 10
3.524370193170474
 20
4.77717059305769
 30
0.0
 70
     8
  0
VERTEX
  5
D0
330
70
100
AcDbEntity
  8
0
100
AcDbVertex
100
AcDb2dVertex
 10
3.523730356773386
 20
4.777261973311616
 30
0.0
 70
     8
  0
VERTEX
  5
D1
330
70
100
AcDbEntity
  8
0
100
AcDbVertex
100
AcDb2dVertex
 10
3.523093819565617
 20
4.777374079369118
 30
0.0
 70
     8
  0
VERTEX
  5
D2
330
70
100
AcDbEntity
  8
0
100
AcDbVertex
100
AcDb2dVertex
 10
3.522463645373483
 20
4.777506911279332
 30
0.0
 70
     8
  0
VERTEX
  5
D3
330
70
100
AcDbEntity
  8
0
100
AcDbVertex
100
AcDb2dVertex
 10
3.521842112440917
 20
4.77766054758743
 30
0.0
 70
     8
  0
VERTEX
  5
D4
330
70
100
AcDbEntity
  8
0
100
AcDbVertex
100
AcDb2dVertex
 10
3.5212283566823
 20
4.777835380822731
 30
0.0
 70
     8
  0
VERTEX
  5
D5
330
70
100
AcDbEntity
  8
0
100
AcDbVertex
100
AcDb2dVertex
 10
3.520620728429628
 20
4.778031882010594
 30
0.0
 70
     8
  0
VERTEX
  5
D6
330
70
100
AcDbEntity
  8
0
100
AcDbVertex
100
AcDb2dVertex
 10
3.520017578014898
 20
4.778250522176371
 30
0.0
 70
     8
  0
VERTEX
  5
D7
330
70
100
AcDbEntity
  8
0
100
AcDbVertex
100
AcDb2dVertex
 10
3.519417255770106
 20
4.778491772345421
 30
0.0
 70
     8
  0
VERTEX
  5
D8
330
70
100
AcDbEntity
  8
0
100
AcDbVertex
100
AcDb2dVertex
 10
3.518818112027247
 20
4.778756103543098
 30
0.0
 70
     8
  0
VERTEX
  5
D9
330
70
100
AcDbEntity
  8
0
100
AcDbVertex
100
AcDb2dVertex
 10
3.518218497118318
 20
4.779043986794759
 30
0.0
 70
     8
  0
VERTEX
  5
DA
330
70
100
AcDbEntity
  8
0
100
AcDbVertex
100
AcDb2dVertex
 10
3.517616761375314
 20
4.77935589312576
 30
0.0
 70
     8
  0
VERTEX
  5
DB
330
70
100
AcDbEntity
  8
0
100
AcDbVertex
100
AcDb2dVertex
 10
3.517012040700394
 20
4.779691822519721
 30
0.0
 70
     8
  0
VERTEX
  5
DC
330
70
100
AcDbEntity
  8
0
100
AcDbVertex
100
AcDb2dVertex
 10
3.516406613276369
 20
4.780049890793324
 30
0.0
 70
     8
  0
VERTEX
  5
DD
330
70
100
AcDbEntity
  8
0
100
AcDbVertex
100
AcDb2dVertex
 10
3.51580354285621
 20
4.780427742721517
 30
0.0
 70
     8
  0
VERTEX
  5
DE
330
70
100
AcDbEntity
  8
0
100
AcDbVertex
100
AcDb2dVertex
 10
3.515205893192892
 20
4.780823023079246
 30
0.0
 70
     8
  0
VERTEX
  5
DF
330
70
100
AcDbEntity
  8
0
100
AcDbVertex
100
AcDb2dVertex
 10
3.514616728039386
 20
4.781233376641457
 30
0.0
 70
     8
  0
VERTEX
  5
E0
330
70
100
AcDbEntity
  8
0
100
AcDbVertex
100
AcDb2dVertex
 10
3.514039111148665
 20
4.781656448183099
 30
0.0
 70
     8
  0
VERTEX
  5
E1
330
70
100
AcDbEntity
  8
0
100
AcDbVertex
100
AcDb2dVertex
 10
3.513476106273703
 20
4.782089882479118
 30
0.0
 70
     8
  0
VERTEX
  5
E2
330
70
100
AcDbEntity
  8
0
100
AcDbVertex
100
AcDb2dVertex
 10
3.51293077716747
 20
4.782531324304461
 30
0.0
 70
     8
  0
VERTEX
  5
E3
330
70
100
AcDbEntity
  8
0
100
AcDbVertex
100
AcDb2dVertex
 10
3.51240548057713
 20
4.782978889483999
 30
0.0
 70
     8
  0
VERTEX
  5
E4
330
70
100
AcDbEntity
  8
0
100
AcDbVertex
100
AcDb2dVertex
 10
3.511899745226594
 20
4.7834325780423
 30
0.0
 70
     8
  0
VERTEX
  5
E5
330
70
100
AcDbEntity
  8
0
100
AcDbVertex
100
AcDb2dVertex
 10
3.511412392833962
 20
4.783892861053857
 30
0.0
 70
     8
  0
VERTEX
  5
E6
330
70
100
AcDbEntity
  8
0
100
AcDbVertex
100
AcDb2dVertex
 10
3.510942245117336
 20
4.784360209593164
 30
0.0
 70
     8
  0
VERTEX
  5
E7
330
70
100
AcDbEntity
  8
0
100
AcDbVertex
100
AcDb2dVertex
 10
3.510488123794815
 20
4.784835094734712
 30
0.0
 70
     8
  0
VERTEX
  5
E8
330
70
100
AcDbEntity
  8
0
100
AcDbVertex
100
AcDb2dVertex
 10
3.5100488505845
 20
4.785317987552993
 30
0.0
 70
     8
  0
VERTEX
  5
E9
330
70
100
AcDbEntity
  8
0
100
AcDbVertex
100
AcDb2dVertex
 10
3.509623247204491
 20
4.785809359122503
 30
0.0
 70
     8
  0
VERTEX
  5
EA
330
70
100
AcDbEntity
  8
0
100
AcDbVertex
100
AcDb2dVertex
 10
3.509210135372889
 20
4.786309680517731
 30
0.0
 70
     8
  0
VERTEX
  5
EB
330
70
100
AcDbEntity
  8
0
100
AcDbVertex
100
AcDb2dVertex
 10
3.508808533175887
 20
4.786819540561321
 30
0.0
 70
     8
  0
VERTEX
  5
EC
330
70
100
AcDbEntity
  8
0
100
AcDbVertex
100
AcDb2dVertex
 10
3.508418244172048
 20
4.787339999068514
 30
0.0
 70
     8
  0
VERTEX
  5
ED
330
70
100
AcDbEntity
  8
0
100
AcDbVertex
100
AcDb2dVertex
 10
3.508039268288027
 20
4.787872233602698
 30
0.0
 70
     8
  0
VERTEX
  5
EE
330
70
100
AcDbEntity
  8
0
100
AcDbVertex
100
AcDb2dVertex
 10
3.507671605450478
 20
4.788417421727264
 30
0.0
 70
     8
  0
VERTEX
  5
EF
330
70
100
AcDbEntity
  8
0
100
AcDbVertex
100
AcDb2dVertex
 10
3.507315255586059
 20
4.788976741005601
 30
0.0
 70
     8
  0
VERTEX
  5
F0
330
70
100
AcDbEntity
  8
0
100
AcDbVertex
100
AcDb2dVertex
 10
3.506970218621424
 20
4.789551369001099
 30
0.0
 70
     8
  0
VERTEX
  5
F1
330
70
100
AcDbEntity
  8
0
100
AcDbVertex
100
AcDb2dVertex
 10
3.506636494483228
 20
4.790142483277148
 30
0.0
 70
     8
  0
VERTEX
  5
F2
330
70
100
AcDbEntity
  8
0
100
AcDbVertex
100
AcDb2dVertex
 10
3.506314083098127
 20
4.790751261397136
 30
0.0
 70
     8
  0
VERTEX
  5
F3
330
70
100
AcDbEntity
  8
0
100
AcDbVertex
100
AcDb2dVertex
 10
3.506003062957127
 20
4.791378449143024
 30
0.0
 70
     8
  0
VERTEX
  5
F4
330
70
100
AcDbEntity
  8
0
100
AcDbVertex
100
AcDb2dVertex
 10
3.505703826808636
 20
4.792023065171037
 30
0.0
 70
     8
  0
VERTEX
  5
F5
330
70
100
AcDbEntity
  8
0
100
AcDbVertex
100
AcDb2dVertex
 10
3.505416845965416
 20
4.792683696355971
 30
0.0
 70
     8
  0
VERTEX
  5
F6
330
70
100
AcDbEntity
  8
0
100
AcDbVertex
100
AcDb2dVertex
 10
3.505142591740225
 20
4.793358929572622
 30
0.0
 70
     8
  0
VERTEX
  5
F7
330
70
100
AcDbEntity
  8
0
100
AcDbVertex
100
AcDb2dVertex
 10
3.504881535445823
 20
4.794047351695785
 30
0.0
 70
     8
  0
VERTEX
  5
F8
330
70
100
AcDbEntity
  8
0
100
AcDbVertex
100
AcDb2dVertex
 10
3.50463414839497
 20
4.794747549600257
 30
0.0
 70
     8
  0
VERTEX
  5
F9
330
70
100
AcDbEntity
  8
0
100
AcDbVertex
100
AcDb2dVertex
 10
3.504400901900426
 20
4.795458110160832
 30
0.0
 70
     8
  0
VERTEX
  5
FA
330
70
100
AcDbEntity
  8
0
100
AcDbVertex
100
AcDb2dVertex
 10
3.504182267274951
 20
4.796177620252305
 30
0.0
 70
     8
  0
VERTEX
  5
FB
330
70
100
AcDbEntity
  8
0
100
AcDbVertex
100
AcDb2dVertex
 10
3.503978872984454
 20
4.796904706017965
 30
0.0
 70
     8
  0
VERTEX
  5
FC
330
70
100
AcDbEntity
  8
0
100
AcDbVertex
100
AcDb2dVertex
 10
3.503791976107444
 20
4.797638150675065
 30
0.0
 70
     8
  0
VERTEX
  5
FD
330
70
100
AcDbEntity
  8
0
100
AcDbVertex
100
AcDb2dVertex
 10
3.503622990875579
 20
4.798376776709355
 30
0.0
 70
     8
  0
VERTEX
  5
FE
330
70
100
AcDbEntity
  8
0
100
AcDbVertex
100
AcDb2dVertex
 10
3.503473331520516
 20
4.79911940660658
 30
0.0
 70
     8
  0
VERTEX
  5
FF
330
70
100
AcDbEntity
  8
0
100
AcDbVertex
100
AcDb2dVertex
 10
3.503344412273915
 20
4.799864862852488
 30
0.0
 70
     8
  0
VERTEX
  5
100
330
70
100
AcDbEntity
  8
0
100
AcDbVertex
100
AcDb2dVertex
 10
3.503237647367432
 20
4.800611967932825
 30
0.0
 70
     8
  0
VERTEX
  5
101
330
70
100
AcDbEntity
  8
0
100
AcDbVertex
100
AcDb2dVertex
 10
3.503154451032726
 20
4.801359544333339
 30
0.0
 70
     8
  0
VERTEX
  5
102
330
70
100
AcDbEntity
  8
0
100
AcDbVertex
100
AcDb2dVertex
 10
3.503096237501456
 20
4.802106414539776
 30
0.0
 70
     8
  0
VERTEX
  5
103
330
70
100
AcDbEntity
  8
0
100
AcDbVertex
100
AcDb2dVertex
 10
3.503063949594726
 20
4.802851126232147
 30
0.0
 70
     8
  0
VERTEX
  5
104
330
70
100
AcDbEntity
  8
0
100
AcDbVertex
100
AcDb2dVertex
 10
3.503056644491431
 20
4.803591127867505
 30
0.0
 70
     8
  0
VERTEX
  5
105
330
70
100
AcDbEntity
  8
0
100
AcDbVertex
100
AcDb2dVertex
 10
3.503072907959913
 20
4.804323593097169
 30
0.0
 70
     8
  0
VERTEX
  5
106
330
70
100
AcDbEntity
  8
0
100
AcDbVertex
100
AcDb2dVertex
 10
3.503111325768514
 20
4.805045695572456
 30
0.0
 70
     8
  0
VERTEX
  5
107
330
70
100
AcDbEntity
  8
0
100
AcDbVertex
100
AcDb2dVertex
 10
3.503170483685576
 20
4.805754608944684
 30
0.0
 70
     8
  0
VERTEX
  5
108
330
70
100
AcDbEntity
  8
0
100
AcDbVertex
100
AcDb2dVertex
 10
3.503248967479441
 20
4.80644750686517
 30
0.0
 70
     8
  0
VERTEX
  5
109
330
70
100
AcDbEntity
  8
0
100
AcDbVertex
100
AcDb2dVertex
 10
3.50334536291845
 20
4.80712156298523
 30
0.0
 70
     8
  0
VERTEX
  5
10A
330
70
100
AcDbEntity
  8
0
100
AcDbVertex
100
AcDb2dVertex
 10
3.503458255770946
 20
4.807773950956184
 30
0.0
 70
     8
  0
VERTEX
  5
10B
330
70
100
AcDbEntity
  8
0
100
AcDbVertex
100
AcDb2dVertex
 10
3.503586585363185
 20
4.808402865049802
 30
0.0
 70
     8
  0
VERTEX
  5
10C
330
70
100
AcDbEntity
  8
0
100
AcDbVertex
100
AcDb2dVertex
 10
3.503730705253082
 20
4.809010582019668
 30
0.0
 70
     8
  0
VERTEX
  5
10D
330
70
100
AcDbEntity
  8
0
100
AcDbVertex
100
AcDb2dVertex
 10
3.503891322556465
 20
4.80960039923982
 30
0.0
 70
     8
  0
VERTEX
  5
10E
330
70
100
AcDbEntity
  8
0
100
AcDbVertex
100
AcDb2dVertex
 10
3.504069144389165
 20
4.8101756140843
 30
0.0
 70
     8
  0
VERTEX
  5
10F
330
70
100
AcDbEntity
  8
0
100
AcDbVertex
100
AcDb2dVertex
 10
3.504264877867009
 20
4.810739523927142
 30
0.0
 70
     8
  0
VERTEX
  5
110
330
70
100
AcDbEntity
  8
0
100
AcDbVertex
100
AcDb2dVertex
 10
3.504479230105826
 20
4.811295426142388
 30
0.0
 70
     8
  0
VERTEX
  5
111
330
70
100
AcDbEntity
  8
0
100
AcDbVertex
100
AcDb2dVertex
 10
3.504712908221447
 20
4.811846618104075
 30
0.0
 70
     8
  0
VERTEX
  5
112
330
70
100
AcDbEntity
  8
0
100
AcDbVertex
100
AcDb2dVertex
 10
3.5049666193297
 20
4.812396397186241
 30
0.0
 70
     8
  0
VERTEX
  5
113
330
70
100
AcDbEntity
  8
0
100
AcDbVertex
100
AcDb2dVertex
 10
3.505240599172532
 20
4.812946961654625
 30
0.0
 70
     8
  0
VERTEX
  5
114
330
70
100
AcDbEntity
  8
0
100
AcDbVertex
100
AcDb2dVertex
 10
3.505533197996373
 20
4.813496113341761
 30
0.0
 70
     8
  0
VERTEX
  5
115
330
70
100
AcDbEntity
  8
0
100
AcDbVertex
100
AcDb2dVertex
 10
3.505842294673768
 20
4.814040554971886
 30
0.0
 70
     8
  0
VERTEX
  5
116
330
70
100
AcDbEntity
  8
0
100
AcDbVertex
100
AcDb2dVertex
 10
3.506165768077265
 20
4.814576989269234
 30
0.0
 70
     8
  0
VERTEX
  5
117
330
70
100
AcDbEntity
  8
0
100
AcDbVertex
100
AcDb2dVertex
 10
3.50650149707941
 20
4.81510211895804
 30
0.0
 70
     8
  0
VERTEX
  5
118
330
70
100
AcDbEntity
  8
0
100
AcDbVertex
100
AcDb2dVertex
 10
3.50684736055275
 20
4.815612646762541
 30
0.0
 70
     8
  0
VERTEX
  5
119
330
70
100
AcDbEntity
  8
0
100
AcDbVertex
100
AcDb2dVertex
 10
3.507201237369833
 20
4.81610527540697
 30
0.0
 70
     8
  0
VERTEX
  5
11A
330
70
100
AcDbEntity
  8
0
100
AcDbVertex
100
AcDb2dVertex
 10
3.507561006403204
 20
4.816576707615563
 30
0.0
 70
     8
  0
VERTEX
  5
11B
330
70
100
AcDbEntity
  8
0
100
AcDbVertex
100
AcDb2dVertex
 10
3.507925135715257
 20
4.817024352658778
 30
0.0
 70
     8
  0
VERTEX
  5
11C
330
70
100
AcDbEntity
  8
0
100
AcDbVertex
100
AcDb2dVertex
 10
3.50829445012777
 20
4.817448445991967
 30
0.0
 70
     8
  0
VERTEX
  5
11D
330
70
100
AcDbEntity
  8
0
100
AcDbVertex
100
AcDb2dVertex
 10
3.508670363652368
 20
4.817849929616705
 30
0.0
 70
     8
  0
VERTEX
  5
11E
330
70
100
AcDbEntity
  8
0
100
AcDbVertex
100
AcDb2dVertex
 10
3.509054290300673
 20
4.818229745534567
 30
0.0
 70
     8
  0
VERTEX
  5
11F
330
70
100
AcDbEntity
  8
0
100
AcDbVertex
100
AcDb2dVertex
 10
3.50944764408431
 20
4.818588835747129
 30
0.0
 70
     8
  0
VERTEX
  5
120
330
70
100
AcDbEntity
  8
0
100
AcDbVertex
100
AcDb2dVertex
 10
3.509851839014904
 20
4.818928142255963
 30
0.0
 70
     8
  0
VERTEX
  5
121
330
70
100
AcDbEntity
  8
0
100
AcDbVertex
100
AcDb2dVertex
 10
3.510268289104078
 20
4.819248607062647
 30
0.0
 70
     8
  0
VERTEX
  5
122
330
70
100
AcDbEntity
  8
0
100
AcDbVertex
100
AcDb2dVertex
 10
3.510698408363457
 20
4.819551172168755
 30
0.0
 70
     8
  0
VERTEX
  5
123
330
70
100
AcDbEntity
  8
0
100
AcDbVertex
100
AcDb2dVertex
 10
3.511142471701035
 20
4.819836583323486
 30
0.0
 70
     8
  0
VERTEX
  5
124
330
70
100
AcDbEntity
  8
0
100
AcDbVertex
100
AcDb2dVertex
 10
3.511596197610291
 20
4.820104801266538
 30
0.0
 70
     8
  0
VERTEX
  5
125
330
70
100
AcDbEntity
  8
0
100
AcDbVertex
100
AcDb2dVertex
 10
3.512054165481074
 20
4.820355590485233
 30
0.0
 70
     8
  0
VERTEX
  5
126
330
70
100
AcDbEntity
  8
0
100
AcDbVertex
100
AcDb2dVertex
 10
3.512510954703235
 20
4.820588715466894
 30
0.0
 70
     8
  0
VERTEX
  5
127
330
70
100
AcDbEntity
  8
0
100
AcDbVertex
100
AcDb2dVertex
 10
3.512961144666623
 20
4.820803940698841
 30
0.0
 70
     8
  0
VERTEX
  5
128
330
70
100
AcDbEntity
  8
0
100
AcDbVertex
100
AcDb2dVertex
 10
3.513399314761087
 20
4.821001030668398
 30
0.0
 70
     8
  0
VERTEX
  5
129
330
70
100
AcDbEntity
  8
0
100
AcDbVertex
100
AcDb2dVertex
 10
3.513820044376477
 20
4.821179749862886
 30
0.0
 70
     8
  0
VERTEX
  5
12A
330
70
100
AcDbEntity
  8
0
100
AcDbVertex
100
AcDb2dVertex
 10
3.514217912902641
 20
4.821339862769628
 30
0.0
 70
     8
  0
VERTEX
  5
12B
330
70
100
AcDbEntity
  8
0
100
AcDbVertex
100
AcDb2dVertex
 10
3.514589856537712
 20
4.821481408657115
 30
0.0
 70
     8
  0
VERTEX
  5
12C
330
70
100
AcDbEntity
  8
0
100
AcDbVertex
100
AcDb2dVertex
 10
3.514942238712945
 20
4.821605525918518
 30
0.0
 70
     8
  0
VERTEX
  5
12D
330
70
100
AcDbEntity
  8
0
100
AcDbVertex
100
AcDb2dVertex
 10
3.515283779667877
 20
4.82171362772818
 30
0.0
 70
     8
  0
VERTEX
  5
12E
330
70
100
AcDbEntity
  8
0
100
AcDbVertex
100
AcDb2dVertex
 10
3.515623199642045
 20
4.82180712726044
 30
0.0
 70
     8
  0
VERTEX
  5
12F
330
70
100
AcDbEntity
  8
0
100
AcDbVertex
100
AcDb2dVertex
 10
3.515969218874987
 20
4.82188743768964
 30
0.0
 70
     8
  0
VERTEX
  5
130
330
70
100
AcDbEntity
  8
0
100
AcDbVertex
100
AcDb2dVertex
 10
3.516330557606239
 20
4.821955972190123
 30
0.0
 70
     8
  0
VERTEX
  5
131
330
70
100
AcDbEntity
  8
0
100
AcDbVertex
100
AcDb2dVertex
 10
3.516715936075338
 20
4.822014143936229
 30
0.0
 70
     8
  0
VERTEX
  5
132
330
70
100
AcDbEntity
  8
0
100
AcDbVertex
100
AcDb2dVertex
 10
3.517134074521823
 20
4.8220633661023
 30
0.0
 70
     8
  0
VERTEX
  5
133
330
70
100
AcDbEntity
  8
0
100
AcDbVertex
100
AcDb2dVertex
 10
3.517591493481201
 20
4.822104580812751
 30
0.0
 70
     8
  0
VERTEX
  5
134
330
70
100
AcDbEntity
  8
0
100
AcDbVertex
100
AcDb2dVertex
 10
3.518085914672869
 20
4.822136845992303
 30
0.0
 70
     8
  0
VERTEX
  5
135
330
70
100
AcDbEntity
  8
0
100
AcDbVertex
100
AcDb2dVertex
 10
3.518612860112198
 20
4.822158748515752
 30
0.0
 70
     8
  0
VERTEX
  5
136
330
70
100
AcDbEntity
  8
0
100
AcDbVertex
100
AcDb2dVertex
 10
3.519167851814556
 20
4.822168875257894
 30
0.0
 70
     8
  0
VERTEX
  5
137
330
70
100
AcDbEntity
  8
0
100
AcDbVertex
100
AcDb2dVertex
 10
3.519746411795313
 20
4.822165813093523
 30
0.0
 70
     8
  0
VERTEX
  5
138
330
70
100
AcDbEntity
  8
0
100
AcDbVertex
100
AcDb2dVertex
 10
3.520344062069837
 20
4.822148148897436
 30
0.0
 70
     8
  0
VERTEX
  5
139
330
70
100
AcDbEntity
  8
0
100
AcDbVertex
100
AcDb2dVertex
 10
3.520956324653498
 20
4.822114469544427
 30
0.0
 70
     8
  0
VERTEX
  5
13A
330
70
100
AcDbEntity
  8
0
100
AcDbVertex
100
AcDb2dVertex
 10
3.521518387269664
 20
4.822264336920815
 30
0.0
 70
    16
  0
VERTEX
  5
13B
330
70
100
AcDbEntity
  8
0
100
AcDbVertex
100
AcDb2dVertex
 10
3.526707161416673
 20
4.821179069342788
 30
0.0
 70
    16
  0
VERTEX
  5
13C
330
70
100
AcDbEntity
  8
0
100
AcDbVertex
100
AcDb2dVertex
 10
3.53177527949717
 20
4.818285014082036
 30
0.0
 70
    16
  0
VERTEX
  5
13D
330
70
100
AcDbEntity
  8
0
100
AcDbVertex
100
AcDb2dVertex
 10
3.536360698206687
 20
4.814185083594108
 30
0.0
 70
    16
  0
VERTEX
  5
13E
330
70
100
AcDbEntity
  8
0
100
AcDbVertex
100
AcDb2dVertex
 10
3.539860099660197
 20
4.809482240650631
 30
0.0
 70
    16
  0
VERTEX
  5
13F
330
70
100
AcDbEntity
  8
0
100
AcDbVertex
100
AcDb2dVertex
 10
3.54251483354319
 20
4.803332382655799
 30
0.0
 70
    16
  0
VERTEX
  5
140
330
70
100
AcDbEntity
  8
0
100
AcDbVertex
100
AcDb2dVertex
 10
3.543600850799197
 20
4.797423664485145
 30
0.0
 70
    16
  0
VERTEX
  5
141
330
70
100
AcDbEntity
  8
0
100
AcDbVertex
100
AcDb2dVertex
 10
3.543238845047195
 20
4.790912033858943
 30
0.0
 70
    16
  0
VERTEX
  5
142
330
70
100
AcDbEntity
  8
0
100
AcDbVertex
100
AcDb2dVertex
 10
3.540825460849691
 20
4.78440040323274
 30
0.0
 70
    16
  0
VERTEX
  5
143
330
70
100
AcDbEntity
  8
0
100
AcDbVertex
100
AcDb2dVertex
 10
3.536360698206687
 20
4.779697560289264
 30
0.0
 70
    16
  0
VERTEX
  5
144
330
70
100
AcDbEntity
  8
0
100
AcDbVertex
100
AcDb2dVertex
 10
3.532016591630195
 20
4.77764760762432
 30
0.0
 70
    16
  0
VERTEX
  5
145
330
70
100
AcDbEntity
  8
0
100
AcDbVertex
100
AcDb2dVertex
 10
3.527672522606167
 20
4.776803505028513
 30
0.0
 70
    16
  0
VERTEX
  5
146
330
70
100
AcDbEntity
  8
0
100
AcDbVertex
100
AcDb2dVertex
 10
3.522363092392645
 20
4.77728583499295
 30
0.0
 70
    16
  0
VERTEX
  5
147
330
70
100
AcDbEntity
  8
0
100
AcDbVertex
100
AcDb2dVertex
 10
3.517656980064151
 20
4.779094622675675
 30
0.0
 70
    16
  0
VERTEX
  5
148
330
70
100
AcDbEntity
  8
0
100
AcDbVertex
100
AcDb2dVertex
 10
3.512709555602632
 20
4.782471033058906
 30
0.0
 70
    16
  0
VERTEX
  5
149
330
70
100
AcDbEntity
  8
0
100
AcDbVertex
100
AcDb2dVertex
 10
3.509089460530145
 20
4.786209190915466
 30
0.0
 70
    16
  0
VERTEX
  5
14A
330
70
100
AcDbEntity
  8
0
100
AcDbVertex
100
AcDb2dVertex
 10
3.506193414514126
 20
4.790550286385614
 30
0.0
 70
    16
  0
VERTEX
  5
14B
330
70
100
AcDbEntity
  8
0
100
AcDbVertex
100
AcDb2dVertex
 10
3.504021380002112
 20
4.796097231924899
 30
0.0
 70
    16
  0
VERTEX
  5
14C
330
70
100
AcDbEntity
  8
0
100
AcDbVertex
100
AcDb2dVertex
 10
3.502814669127129
 20
4.802126507428621
 30
0.0
 70
    16
  0
VERTEX
  5
14D
330
70
100
AcDbEntity
  8
0
100
AcDbVertex
100
AcDb2dVertex
 10
3.503297368498108
 20
4.808035225599276
 30
0.0
 70
    16
  0
VERTEX
  5
14E
330
70
100
AcDbEntity
  8
0
100
AcDbVertex
100
AcDb2dVertex
 10
3.504745391506117
 20
4.812376295911382
 30
0.0
 70
    16
  0
VERTEX
  5
14F
330
70
100
AcDbEntity
  8
0
100
AcDbVertex
100
AcDb2dVertex
 10
3.507520781455622
 20
4.81683797387264
 30
0.0
 70
    16
  0
VERTEX
  5
150
330
70
100
AcDbEntity
  8
0
100
AcDbVertex
100
AcDb2dVertex
 10
3.510537521090618
 20
4.819732054291433
 30
0.0
 70
    16
  0
VERTEX
  5
151
330
70
100
AcDbEntity
  8
0
100
AcDbVertex
100
AcDb2dVertex
 10
3.514519584362643
 20
4.821540841974158
 30
0.0
 70
    16
  0
SEQEND
  5
153
330
70
100
AcDbEntity
  8
0
  0
ARC
  5
154
330
1B
100
AcDbEntity
  8
0
100
AcDbCircle
 10
3.540983346567581
 20
4.687592839855526
 30
0.0
 40
0.015738
100
AcDbArc
 50
90.831296
 51
117.875387
  0
ARC
  5
155
330
1B
100
AcDbEntity
  8
0
100
AcDbCircle
 10
3.54842634656758
 20
4.684333839855526
 30
0.0
 40
0.024043
100
AcDbArc
 50
168.81966
 51
189.298348
  0
ARC
  5
156
330
1B
100
AcDbEntity
  8
0
100
AcDbCircle
 10
3.54452734656758
 20
4.685103839855525
 30
0.0
 40
0.020069
100
AcDbArc
 50
144.919477
 51
168.81966
  0
ARC
  5
157
330
1B
100
AcDbEntity
  8
0
100
AcDbCircle
 10
3.540983346567581
 20
4.687592839855526
 30
0.0
 40
0.015738
100
AcDbArc
 50
117.875387
 51
144.919477
  0
LWPOLYLINE
  5
158
330
1B
100
AcDbEntity
  8
0
100
AcDbPolyline
 90
        2
 70
     0
 43
0.0
 10
3.585456113720353
 20
4.746832143112506
 42
0.0812356127077451
 10
3.591142992857932
 20
4.739330147822149
 42
0.0812356127077451
  0
ARC
  5
15D
330
1B
100
AcDbEntity
  8
0
  6
Continuous
100
AcDbCircle
 10
3.535962346567581
 20
4.675895839855525
 30
0.0
 40
0.029162
100
AcDbArc
 50
9.298347999999999
 51
27.875387
  0
ARC
  5
15E
330
1B
100
AcDbEntity
  8
0
100
AcDbCircle
 10
3.54104634656758
 20
4.683262839855526
 30
0.0
 40
0.020069
100
AcDbArc
 50
66.931113
 51
90.831296
  0
ARC
  5
15F
330
1B
100
AcDbEntity
  8
0
100
AcDbCircle
 10
3.53948834656758
 20
4.679605839855526
 30
0.0
 40
0.024043
100
AcDbArc
 50
46.452425
 51
66.931113
  0
ARC
  5
160
330
1B
100
AcDbEntity
  8
0
100
AcDbCircle
 10
3.535962346567581
 20
4.675895839855525
 30
0.0
 40
0.029162
100
AcDbArc
 50
27.875387
 51
46.452425
  0
ARC
  5
161
330
1B
100
AcDbEntity
  8
0
100
AcDbCircle
 10
3.59873934656758
 20
4.762898839855525
 30
0.0
 40
0.015738
100
AcDbArc
 50
90.831296
 51
117.875387
  0
ARC
  5
162
330
1B
100
AcDbEntity
  8
0
100
AcDbCircle
 10
3.598802346567579
 20
4.758568839855526
 30
0.0
 40
0.020069
100
AcDbArc
 50
66.931113
 51
90.831296
  0
ARC
  5
163
330
1B
100
AcDbEntity
  8
0
100
AcDbCircle
 10
3.597245346567581
 20
4.754912839855525
 30
0.0
 40
0.024043
100
AcDbArc
 50
46.452425
 51
66.931113
  0
ARC
  5
164
330
1B
100
AcDbEntity
  8
0
100
AcDbCircle
 10
3.593718346567581
 20
4.751201839855526
 30
0.0
 40
0.029162
100
AcDbArc
 50
27.875387
 51
46.452425
  0
ARC
  5
165
330
1B
100
AcDbEntity
  8
0
100
AcDbCircle
 10
3.593718346567581
 20
4.751201839855526
 30
0.0
 40
0.029162
100
AcDbArc
 50
9.298347999999999
 51
27.875387
  0
ARC
  5
166
330
1B
100
AcDbEntity
  8
0
100
AcDbCircle
 10
3.59877034656758
 20
4.752029839855526
 30
0.0
 40
0.024043
100
AcDbArc
 50
348.81966
 51
9.298347999999999
  0
ARC
  5
167
330
1B
100
AcDbEntity
  8
0
100
AcDbCircle
 10
3.602669346567581
 20
4.751258839855526
 30
0.0
 40
0.020069
100
AcDbArc
 50
324.919477
 51
348.81966
  0
ARC
  5
168
330
1B
100
AcDbEntity
  8
0
100
AcDbCircle
 10
3.60621334656758
 20
4.748769839855525
 30
0.0
 40
0.015738
100
AcDbArc
 50
297.875387
 51
324.919477
  0
ARC
  5
169
330
1B
100
AcDbEntity
  8
0
100
AcDbCircle
 10
3.60621334656758
 20
4.748769839855525
 30
0.0
 40
0.015738
100
AcDbArc
 50
270.831296
 51
297.875387
  0
ARC
  5
16A
330
1B
100
AcDbEntity
  8
0
100
AcDbCircle
 10
3.606150346567581
 20
4.753099839855525
 30
0.0
 40
0.020069
100
AcDbArc
 50
246.931113
 51
270.831296
  0
ARC
  5
16B
330
1B
100
AcDbEntity
  8
0
  6
Continuous
100
AcDbCircle
 10
3.60770734656758
 20
4.756756839855525
 30
0.0
 40
0.024043
100
AcDbArc
 50
226.452425
 51
246.931113
  0
ARC
  5
16C
330
1B
100
AcDbEntity
  8
0
100
AcDbCircle
 10
3.611234346567581
 20
4.760466839855525
 30
0.0
 40
0.029162
100
AcDbArc
 50
189.298348
 51
207.875387
  0
ARC
  5
16D
330
1B
100
AcDbEntity
  8
0
100
AcDbCircle
 10
3.60618234656758
 20
4.759639839855526
 30
0.0
 40
0.024043
100
AcDbArc
 50
168.81966
 51
189.298348
  0
ARC
  5
16E
330
1B
100
AcDbEntity
  8
0
100
AcDbCircle
 10
3.602283346567582
 20
4.760409839855525
 30
0.0
 40
0.020069
100
AcDbArc
 50
144.919477
 51
168.81966
  0
ARC
  5
16F
330
1B
100
AcDbEntity
  8
0
100
AcDbCircle
 10
3.59873934656758
 20
4.762898839855525
 30
0.0
 40
0.015738
100
AcDbArc
 50
117.875387
 51
144.919477
  0
LWPOLYLINE
  5
170
330
1B
100
AcDbEntity
  8
0
  6
HIDDEN
100
AcDbPolyline
 90
        2
 70
     0
 43
0.0
 10
3.21761634656758
 20
5.145769839855525
 10
3.21761634656758
 20
4.895430839855525
  0
LWPOLYLINE
  5
175
330
1B
100
AcDbEntity
  8
0
  6
HIDDEN
100
AcDbPolyline
 90
        2
 70
     0
 43
0.0
 10
3.303033346567581
 20
4.912789839855526
 10
3.22140734656758
 20
4.852914839855526
  0
LWPOLYLINE
  5
17A
330
1B
100
AcDbEntity
  8
0
  6
HIDDEN
100
AcDbPolyline
 90
        2
 70
     0
 43
0.0
 10
3.229495346567581
 20
5.157744839855525
 10
3.269375346567581
 20
5.197943839855526
  0
LINE
  5
17F
330
1B
100
AcDbEntity
  8
0
100
AcDbLine
 10
3.38374334656758
 20
5.134337839855525
 30
0.0
 11
3.39377334656758
 21
5.129372839855526
 31
0.0
  0
LWPOLYLINE
  5
180
330
1B
100
AcDbEntity
  8
0
100
AcDbPolyline
 90
        2
 70
     0
 43
0.0
 10
3.48379834656758
 20
5.145749839855526
 10
3.48379834656758
 20
4.901501839855525
  0
LWPOLYLINE
  5
185
330
1B
100
AcDbEntity
  8
0
100
AcDbPolyline
 90
        4
 70
     0
 43
0.0
 10
3.52684834656758
 20
5.143919839855525
 10
3.51892434656758
 20
5.122867839855525
 10
3.58738034656758
 20
5.026044839855525
 10
3.611400346567582
 20
5.027141839855526
  0
ARC
  5
18C
330
1B
100
AcDbEntity
  8
0
100
AcDbCircle
 10
3.44168234656758
 20
5.034151839855525
 30
0.0
 40
0.007634
100
AcDbArc
 50
207.145486
 51
241.031925
  0
ARC
  5
18D
330
1B
100
AcDbEntity
  8
0
100
AcDbCircle
 10
3.441097346567581
 20
5.040951839855525
 30
0.0
 40
0.014458
100
AcDbArc
 50
274.918365
 51
299.3685430000001
  0
ARC
  5
18E
330
1B
100
AcDbEntity
  8
0
100
AcDbCircle
 10
3.44168234656758
 20
5.034151839855525
 30
0.0
 40
0.007634
100
AcDbArc
 50
241.031925
 51
274.918365
  0
LWPOLYLINE
  5
18F
330
1B
100
AcDbEntity
  8
0
100
AcDbPolyline
 90
        4
 70
     0
 43
0.0
 10
3.52684834656758
 20
5.007749839855526
 10
3.51892434656758
 20
4.986697839855526
 10
3.58738034656758
 20
4.889874839855525
 10
3.611400346567582
 20
4.890971839855526
  0
ARC
  5
196
330
1B
100
AcDbEntity
  8
0
100
AcDbCircle
 10
3.45375534656758
 20
4.973002839855525
 30
0.0
 40
0.014458
100
AcDbArc
 50
94.91836500000001
 51
119.368543
  0
ARC
  5
197
330
1B
100
AcDbEntity
  8
0
100
AcDbCircle
 10
3.453170346567581
 20
4.979802839855525
 30
0.0
 40
0.007634
100
AcDbArc
 50
61.031925
 51
94.91836500000001
  0
ARC
  5
198
330
1B
100
AcDbEntity
  8
0
100
AcDbCircle
 10
3.44168234656758
 20
4.959049839855526
 30
0.0
 40
0.007634
100
AcDbArc
 50
207.145486
 51
241.031925
  0
ARC
  5
199
330
1B
100
AcDbEntity
  8
0
100
AcDbCircle
 10
3.44775534656758
 20
4.962163839855526
 30
0.0
 40
0.014458
100
AcDbArc
 50
182.695308
 51
207.145486
  0
ARC
  5
19A
330
1B
100
AcDbEntity
  8
0
100
AcDbCircle
 10
3.454872346567581
 20
4.962498839855526
 30
0.0
 40
0.021583
100
AcDbArc
 50
165.362111
 51
182.695308
  0
ARC
  5
19B
330
1B
100
AcDbEntity
  8
0
100
AcDbCircle
 10
3.464467346567581
 20
4.959992839855525
 30
0.0
 40
0.0315
100
AcDbArc
 50
151.031925
 51
165.362111
  0
ARC
  5
19C
330
1B
100
AcDbEntity
  8
0
100
AcDbCircle
 10
3.464467346567581
 20
4.959992839855525
 30
0.0
 40
0.0315
100
AcDbArc
 50
136.701739
 51
151.031925
  0
ARC
  5
19D
330
1B
100
AcDbEntity
  8
0
100
AcDbCircle
 10
3.45724934656758
 20
4.966793839855526
 30
0.0
 40
0.021583
100
AcDbArc
 50
119.368543
 51
136.701739
  0
ARC
  5
19E
330
1B
100
AcDbEntity
  8
0
100
AcDbCircle
 10
3.453170346567581
 20
4.979802839855525
 30
0.0
 40
0.007634
100
AcDbArc
 50
27.145486
 51
61.031925
  0
ARC
  5
19F
330
1B
100
AcDbEntity
  8
0
100
AcDbCircle
 10
3.447097346567581
 20
4.976688839855525
 30
0.0
 40
0.014458
100
AcDbArc
 50
2.695308
 51
27.145486
  0
ARC
  5
1A0
330
1B
100
AcDbEntity
  8
0
100
AcDbCircle
 10
3.43998134656758
 20
4.976353839855525
 30
0.0
 40
0.021583
100
AcDbArc
 50
345.362111
 51
2.695308
  0
ARC
  5
1A1
330
1B
100
AcDbEntity
  8
0
100
AcDbCircle
 10
3.43038534656758
 20
4.978859839855526
 30
0.0
 40
0.0315
100
AcDbArc
 50
331.031925
 51
345.362111
  0
ARC
  5
1A2
330
1B
100
AcDbEntity
  8
0
100
AcDbCircle
 10
3.43038534656758
 20
4.978859839855526
 30
0.0
 40
0.0315
100
AcDbArc
 50
316.701739
 51
331.031925
  0
ARC
  5
1A3
330
1B
100
AcDbEntity
  8
0
100
AcDbCircle
 10
3.437603346567581
 20
4.972058839855525
 30
0.0
 40
0.021583
100
AcDbArc
 50
299.3685430000001
 51
316.701739
  0
ARC
  5
1A4
330
1B
100
AcDbEntity
  8
0
100
AcDbCircle
 10
3.441097346567581
 20
4.965849839855526
 30
0.0
 40
0.014458
100
AcDbArc
 50
274.918365
 51
299.3685430000001
  0
ARC
  5
1A5
330
1B
100
AcDbEntity
  8
0
100
AcDbCircle
 10
3.44168234656758
 20
4.959049839855526
 30
0.0
 40
0.007634
100
AcDbArc
 50
241.031925
 51
274.918365
  0
ARC
  5
1A6
330
1B
100
AcDbEntity
  8
0
100
AcDbCircle
 10
3.44168234656758
 20
4.880988839855526
 30
0.0
 40
0.007634
100
AcDbArc
 50
207.145486
 51
241.031925
  0
ARC
  5
1A7
330
1B
100
AcDbEntity
  8
0
100
AcDbCircle
 10
3.44775534656758
 20
4.884102839855526
 30
0.0
 40
0.014458
100
AcDbArc
 50
182.695308
 51
207.145486
  0
ARC
  5
1A8
330
1B
100
AcDbEntity
  8
0
100
AcDbCircle
 10
3.454872346567581
 20
4.884437839855526
 30
0.0
 40
0.021583
100
AcDbArc
 50
165.362111
 51
182.695308
  0
ARC
  5
1A9
330
1B
100
AcDbEntity
  8
0
100
AcDbCircle
 10
3.464467346567581
 20
4.881931839855525
 30
0.0
 40
0.0315
100
AcDbArc
 50
151.031925
 51
165.362111
  0
ARC
  5
1AA
330
1B
100
AcDbEntity
  8
0
100
AcDbCircle
 10
3.464467346567581
 20
4.881931839855525
 30
0.0
 40
0.0315
100
AcDbArc
 50
136.701739
 51
151.031925
  0
ARC
  5
1AB
330
1B
100
AcDbEntity
  8
0
100
AcDbCircle
 10
3.45724934656758
 20
4.888732839855526
 30
0.0
 40
0.021583
100
AcDbArc
 50
119.368543
 51
136.701739
  0
ARC
  5
1AC
330
1B
100
AcDbEntity
  8
0
100
AcDbCircle
 10
3.45375534656758
 20
4.894941839855525
 30
0.0
 40
0.014458
100
AcDbArc
 50
94.91836500000001
 51
119.368543
  0
ARC
  5
1AD
330
1B
100
AcDbEntity
  8
0
100
AcDbCircle
 10
3.453170346567581
 20
4.901741839855525
 30
0.0
 40
0.007634
100
AcDbArc
 50
61.031925
 51
94.91836500000001
  0
ARC
  5
1AE
330
1B
100
AcDbEntity
  8
0
100
AcDbCircle
 10
3.453170346567581
 20
4.901741839855525
 30
0.0
 40
0.007634
100
AcDbArc
 50
27.145486
 51
61.031925
  0
ARC
  5
1AF
330
1B
100
AcDbEntity
  8
0
100
AcDbCircle
 10
3.447097346567581
 20
4.898627839855525
 30
0.0
 40
0.014458
100
AcDbArc
 50
2.695308
 51
27.145486
  0
ARC
  5
1B0
330
1B
100
AcDbEntity
  8
0
100
AcDbCircle
 10
3.43998134656758
 20
4.898292839855525
 30
0.0
 40
0.021583
100
AcDbArc
 50
345.362111
 51
2.695308
  0
ARC
  5
1B1
330
1B
100
AcDbEntity
  8
0
100
AcDbCircle
 10
3.43038534656758
 20
4.900798839855526
 30
0.0
 40
0.0315
100
AcDbArc
 50
331.031925
 51
345.362111
  0
ARC
  5
1B2
330
1B
100
AcDbEntity
  8
0
100
AcDbCircle
 10
3.43038534656758
 20
4.900798839855526
 30
0.0
 40
0.0315
100
AcDbArc
 50
316.701739
 51
331.031925
  0
ARC
  5
1B3
330
1B
100
AcDbEntity
  8
0
100
AcDbCircle
 10
3.437603346567581
 20
4.893997839855526
 30
0.0
 40
0.021583
100
AcDbArc
 50
299.3685430000001
 51
316.701739
  0
ARC
  5
1B4
330
1B
100
AcDbEntity
  8
0
100
AcDbCircle
 10
3.441097346567581
 20
4.887788839855526
 30
0.0
 40
0.014458
100
AcDbArc
 50
274.918365
 51
299.3685430000001
  0
ARC
  5
1B5
330
1B
100
AcDbEntity
  8
0
100
AcDbCircle
 10
3.44168234656758
 20
4.880988839855526
 30
0.0
 40
0.007634
100
AcDbArc
 50
241.031925
 51
274.918365
  0
LWPOLYLINE
  5
1B6
330
1B
100
AcDbEntity
  8
0
100
AcDbPolyline
 90
        2
 70
     0
 43
0.0
 10
3.434889224980804
 20
5.103712816010176
 42
0.1489444681150024
 10
3.437985030815736
 20
5.100516931843645
 42
0.1489444681150024
  0
ARC
  5
1BB
330
1B
100
AcDbEntity
  8
0
100
AcDbCircle
 10
3.454872346567581
 20
5.037600839855526
 30
0.0
 40
0.021583
100
AcDbArc
 50
165.362111
 51
182.695308
  0
ARC
  5
1BC
330
1B
100
AcDbEntity
  8
0
100
AcDbCircle
 10
3.43038534656758
 20
5.053961839855526
 30
0.0
 40
0.0315
100
AcDbArc
 50
331.031925
 51
345.362111
  0
ARC
  5
1BD
330
1B
100
AcDbEntity
  8
0
100
AcDbCircle
 10
3.44775534656758
 20
5.037265839855525
 30
0.0
 40
0.014458
100
AcDbArc
 50
182.695308
 51
207.145486
  0
ARC
  5
1BE
330
1B
100
AcDbEntity
  8
0
100
AcDbCircle
 10
3.43038534656758
 20
5.053961839855526
 30
0.0
 40
0.0315
100
AcDbArc
 50
316.701739
 51
331.031925
  0
ARC
  5
1BF
330
1B
100
AcDbEntity
  8
0
100
AcDbCircle
 10
3.437603346567581
 20
5.047159839855525
 30
0.0
 40
0.021583
100
AcDbArc
 50
299.3685430000001
 51
316.701739
  0
ARC
  5
1C0
330
1B
100
AcDbEntity
  8
0
100
AcDbCircle
 10
3.44775534656758
 20
5.110309839855525
 30
0.0
 40
0.014458
100
AcDbArc
 50
182.695308
 51
207.145486
  0
ARC
  5
1C1
330
1B
100
AcDbEntity
  8
0
100
AcDbCircle
 10
3.454872346567581
 20
5.110644839855525
 30
0.0
 40
0.021583
100
AcDbArc
 50
165.362111
 51
182.695308
  0
ARC
  5
1C2
330
1B
100
AcDbEntity
  8
0
100
AcDbCircle
 10
3.464467346567581
 20
5.108137839855525
 30
0.0
 40
0.0315
100
AcDbArc
 50
151.031925
 51
165.362111
  0
ARC
  5
1C3
330
1B
100
AcDbEntity
  8
0
100
AcDbCircle
 10
3.464467346567581
 20
5.108137839855525
 30
0.0
 40
0.0315
100
AcDbArc
 50
136.701739
 51
151.031925
  0
ARC
  5
1C4
330
1B
100
AcDbEntity
  8
0
100
AcDbCircle
 10
3.45724934656758
 20
5.114939839855525
 30
0.0
 40
0.021583
100
AcDbArc
 50
119.368543
 51
136.701739
  0
ARC
  5
1C5
330
1B
100
AcDbEntity
  8
0
100
AcDbCircle
 10
3.45375534656758
 20
5.121148839855525
 30
0.0
 40
0.014458
100
AcDbArc
 50
94.91836500000001
 51
119.368543
  0
ARC
  5
1C6
330
1B
100
AcDbEntity
  8
0
100
AcDbCircle
 10
3.453170346567581
 20
5.127947839855526
 30
0.0
 40
0.007634
100
AcDbArc
 50
61.031925
 51
94.91836500000001
  0
ARC
  5
1C7
330
1B
100
AcDbEntity
  8
0
100
AcDbCircle
 10
3.453170346567581
 20
5.127947839855526
 30
0.0
 40
0.007634
100
AcDbArc
 50
27.145486
 51
61.031925
  0
ARC
  5
1C8
330
1B
100
AcDbEntity
  8
0
100
AcDbCircle
 10
3.447097346567581
 20
5.124833839855525
 30
0.0
 40
0.014458
100
AcDbArc
 50
2.695308
 51
27.145486
  0
ARC
  5
1C9
330
1B
100
AcDbEntity
  8
0
100
AcDbCircle
 10
3.43998134656758
 20
5.124498839855525
 30
0.0
 40
0.021583
100
AcDbArc
 50
345.362111
 51
2.695308
  0
ARC
  5
1CA
330
1B
100
AcDbEntity
  8
0
100
AcDbCircle
 10
3.43038534656758
 20
5.127005839855525
 30
0.0
 40
0.0315
100
AcDbArc
 50
331.031925
 51
345.362111
  0
ARC
  5
1CB
330
1B
100
AcDbEntity
  8
0
100
AcDbCircle
 10
3.43038534656758
 20
5.127005839855525
 30
0.0
 40
0.0315
100
AcDbArc
 50
316.701739
 51
331.031925
  0
ARC
  5
1CC
330
1B
100
AcDbEntity
  8
0
100
AcDbCircle
 10
3.437603346567581
 20
5.120203839855526
 30
0.0
 40
0.021583
100
AcDbArc
 50
299.3685430000001
 51
316.701739
  0
ARC
  5
1CD
330
1B
100
AcDbEntity
  8
0
100
AcDbCircle
 10
3.441097346567581
 20
5.113994839855526
 30
0.0
 40
0.014458
100
AcDbArc
 50
274.918365
 51
299.3685430000001
  0
ARC
  5
1CE
330
1B
100
AcDbEntity
  8
0
100
AcDbCircle
 10
3.44168234656758
 20
5.107195839855526
 30
0.0
 40
0.007634
100
AcDbArc
 50
241.031925
 51
274.918365
  0
ARC
  5
1CF
330
1B
100
AcDbEntity
  8
0
100
AcDbCircle
 10
3.464467346567581
 20
5.035094839855525
 30
0.0
 40
0.0315
100
AcDbArc
 50
151.031925
 51
165.362111
  0
ARC
  5
1D0
330
1B
100
AcDbEntity
  8
0
100
AcDbCircle
 10
3.464467346567581
 20
5.035094839855525
 30
0.0
 40
0.0315
100
AcDbArc
 50
136.701739
 51
151.031925
  0
ARC
  5
1D1
330
1B
100
AcDbEntity
  8
0
100
AcDbCircle
 10
3.45724934656758
 20
5.041895839855526
 30
0.0
 40
0.021583
100
AcDbArc
 50
119.368543
 51
136.701739
  0
ARC
  5
1D2
330
1B
100
AcDbEntity
  8
0
100
AcDbCircle
 10
3.45375534656758
 20
5.048104839855526
 30
0.0
 40
0.014458
100
AcDbArc
 50
94.91836500000001
 51
119.368543
  0
ARC
  5
1D3
330
1B
100
AcDbEntity
  8
0
100
AcDbCircle
 10
3.453170346567581
 20
5.054903839855525
 30
0.0
 40
0.007634
100
AcDbArc
 50
61.031925
 51
94.91836500000001
  0
ARC
  5
1D4
330
1B
100
AcDbEntity
  8
0
100
AcDbCircle
 10
3.453170346567581
 20
5.054903839855525
 30
0.0
 40
0.007634
100
AcDbArc
 50
27.145486
 51
61.031925
  0
ARC
  5
1D5
330
1B
100
AcDbEntity
  8
0
100
AcDbCircle
 10
3.447097346567581
 20
5.051790839855526
 30
0.0
 40
0.014458
100
AcDbArc
 50
2.695308
 51
27.145486
  0
ARC
  5
1D6
330
1B
100
AcDbEntity
  8
0
100
AcDbCircle
 10
3.43998134656758
 20
5.051455839855525
 30
0.0
 40
0.021583
100
AcDbArc
 50
345.362111
 51
2.695308
  0
LWPOLYLINE
  5
1D7
330
1B
100
AcDbEntity
  8
0
100
AcDbPolyline
 90
        2
 70
     0
 43
0.0
 10
3.591772346567581
 20
5.179214839855526
 10
3.580797346567581
 20
5.170161839855526
  0
LINE
  5
1DC
330
1B
100
AcDbEntity
  8
0
 62
     0
100
AcDbLine
 10
3.711431
 20
4.944719
 30
0.0
 11
3.711431
 21
4.944719
 31
0.0
  0
ENDBLK
  5
1DF
330
1B
100
AcDbEntity
  8
0
100
AcDbBlockEnd
  0
BLOCK
  5
225
330
1C
100
AcDbEntity
  8
0
100
AcDbBlockBegin
  2
ACAD2824
 70
     0
 10
0.0
 20
0.0
 30
0.0
  3
ACAD2824
  1

  4

  0
LINE
  5
1E1
330
1C
100
AcDbEntity
  8
0
100
AcDbLine
 10
4.719965136749616
 20
6.37063195028242
 30
0.0
 11
4.670233481932984
 21
6.341672222537923
 31
0.0
  0
LINE
  5
1E2
330
1C
100
AcDbEntity
  8
0
100
AcDbLine
 10
4.670233481932985
 20
6.382582137607479
 30
0.0
 11
4.620501827116352
 21
6.353622409862981
 31
0.0
  0
LINE
  5
1E3
330
1C
100
AcDbEntity
  8
0
100
AcDbLine
 10
4.471306862666458
 20
6.373108998377085
 30
0.0
 11
4.421575207849826
 21
6.344149270632588
 31
0.0
  0
LINE
  5
1E4
330
1C
100
AcDbEntity
  8
0
100
AcDbLine
 10
4.357111058702815
 20
6.484568633428192
 30
0.0
 11
4.357111058702815
 21
6.144606649673254
 31
0.0
  0
LINE
  5
1E5
330
1C
100
AcDbEntity
  8
0
100
AcDbLine
 10
4.775973290381088
 20
6.388518424509234
 30
0.0
 11
4.357111058702815
 21
6.144606649673254
 31
0.0
  0
LINE
  5
1E6
330
1C
100
AcDbEntity
  8
0
100
AcDbLine
 10
4.620501827116352
 20
6.312712494793426
 30
0.0
 11
4.570770172299722
 21
6.283752767048931
 31
0.0
  0
LINE
  5
1E7
330
1C
100
AcDbEntity
  8
0
100
AcDbLine
 10
4.421575207849826
 20
6.196873583815441
 30
0.0
 11
4.378599108418485
 21
6.171847749794012
 31
0.0
  0
LINE
  5
1E8
330
1C
100
AcDbEntity
  8
0
100
AcDbLine
 10
4.421575207849826
 20
6.287898160640867
 30
0.0
 11
4.378599108418485
 21
6.262872326619438
 31
0.0
  0
LINE
  5
1E9
330
1C
100
AcDbEntity
  8
0
100
AcDbLine
 10
4.378599108418485
 20
6.212757664863568
 30
0.0
 11
4.357111058702815
 21
6.200244747852853
 31
0.0
  0
LINE
  5
1EA
330
1C
100
AcDbEntity
  8
0
100
AcDbLine
 10
4.378599108418485
 20
6.319123436611159
 30
0.0
 11
4.357111058702815
 21
6.306610519600445
 31
0.0
  0
LINE
  5
1EB
330
1C
100
AcDbEntity
  8
0
100
AcDbLine
 10
4.521038517483089
 20
6.254793039304434
 30
0.0
 11
4.471306862666458
 21
6.225833311559938
 31
0.0
  0
LINE
  5
1EC
330
1C
100
AcDbEntity
  8
0
100
AcDbLine
 10
4.521038517483089
 20
6.345817616129859
 30
0.0
 11
4.471306862666458
 21
6.316857888385363
 31
0.0
  0
LINE
  5
1ED
330
1C
100
AcDbEntity
  8
0
100
AcDbLine
 10
4.471306862666458
 20
6.266743226629493
 30
0.0
 11
4.421575207849826
 21
6.237783498884997
 31
0.0
  0
LINE
  5
1EE
330
1C
100
AcDbEntity
  8
0
100
AcDbLine
 10
4.570770172299721
 20
6.324662682118485
 30
0.0
 11
4.521038517483089
 21
6.295702954373989
 31
0.0
  0
LINE
  5
1EF
330
1C
100
AcDbEntity
  8
0
100
AcDbLine
 10
4.620501827116352
 20
6.403737071618852
 30
0.0
 11
4.570770172299722
 21
6.374777343874357
 31
0.0
  0
LINE
  5
1F0
330
1C
100
AcDbEntity
  8
0
100
AcDbLine
 10
4.620501827116352
 20
6.520330294259132
 30
0.0
 11
4.570770172299722
 21
6.491370566514636
 31
0.0
  0
LINE
  5
1F1
330
1C
100
AcDbEntity
  8
0
100
AcDbLine
 10
4.620501827116352
 20
6.618514097859319
 30
0.0
 11
4.570770172299722
 21
6.589554370114823
 31
0.0
  0
LINE
  5
1F2
330
1C
100
AcDbEntity
  8
0
100
AcDbLine
 10
4.775973290381088
 20
6.728480408264172
 30
0.0
 11
4.357111058702815
 21
6.484568633428192
 31
0.0
  0
LINE
  5
1F3
330
1C
100
AcDbEntity
  8
0
100
AcDbLine
 10
4.421575207849826
 20
6.404491383281147
 30
0.0
 11
4.378599108418485
 21
6.379465549259717
 31
0.0
  0
LINE
  5
1F4
330
1C
100
AcDbEntity
  8
0
100
AcDbLine
 10
4.421575207849826
 20
6.502675186881334
 30
0.0
 11
4.378599108418485
 21
6.477649352859904
 31
0.0
  0
LINE
  5
1F5
330
1C
100
AcDbEntity
  8
0
100
AcDbLine
 10
4.378599108418485
 20
6.432648435133513
 30
0.0
 11
4.357111058702815
 21
6.420135518122798
 31
0.0
  0
LINE
  5
1F6
330
1C
100
AcDbEntity
  8
0
100
AcDbLine
 10
4.521038517483089
 20
6.462410838770139
 30
0.0
 11
4.471306862666458
 21
6.433451111025643
 31
0.0
  0
LINE
  5
1F7
330
1C
100
AcDbEntity
  8
0
100
AcDbLine
 10
4.521038517483089
 20
6.560594642370326
 30
0.0
 11
4.471306862666458
 21
6.53163491462583
 31
0.0
  0
LINE
  5
1F8
330
1C
100
AcDbEntity
  8
0
100
AcDbLine
 10
4.471306862666458
 20
6.486633996899438
 30
0.0
 11
4.421575207849826
 21
6.457674269154942
 31
0.0
  0
LINE
  5
1F9
330
1C
100
AcDbEntity
  8
0
100
AcDbLine
 10
4.570770172299721
 20
6.431028453866078
 30
0.0
 11
4.521038517483089
 21
6.402068726121581
 31
0.0
  0
LINE
  5
1FA
330
1C
100
AcDbEntity
  8
0
100
AcDbLine
 10
4.570770172299722
 20
6.54455345238843
 30
0.0
 11
4.521038517483089
 21
6.515593724643933
 31
0.0
  0
LINE
  5
1FB
330
1C
100
AcDbEntity
  8
0
100
AcDbLine
 10
4.775973290381088
 20
6.444156522688833
 30
0.0
 11
4.719965136749615
 21
6.411541865351975
 31
0.0
  0
LINE
  5
1FC
330
1C
100
AcDbEntity
  8
0
100
AcDbLine
 10
4.775973290381088
 20
6.550522294436425
 30
0.0
 11
4.719965136749615
 21
6.517907637099567
 31
0.0
  0
LINE
  5
1FD
330
1C
100
AcDbEntity
  8
0
100
AcDbLine
 10
4.775973290381088
 20
6.664047292958778
 30
0.0
 11
4.719965136749615
 21
6.63143263562192
 31
0.0
  0
LINE
  5
1FE
330
1C
100
AcDbEntity
  8
0
100
AcDbLine
 10
4.719965136749616
 20
6.578249749748125
 30
0.0
 11
4.670233481932984
 21
6.549290022003628
 31
0.0
  0
LINE
  5
1FF
330
1C
100
AcDbEntity
  8
0
100
AcDbLine
 10
4.670233481932985
 20
6.602472907877424
 30
0.0
 11
4.620501827116352
 21
6.573513180132927
 31
0.0
  0
LINE
  5
200
330
1C
100
AcDbEntity
  8
0
100
AcDbLine
 10
4.670233481932985
 20
6.488947909355071
 30
0.0
 11
4.620501827116352
 21
6.459988181610575
 31
0.0
  0
LINE
  5
201
330
1C
100
AcDbEntity
  8
0
100
AcDbLine
 10
4.719965136749616
 20
6.461656527107846
 30
0.0
 11
4.670233481932984
 21
6.432696799363349
 31
0.0
  0
LINE
  5
202
330
1C
100
AcDbEntity
  8
0
100
AcDbLine
 10
4.719965136749616
 20
6.676433553348312
 30
0.0
 11
4.670233481932984
 21
6.647473825603815
 31
0.0
  0
LINE
  5
203
330
1C
100
AcDbEntity
  8
0
100
AcDbLine
 10
4.775973290381087
 20
6.728480408264172
 30
0.0
 11
4.775973290381088
 21
6.388518424509234
 31
0.0
  0
LINE
  5
204
330
1C
100
AcDbEntity
  8
0
100
AcDbLine
 10
6.594707638851777
 20
6.029502224368586
 30
0.0
 11
6.550219071661619
 21
5.992996461656341
 31
0.0
  0
LINE
  5
205
330
1C
100
AcDbEntity
  8
0
100
AcDbLine
 10
6.584761712178134
 20
5.951840339947194
 30
0.0
 11
6.540273144987975
 21
5.915334577234948
 31
0.0
  0
LINE
  5
206
330
1C
100
AcDbEntity
  8
0
100
AcDbLine
 10
6.604019645691427
 20
6.144851314223681
 30
0.0
 11
6.559531078501269
 21
6.108345551511436
 31
0.0
  0
LINE
  5
207
330
1C
100
AcDbEntity
  8
0
100
AcDbLine
 10
6.601690652796963
 20
5.846830395803865
 30
0.0
 11
6.557202085606805
 21
5.81032463309162
 31
0.0
  0
LINE
  5
208
330
1C
100
AcDbEntity
  8
0
100
AcDbLine
 10
6.79411494080219
 20
5.942531852910172
 30
0.0
 11
6.419412337276389
 21
5.635063997775482
 31
0.0
  0
LINE
  5
209
330
1C
100
AcDbEntity
  8
0
100
AcDbLine
 10
6.505730504471461
 20
5.956490698944096
 30
0.0
 11
6.467285270863777
 21
5.924943884467018
 31
0.0
  0
LINE
  5
20A
330
1C
100
AcDbEntity
  8
0
100
AcDbLine
 10
6.419412337276389
 20
5.635063997775482
 30
0.0
 11
6.419412337276389
 21
6.015091341758322
 31
0.0
  0
LINE
  5
20B
330
1C
100
AcDbEntity
  8
0
100
AcDbLine
 10
6.474736082688754
 20
5.696924664789503
 30
0.0
 11
6.436290849081069
 21
5.665377850312424
 31
0.0
  0
LINE
  5
20C
330
1C
100
AcDbEntity
  8
0
100
AcDbLine
 10
6.512713518416646
 20
5.773818870379375
 30
0.0
 11
6.468224951226489
 21
5.73731310766713
 31
0.0
  0
LINE
  5
20D
330
1C
100
AcDbEntity
  8
0
100
AcDbLine
 10
6.495784577797817
 20
5.878828814522704
 30
0.0
 11
6.45129601060766
 21
5.842323051810458
 31
0.0
  0
LINE
  5
20E
330
1C
100
AcDbEntity
  8
0
100
AcDbLine
 10
6.460248812671211
 20
5.786788965786543
 30
0.0
 11
6.421803579063527
 21
5.755242151309465
 31
0.0
  0
LINE
  5
20F
330
1C
100
AcDbEntity
  8
0
100
AcDbLine
 10
6.549225947051527
 20
5.859800491211033
 30
0.0
 11
6.504737379861369
 21
5.823294728498788
 31
0.0
  0
LINE
  5
210
330
1C
100
AcDbEntity
  8
0
100
AcDbLine
 10
6.563713217069069
 20
5.769936190213993
 30
0.0
 11
6.519224649878911
 21
5.733430427501748
 31
0.0
  0
LINE
  5
211
330
1C
100
AcDbEntity
  8
0
100
AcDbLine
 10
6.515042511311111
 20
6.071839788799189
 30
0.0
 11
6.470553944120953
 21
6.035334026086945
 31
0.0
  0
LINE
  5
212
330
1C
100
AcDbEntity
  8
0
100
AcDbLine
 10
6.477716190504035
 20
5.9909067279138
 30
0.0
 11
6.433227623313877
 21
5.954400965201555
 31
0.0
  0
LINE
  5
213
330
1C
100
AcDbEntity
  8
0
100
AcDbLine
 10
6.566693324884351
 20
6.06391825333829
 30
0.0
 11
6.522204757694193
 21
6.027412490626044
 31
0.0
  0
LINE
  5
214
330
1C
100
AcDbEntity
  8
0
100
AcDbLine
 10
6.638203081431843
 20
5.932812016635523
 30
0.0
 11
6.593714514241685
 21
5.896306253923279
 31
0.0
  0
LINE
  5
215
330
1C
100
AcDbEntity
  8
0
100
AcDbLine
 10
6.741667485829701
 20
5.915959241062975
 30
0.0
 11
6.697178918639543
 21
5.879453478350729
 31
0.0
  0
LINE
  5
216
330
1C
100
AcDbEntity
  8
0
100
AcDbLine
 10
6.690667787177279
 20
5.919841921228356
 30
0.0
 11
6.64617921998712
 21
5.88333615851611
 31
0.0
  0
LINE
  5
217
330
1C
100
AcDbEntity
  8
0
100
AcDbLine
 10
6.652690351449385
 20
5.842947715638483
 30
0.0
 11
6.608201784259228
 21
5.806441952926239
 31
0.0
  0
LINE
  5
218
330
1C
100
AcDbEntity
  8
0
100
AcDbLine
 10
6.77266190761241
 20
6.175525275217567
 30
0.0
 11
6.72817334042225
 21
6.139019512505321
 31
0.0
  0
LINE
  5
219
330
1C
100
AcDbEntity
  8
0
100
AcDbLine
 10
6.772626091833673
 20
6.275566914032962
 30
0.0
 11
6.734180858225988
 21
6.244020099555883
 31
0.0
  0
LINE
  5
21A
330
1C
100
AcDbEntity
  8
0
100
AcDbLine
 10
6.750262376428153
 20
6.214548598620628
 30
0.0
 11
6.700159026454824
 21
6.173435541475026
 31
0.0
  0
LINE
  5
21B
330
1C
100
AcDbEntity
  8
0
100
AcDbLine
 10
6.768330763721935
 20
6.102470685229531
 30
0.0
 11
6.718227413748607
 21
6.06135762808393
 31
0.0
  0
LINE
  5
21C
330
1C
100
AcDbEntity
  8
0
100
AcDbLine
 10
6.785259704340764
 20
5.997460741086202
 30
0.0
 11
6.735156354367436
 21
5.9563476839406
 31
0.0
  0
LINE
  5
21D
330
1C
100
AcDbEntity
  8
0
100
AcDbLine
 10
6.683684773232093
 20
6.102513749793077
 30
0.0
 11
6.639196206041936
 21
6.066007987080831
 31
0.0
  0
LINE
  5
21E
330
1C
100
AcDbEntity
  8
0
100
AcDbLine
 10
6.67373884655845
 20
6.024851865371685
 30
0.0
 11
6.629250279368291
 21
5.98834610265944
 31
0.0
  0
LINE
  5
21F
330
1C
100
AcDbEntity
  8
0
100
AcDbLine
 10
6.655670459264667
 20
6.136929778762781
 30
0.0
 11
6.611181892074509
 21
6.100424016050535
 31
0.0
  0
LINE
  5
220
330
1C
100
AcDbEntity
  8
0
100
AcDbLine
 10
6.727180215812159
 20
6.005823542060015
 30
0.0
 11
6.682691648622001
 21
5.969317779347769
 31
0.0
  0
LINE
  5
221
330
1C
100
AcDbEntity
  8
0
100
AcDbLine
 10
6.692996780071743
 20
6.217862839648172
 30
0.0
 11
6.648508212881585
 21
6.181357076935925
 31
0.0
  0
LINE
  5
222
330
1C
100
AcDbEntity
  8
0
100
AcDbLine
 10
6.79411494080219
 20
6.322559196893011
 30
0.0
 11
6.419412337276389
 21
6.015091341758322
 31
0.0
  0
LINE
  5
223
330
1C
100
AcDbEntity
  8
0
100
AcDbLine
 10
6.79411494080219
 20
5.942531852910172
 30
0.0
 11
6.79411494080219
 21
6.322559196893011
 31
0.0
  0
ENDBLK
  5
226
330
1C
100
AcDbEntity
  8
0
100
AcDbBlockEnd
  0
BLOCK
  5
2B7
330
1D
100
AcDbEntity
  8
0
100
AcDbBlockBegin
  2
ACAD0049
 70
     0
 10
0.0
 20
0.0
 30
0.0
  3
ACAD0049
  1

  4

  0
ARC
  5
228
330
1D
100
AcDbEntity
  8
0
100
AcDbCircle
 10
4.051369
 20
5.50972
 30
0.0
 40
0.009575
100
AcDbArc
 50
264.425384
 51
293.503032
  0
ARC
  5
229
330
1D
100
AcDbEntity
  8
0
100
AcDbCircle
 10
4.051768
 20
5.513813
 30
0.0
 40
0.013687
100
AcDbArc
 50
240.184669
 51
264.425384
  0
ARC
  5
22A
330
1D
100
AcDbEntity
  8
0
100
AcDbCircle
 10
4.118989
 20
5.488754
 30
0.0
 40
0.022808
100
AcDbArc
 50
23.503032
 51
40.650057
  0
ARC
  5
22B
330
1D
100
AcDbEntity
  8
0
100
AcDbCircle
 10
4.13237
 20
5.496244
 30
0.0
 40
0.017612
100
AcDbArc
 50
166.821396
 51
186.356007
  0
LINE
  5
22C
330
1D
100
AcDbEntity
  8
0
100
AcDbLine
 10
3.992456
 20
5.595141
 30
0.0
 11
3.992456
 21
5.465464
 31
0.0
  0
LINE
  5
22D
330
1D
100
AcDbEntity
  8
0
100
AcDbLine
 10
4.192732
 20
5.452282
 30
0.0
 11
4.062658
 21
5.780814
 31
0.0
  0
LINE
  5
22E
330
1D
100
AcDbEntity
  8
0
100
AcDbLine
 10
4.017967
 20
5.400142
 30
0.0
 11
4.193426000000001
 21
5.340861
 31
0.0
  0
LINE
  5
22F
330
1D
100
AcDbEntity
  8
0
100
AcDbLine
 10
3.992456
 20
5.465464
 30
0.0
 11
4.017967
 21
5.400142
 31
0.0
  0
ARC
  5
230
330
1D
100
AcDbEntity
  8
0
100
AcDbCircle
 10
4.062405
 20
5.441881
 30
0.0
 40
0.009575
100
AcDbArc
 50
84.42538399999999
 51
113.503032
  0
ARC
  5
231
330
1D
100
AcDbEntity
  8
0
100
AcDbCircle
 10
4.062005
 20
5.437787999999999
 30
0.0
 40
0.013687
100
AcDbArc
 50
60.184669
 51
84.42538399999999
  0
ARC
  5
232
330
1D
100
AcDbEntity
  8
0
100
AcDbCircle
 10
4.060053
 20
5.434382
 30
0.0
 40
0.017612
100
AcDbArc
 50
40.650057
 51
60.184669
  0
ARC
  5
233
330
1D
100
AcDbEntity
  8
0
100
AcDbCircle
 10
4.056112000000001
 20
5.430998000000001
 30
0.0
 40
0.022808
100
AcDbArc
 50
23.503032
 51
40.650057
  0
ARC
  5
234
330
1D
100
AcDbEntity
  8
0
100
AcDbCircle
 10
4.056112000000001
 20
5.430998000000001
 30
0.0
 40
0.022808
100
AcDbArc
 50
6.356007
 51
23.503032
  0
ARC
  5
235
330
1D
100
AcDbEntity
  8
0
100
AcDbCircle
 10
4.061275
 20
5.431573
 30
0.0
 40
0.017612
100
AcDbArc
 50
346.821396
 51
6.356007
  0
ARC
  5
236
330
1D
100
AcDbEntity
  8
0
100
AcDbCircle
 10
4.065097
 20
5.430678
 30
0.0
 40
0.013687
100
AcDbArc
 50
322.58068
 51
346.821396
  0
ARC
  5
237
330
1D
100
AcDbEntity
  8
0
100
AcDbCircle
 10
4.068363
 20
5.428179
 30
0.0
 40
0.009575
100
AcDbArc
 50
293.503032
 51
322.58068
  0
ARC
  5
238
330
1D
100
AcDbEntity
  8
0
100
AcDbCircle
 10
4.068363
 20
5.428179
 30
0.0
 40
0.009575
100
AcDbArc
 50
264.425384
 51
293.503032
  0
ARC
  5
239
330
1D
100
AcDbEntity
  8
0
100
AcDbCircle
 10
4.068763
 20
5.432272
 30
0.0
 40
0.013687
100
AcDbArc
 50
240.184669
 51
264.425384
  0
ARC
  5
23A
330
1D
100
AcDbEntity
  8
0
100
AcDbCircle
 10
4.070714
 20
5.435678
 30
0.0
 40
0.017612
100
AcDbArc
 50
220.650057
 51
240.184669
  0
ARC
  5
23B
330
1D
100
AcDbEntity
  8
0
100
AcDbCircle
 10
4.074656
 20
5.439062
 30
0.0
 40
0.022808
100
AcDbArc
 50
203.503032
 51
220.650057
  0
ARC
  5
23C
330
1D
100
AcDbEntity
  8
0
100
AcDbCircle
 10
4.074656
 20
5.439062
 30
0.0
 40
0.022808
100
AcDbArc
 50
186.356007
 51
203.503032
  0
ARC
  5
23D
330
1D
100
AcDbEntity
  8
0
100
AcDbCircle
 10
4.069493000000001
 20
5.438487
 30
0.0
 40
0.017612
100
AcDbArc
 50
166.821396
 51
186.356007
  0
ARC
  5
23E
330
1D
100
AcDbEntity
  8
0
100
AcDbCircle
 10
4.06567
 20
5.439382
 30
0.0
 40
0.013687
100
AcDbArc
 50
142.58068
 51
166.821396
  0
ARC
  5
23F
330
1D
100
AcDbEntity
  8
0
100
AcDbCircle
 10
4.062405
 20
5.441881
 30
0.0
 40
0.009575
100
AcDbArc
 50
113.503032
 51
142.58068
  0
ARC
  5
240
330
1D
100
AcDbEntity
  8
0
100
AcDbCircle
 10
4.142276
 20
5.418096
 30
0.0
 40
0.009575
100
AcDbArc
 50
84.42538399999999
 51
113.503032
  0
ARC
  5
241
330
1D
100
AcDbEntity
  8
0
100
AcDbCircle
 10
4.141876
 20
5.414004
 30
0.0
 40
0.013687
100
AcDbArc
 50
60.184669
 51
84.42538399999999
  0
ARC
  5
242
330
1D
100
AcDbEntity
  8
0
100
AcDbCircle
 10
4.139924
 20
5.410598
 30
0.0
 40
0.017612
100
AcDbArc
 50
40.650057
 51
60.184669
  0
ARC
  5
243
330
1D
100
AcDbEntity
  8
0
100
AcDbCircle
 10
4.135983
 20
5.407213
 30
0.0
 40
0.022808
100
AcDbArc
 50
23.503032
 51
40.650057
  0
ARC
  5
244
330
1D
100
AcDbEntity
  8
0
100
AcDbCircle
 10
4.135983
 20
5.407213
 30
0.0
 40
0.022808
100
AcDbArc
 50
6.356007
 51
23.503032
  0
ARC
  5
245
330
1D
100
AcDbEntity
  8
0
100
AcDbCircle
 10
4.141146
 20
5.407788
 30
0.0
 40
0.017612
100
AcDbArc
 50
346.821396
 51
6.356007
  0
ARC
  5
246
330
1D
100
AcDbEntity
  8
0
100
AcDbCircle
 10
4.144968
 20
5.406893
 30
0.0
 40
0.013687
100
AcDbArc
 50
322.58068
 51
346.821396
  0
ARC
  5
247
330
1D
100
AcDbEntity
  8
0
100
AcDbCircle
 10
4.148234
 20
5.404395
 30
0.0
 40
0.009575
100
AcDbArc
 50
293.503032
 51
322.58068
  0
ARC
  5
248
330
1D
100
AcDbEntity
  8
0
100
AcDbCircle
 10
4.148234
 20
5.404395
 30
0.0
 40
0.009575
100
AcDbArc
 50
264.425384
 51
293.503032
  0
ARC
  5
249
330
1D
100
AcDbEntity
  8
0
100
AcDbCircle
 10
4.148634
 20
5.408487
 30
0.0
 40
0.013687
100
AcDbArc
 50
240.184669
 51
264.425384
  0
ARC
  5
24A
330
1D
100
AcDbEntity
  8
0
100
AcDbCircle
 10
4.150586
 20
5.411893
 30
0.0
 40
0.017612
100
AcDbArc
 50
220.650057
 51
240.184669
  0
ARC
  5
24B
330
1D
100
AcDbEntity
  8
0
100
AcDbCircle
 10
4.154527
 20
5.415278
 30
0.0
 40
0.022808
100
AcDbArc
 50
203.503032
 51
220.650057
  0
ARC
  5
24C
330
1D
100
AcDbEntity
  8
0
100
AcDbCircle
 10
4.154527
 20
5.415278
 30
0.0
 40
0.022808
100
AcDbArc
 50
186.356007
 51
203.503032
  0
ARC
  5
24D
330
1D
100
AcDbEntity
  8
0
100
AcDbCircle
 10
4.149364
 20
5.414703
 30
0.0
 40
0.017612
100
AcDbArc
 50
166.821396
 51
186.356007
  0
ARC
  5
24E
330
1D
100
AcDbEntity
  8
0
100
AcDbCircle
 10
4.145542
 20
5.415598
 30
0.0
 40
0.013687
100
AcDbArc
 50
142.58068
 51
166.821396
  0
ARC
  5
24F
330
1D
100
AcDbEntity
  8
0
100
AcDbCircle
 10
4.142276
 20
5.418096
 30
0.0
 40
0.009575
100
AcDbArc
 50
113.503032
 51
142.58068
  0
ARC
  5
250
330
1D
100
AcDbEntity
  8
0
100
AcDbCircle
 10
4.118989
 20
5.488754
 30
0.0
 40
0.022808
100
AcDbArc
 50
6.356007
 51
23.503032
  0
ARC
  5
251
330
1D
100
AcDbEntity
  8
0
100
AcDbCircle
 10
4.124152
 20
5.489329
 30
0.0
 40
0.017612
100
AcDbArc
 50
346.821396
 51
6.356007
  0
ARC
  5
252
330
1D
100
AcDbEntity
  8
0
100
AcDbCircle
 10
4.127974
 20
5.488434
 30
0.0
 40
0.013687
100
AcDbArc
 50
322.58068
 51
346.821396
  0
ARC
  5
253
330
1D
100
AcDbEntity
  8
0
100
AcDbCircle
 10
4.13124
 20
5.485936
 30
0.0
 40
0.009575
100
AcDbArc
 50
293.503032
 51
322.58068
  0
ARC
  5
254
330
1D
100
AcDbEntity
  8
0
100
AcDbCircle
 10
4.13124
 20
5.485936
 30
0.0
 40
0.009575
100
AcDbArc
 50
264.425384
 51
293.503032
  0
ARC
  5
255
330
1D
100
AcDbEntity
  8
0
100
AcDbCircle
 10
4.13164
 20
5.490028
 30
0.0
 40
0.013687
100
AcDbArc
 50
240.184669
 51
264.425384
  0
ARC
  5
256
330
1D
100
AcDbEntity
  8
0
100
AcDbCircle
 10
4.133592
 20
5.493434
 30
0.0
 40
0.017612
100
AcDbArc
 50
220.650057
 51
240.184669
  0
ARC
  5
257
330
1D
100
AcDbEntity
  8
0
100
AcDbCircle
 10
4.137533
 20
5.496819
 30
0.0
 40
0.022808
100
AcDbArc
 50
203.503032
 51
220.650057
  0
ARC
  5
258
330
1D
100
AcDbEntity
  8
0
100
AcDbCircle
 10
4.137533
 20
5.496819
 30
0.0
 40
0.022808
100
AcDbArc
 50
186.356007
 51
203.503032
  0
ARC
  5
259
330
1D
100
AcDbEntity
  8
0
100
AcDbCircle
 10
4.183545
 20
5.448645
 30
0.0
 40
0.009881
100
AcDbArc
 50
0.0
 51
21.599903
  0
LINE
  5
25A
330
1D
100
AcDbEntity
  8
0
100
AcDbLine
 10
4.193426000000001
 20
5.340861
 30
0.0
 11
4.193426000000001
 21
5.448645
 31
0.0
  0
ARC
  5
25B
330
1D
100
AcDbEntity
  8
0
100
AcDbCircle
 10
3.92529
 20
5.747504
 30
0.0
 40
0.011302
100
AcDbArc
 50
215.324476
 51
239.694346
  0
ARC
  5
25C
330
1D
100
AcDbEntity
  8
0
100
AcDbCircle
 10
3.92529
 20
5.754857
 30
0.0
 40
0.011302
100
AcDbArc
 50
120.305654
 51
144.675524
  0
LINE
  5
25D
330
1D
100
AcDbEntity
  8
0
100
AcDbLine
 10
3.87449
 20
5.717675
 30
0.0
 11
3.937605000000001
 21
5.590569
 31
0.0
  0
LINE
  5
25E
330
1D
100
AcDbEntity
  8
0
100
AcDbLine
 10
3.999568
 20
5.842853
 30
0.0
 11
3.881474
 21
5.774736
 31
0.0
  0
ARC
  5
25F
330
1D
100
AcDbEntity
  8
0
100
AcDbCircle
 10
3.928426
 20
5.749727
 30
0.0
 40
0.015146
100
AcDbArc
 50
196.359353
 51
215.324476
  0
ARC
  5
260
330
1D
100
AcDbEntity
  8
0
100
AcDbCircle
 10
3.933379
 20
5.751180000000001
 30
0.0
 40
0.020308
100
AcDbArc
 50
180.0
 51
196.359353
  0
ARC
  5
261
330
1D
100
AcDbEntity
  8
0
100
AcDbCircle
 10
3.933379
 20
5.751180000000001
 30
0.0
 40
0.020308
100
AcDbArc
 50
163.640647
 51
180.0
  0
ARC
  5
262
330
1D
100
AcDbEntity
  8
0
100
AcDbCircle
 10
3.928426
 20
5.752634
 30
0.0
 40
0.015146
100
AcDbArc
 50
144.675524
 51
163.640647
  0
LINE
  5
263
330
1D
100
AcDbEntity
  8
0
100
AcDbLine
 10
3.881474
 20
5.774736
 30
0.0
 11
3.87449
 21
5.717675
 31
0.0
  0
ARC
  5
264
330
1D
100
AcDbEntity
  8
0
100
AcDbCircle
 10
3.94511
 20
5.705591
 30
0.0
 40
0.011302
100
AcDbArc
 50
35.324476
 51
59.694346
  0
ARC
  5
265
330
1D
100
AcDbEntity
  8
0
100
AcDbCircle
 10
3.94908
 20
5.705591
 30
0.0
 40
0.011302
100
AcDbArc
 50
120.305654
 51
144.675524
  0
LINE
  5
266
330
1D
100
AcDbEntity
  8
0
100
AcDbLine
 10
3.999568
 20
5.842853
 30
0.0
 11
3.999568
 21
5.636642
 31
0.0
  0
ARC
  5
267
330
1D
100
AcDbEntity
  8
0
100
AcDbCircle
 10
3.975995
 20
5.654624
 30
0.0
 40
0.007369
100
AcDbArc
 50
59.694346
 51
90.0
  0
ARC
  5
268
330
1D
100
AcDbEntity
  8
0
100
AcDbCircle
 10
3.97401
 20
5.651228
 30
0.0
 40
0.011302
100
AcDbArc
 50
35.324476
 51
59.694346
  0
ARC
  5
269
330
1D
100
AcDbEntity
  8
0
100
AcDbCircle
 10
3.970874
 20
5.649005000000001
 30
0.0
 40
0.015146
100
AcDbArc
 50
16.359353
 51
35.324476
  0
ARC
  5
26A
330
1D
100
AcDbEntity
  8
0
100
AcDbCircle
 10
3.965921
 20
5.647551
 30
0.0
 40
0.020308
100
AcDbArc
 50
0.0
 51
16.359353
  0
ARC
  5
26B
330
1D
100
AcDbEntity
  8
0
100
AcDbCircle
 10
3.965921
 20
5.647551
 30
0.0
 40
0.020308
100
AcDbArc
 50
343.640647
 51
0.0
  0
ARC
  5
26C
330
1D
100
AcDbEntity
  8
0
100
AcDbCircle
 10
3.970874
 20
5.646098
 30
0.0
 40
0.015146
100
AcDbArc
 50
324.675524
 51
343.640647
  0
ARC
  5
26D
330
1D
100
AcDbEntity
  8
0
100
AcDbCircle
 10
3.97401
 20
5.643875
 30
0.0
 40
0.011302
100
AcDbArc
 50
300.305654
 51
324.675524
  0
ARC
  5
26E
330
1D
100
AcDbEntity
  8
0
100
AcDbCircle
 10
3.975995
 20
5.640479
 30
0.0
 40
0.007369
100
AcDbArc
 50
270.0
 51
300.305654
  0
ARC
  5
26F
330
1D
100
AcDbEntity
  8
0
100
AcDbCircle
 10
3.975995
 20
5.640479
 30
0.0
 40
0.007369
100
AcDbArc
 50
239.694346
 51
270.0
  0
ARC
  5
270
330
1D
100
AcDbEntity
  8
0
100
AcDbCircle
 10
3.977979
 20
5.643875
 30
0.0
 40
0.011302
100
AcDbArc
 50
215.324476
 51
239.694346
  0
ARC
  5
271
330
1D
100
AcDbEntity
  8
0
100
AcDbCircle
 10
3.981116000000001
 20
5.646098
 30
0.0
 40
0.015146
100
AcDbArc
 50
196.359353
 51
215.324476
  0
ARC
  5
272
330
1D
100
AcDbEntity
  8
0
100
AcDbCircle
 10
3.986068
 20
5.647551
 30
0.0
 40
0.020308
100
AcDbArc
 50
180.0
 51
196.359353
  0
ARC
  5
273
330
1D
100
AcDbEntity
  8
0
100
AcDbCircle
 10
3.986068
 20
5.647551
 30
0.0
 40
0.020308
100
AcDbArc
 50
163.640647
 51
180.0
  0
ARC
  5
274
330
1D
100
AcDbEntity
  8
0
100
AcDbCircle
 10
3.981116000000001
 20
5.649005000000001
 30
0.0
 40
0.015146
100
AcDbArc
 50
144.675524
 51
163.640647
  0
ARC
  5
275
330
1D
100
AcDbEntity
  8
0
100
AcDbCircle
 10
3.977979
 20
5.651228
 30
0.0
 40
0.011302
100
AcDbArc
 50
120.305654
 51
144.675524
  0
ARC
  5
276
330
1D
100
AcDbEntity
  8
0
100
AcDbCircle
 10
3.975995
 20
5.654624
 30
0.0
 40
0.007369
100
AcDbArc
 50
90.0
 51
120.305654
  0
ARC
  5
277
330
1D
100
AcDbEntity
  8
0
100
AcDbCircle
 10
3.941974
 20
5.703369
 30
0.0
 40
0.015146
100
AcDbArc
 50
16.359353
 51
35.324476
  0
ARC
  5
278
330
1D
100
AcDbEntity
  8
0
100
AcDbCircle
 10
3.937021
 20
5.701915000000001
 30
0.0
 40
0.020308
100
AcDbArc
 50
0.0
 51
16.359353
  0
ARC
  5
279
330
1D
100
AcDbEntity
  8
0
100
AcDbCircle
 10
3.937021
 20
5.701915000000001
 30
0.0
 40
0.020308
100
AcDbArc
 50
343.640647
 51
0.0
  0
ARC
  5
27A
330
1D
100
AcDbEntity
  8
0
100
AcDbCircle
 10
3.941974
 20
5.700461
 30
0.0
 40
0.015146
100
AcDbArc
 50
324.675524
 51
343.640647
  0
ARC
  5
27B
330
1D
100
AcDbEntity
  8
0
100
AcDbCircle
 10
3.94511
 20
5.698238
 30
0.0
 40
0.011302
100
AcDbArc
 50
300.305654
 51
324.675524
  0
ARC
  5
27C
330
1D
100
AcDbEntity
  8
0
100
AcDbCircle
 10
3.947095
 20
5.694843
 30
0.0
 40
0.007369
100
AcDbArc
 50
270.0
 51
300.305654
  0
ARC
  5
27D
330
1D
100
AcDbEntity
  8
0
100
AcDbCircle
 10
3.947095
 20
5.694843
 30
0.0
 40
0.007369
100
AcDbArc
 50
239.694346
 51
270.0
  0
ARC
  5
27E
330
1D
100
AcDbEntity
  8
0
100
AcDbCircle
 10
3.94908
 20
5.698238
 30
0.0
 40
0.011302
100
AcDbArc
 50
215.324476
 51
239.694346
  0
ARC
  5
27F
330
1D
100
AcDbEntity
  8
0
100
AcDbCircle
 10
3.952216
 20
5.700461
 30
0.0
 40
0.015146
100
AcDbArc
 50
196.359353
 51
215.324476
  0
ARC
  5
280
330
1D
100
AcDbEntity
  8
0
100
AcDbCircle
 10
3.957169
 20
5.701915000000001
 30
0.0
 40
0.020308
100
AcDbArc
 50
180.0
 51
196.359353
  0
ARC
  5
281
330
1D
100
AcDbEntity
  8
0
100
AcDbCircle
 10
3.957169
 20
5.701915000000001
 30
0.0
 40
0.020308
100
AcDbArc
 50
163.640647
 51
180.0
  0
ARC
  5
282
330
1D
100
AcDbEntity
  8
0
100
AcDbCircle
 10
3.952216
 20
5.703369
 30
0.0
 40
0.015146
100
AcDbArc
 50
144.675524
 51
163.640647
  0
LINE
  5
283
330
1D
100
AcDbEntity
  8
0
100
AcDbLine
 10
3.937605000000001
 20
5.590569
 30
0.0
 11
3.992456
 21
5.595141
 31
0.0
  0
LINE
  5
284
330
1D
100
AcDbEntity
  8
0
100
AcDbLine
 10
3.992456
 20
5.595141
 30
0.0
 11
3.981894
 21
5.588991
 31
0.0
  0
LINE
  5
285
330
1D
100
AcDbEntity
  8
0
100
AcDbLine
 10
3.987586
 20
5.596753
 30
0.0
 11
3.992456
 21
5.595141
 31
0.0
  0
ARC
  5
286
330
1D
100
AcDbEntity
  8
0
100
AcDbCircle
 10
4.045411
 20
5.523422
 30
0.0
 40
0.009575
100
AcDbArc
 50
84.42538399999999
 51
113.503032
  0
ARC
  5
287
330
1D
100
AcDbEntity
  8
0
100
AcDbCircle
 10
4.045011
 20
5.519329
 30
0.0
 40
0.013687
100
AcDbArc
 50
60.184669
 51
84.42538399999999
  0
ARC
  5
288
330
1D
100
AcDbEntity
  8
0
100
AcDbCircle
 10
4.043059
 20
5.515923
 30
0.0
 40
0.017612
100
AcDbArc
 50
40.650057
 51
60.184669
  0
ARC
  5
289
330
1D
100
AcDbEntity
  8
0
100
AcDbCircle
 10
4.039117
 20
5.512539
 30
0.0
 40
0.022808
100
AcDbArc
 50
23.503032
 51
40.650057
  0
ARC
  5
28A
330
1D
100
AcDbEntity
  8
0
100
AcDbCircle
 10
4.039117
 20
5.512539
 30
0.0
 40
0.022808
100
AcDbArc
 50
6.356007
 51
23.503032
  0
ARC
  5
28B
330
1D
100
AcDbEntity
  8
0
100
AcDbCircle
 10
4.044281
 20
5.513114
 30
0.0
 40
0.017612
100
AcDbArc
 50
346.821396
 51
6.356007
  0
ARC
  5
28C
330
1D
100
AcDbEntity
  8
0
100
AcDbCircle
 10
4.048103
 20
5.512219
 30
0.0
 40
0.013687
100
AcDbArc
 50
322.58068
 51
346.821396
  0
ARC
  5
28D
330
1D
100
AcDbEntity
  8
0
100
AcDbCircle
 10
4.051369
 20
5.50972
 30
0.0
 40
0.009575
100
AcDbArc
 50
293.503032
 51
322.58068
  0
ARC
  5
28E
330
1D
100
AcDbEntity
  8
0
100
AcDbCircle
 10
4.053719999999999
 20
5.517219
 30
0.0
 40
0.017612
100
AcDbArc
 50
220.650057
 51
240.184669
  0
ARC
  5
28F
330
1D
100
AcDbEntity
  8
0
100
AcDbCircle
 10
4.057662000000001
 20
5.520603
 30
0.0
 40
0.022808
100
AcDbArc
 50
203.503032
 51
220.650057
  0
ARC
  5
290
330
1D
100
AcDbEntity
  8
0
100
AcDbCircle
 10
4.057662000000001
 20
5.520603
 30
0.0
 40
0.022808
100
AcDbArc
 50
186.356007
 51
203.503032
  0
ARC
  5
291
330
1D
100
AcDbEntity
  8
0
100
AcDbCircle
 10
4.052499
 20
5.520028
 30
0.0
 40
0.017612
100
AcDbArc
 50
166.821396
 51
186.356007
  0
ARC
  5
292
330
1D
100
AcDbEntity
  8
0
100
AcDbCircle
 10
4.048676
 20
5.520923000000001
 30
0.0
 40
0.013687
100
AcDbArc
 50
142.58068
 51
166.821396
  0
ARC
  5
293
330
1D
100
AcDbEntity
  8
0
100
AcDbCircle
 10
4.045411
 20
5.523422
 30
0.0
 40
0.009575
100
AcDbArc
 50
113.503032
 51
142.58068
  0
LINE
  5
294
330
1D
100
AcDbEntity
  8
0
100
AcDbLine
 10
4.062658
 20
5.780814
 30
0.0
 11
3.999568
 21
5.842853
 31
0.0
  0
ARC
  5
295
330
1D
100
AcDbEntity
  8
0
100
AcDbCircle
 10
3.975995
 20
5.790536
 30
0.0
 40
0.007369
100
AcDbArc
 50
59.694346
 51
90.0
  0
ARC
  5
296
330
1D
100
AcDbEntity
  8
0
100
AcDbCircle
 10
3.97401
 20
5.787141
 30
0.0
 40
0.011302
100
AcDbArc
 50
35.324476
 51
59.694346
  0
ARC
  5
297
330
1D
100
AcDbEntity
  8
0
100
AcDbCircle
 10
3.970874
 20
5.784918
 30
0.0
 40
0.015146
100
AcDbArc
 50
16.359353
 51
35.324476
  0
ARC
  5
298
330
1D
100
AcDbEntity
  8
0
100
AcDbCircle
 10
3.965921
 20
5.783464
 30
0.0
 40
0.020308
100
AcDbArc
 50
0.0
 51
16.359353
  0
ARC
  5
299
330
1D
100
AcDbEntity
  8
0
100
AcDbCircle
 10
3.965921
 20
5.783464
 30
0.0
 40
0.020308
100
AcDbArc
 50
343.640647
 51
0.0
  0
ARC
  5
29A
330
1D
100
AcDbEntity
  8
0
100
AcDbCircle
 10
3.970874
 20
5.78201
 30
0.0
 40
0.015146
100
AcDbArc
 50
324.675524
 51
343.640647
  0
ARC
  5
29B
330
1D
100
AcDbEntity
  8
0
100
AcDbCircle
 10
3.97401
 20
5.779788
 30
0.0
 40
0.011302
100
AcDbArc
 50
300.305654
 51
324.675524
  0
ARC
  5
29C
330
1D
100
AcDbEntity
  8
0
100
AcDbCircle
 10
3.975995
 20
5.776392
 30
0.0
 40
0.007369
100
AcDbArc
 50
270.0
 51
300.305654
  0
ARC
  5
29D
330
1D
100
AcDbEntity
  8
0
100
AcDbCircle
 10
3.975995
 20
5.776392
 30
0.0
 40
0.007369
100
AcDbArc
 50
239.694346
 51
270.0
  0
ARC
  5
29E
330
1D
100
AcDbEntity
  8
0
100
AcDbCircle
 10
3.977979
 20
5.779788
 30
0.0
 40
0.011302
100
AcDbArc
 50
215.324476
 51
239.694346
  0
ARC
  5
29F
330
1D
100
AcDbEntity
  8
0
100
AcDbCircle
 10
3.981116000000001
 20
5.78201
 30
0.0
 40
0.015146
100
AcDbArc
 50
196.359353
 51
215.324476
  0
ARC
  5
2A0
330
1D
100
AcDbEntity
  8
0
100
AcDbCircle
 10
3.986068
 20
5.783464
 30
0.0
 40
0.020308
100
AcDbArc
 50
180.0
 51
196.359353
  0
ARC
  5
2A1
330
1D
100
AcDbEntity
  8
0
100
AcDbCircle
 10
3.986068
 20
5.783464
 30
0.0
 40
0.020308
100
AcDbArc
 50
163.640647
 51
180.0
  0
ARC
  5
2A2
330
1D
100
AcDbEntity
  8
0
100
AcDbCircle
 10
3.981116000000001
 20
5.784918
 30
0.0
 40
0.015146
100
AcDbArc
 50
144.675524
 51
163.640647
  0
ARC
  5
2A3
330
1D
100
AcDbEntity
  8
0
100
AcDbCircle
 10
3.977979
 20
5.787141
 30
0.0
 40
0.011302
100
AcDbArc
 50
120.305654
 51
144.675524
  0
ARC
  5
2A4
330
1D
100
AcDbEntity
  8
0
100
AcDbCircle
 10
3.975995
 20
5.790536
 30
0.0
 40
0.007369
100
AcDbArc
 50
90.0
 51
120.305654
  0
ARC
  5
2A5
330
1D
100
AcDbEntity
  8
0
100
AcDbCircle
 10
3.923305000000001
 20
5.758253
 30
0.0
 40
0.007369
100
AcDbArc
 50
59.694346
 51
90.0
  0
ARC
  5
2A6
330
1D
100
AcDbEntity
  8
0
100
AcDbCircle
 10
3.921321
 20
5.754857
 30
0.0
 40
0.011302
100
AcDbArc
 50
35.324476
 51
59.694346
  0
ARC
  5
2A7
330
1D
100
AcDbEntity
  8
0
100
AcDbCircle
 10
3.918184
 20
5.752634
 30
0.0
 40
0.015146
100
AcDbArc
 50
16.359353
 51
35.324476
  0
ARC
  5
2A8
330
1D
100
AcDbEntity
  8
0
100
AcDbCircle
 10
3.913232
 20
5.751180000000001
 30
0.0
 40
0.020308
100
AcDbArc
 50
0.0
 51
16.359353
  0
ARC
  5
2A9
330
1D
100
AcDbEntity
  8
0
100
AcDbCircle
 10
3.913232
 20
5.751180000000001
 30
0.0
 40
0.020308
100
AcDbArc
 50
343.640647
 51
0.0
  0
ARC
  5
2AA
330
1D
100
AcDbEntity
  8
0
100
AcDbCircle
 10
3.918184
 20
5.749727
 30
0.0
 40
0.015146
100
AcDbArc
 50
324.675524
 51
343.640647
  0
ARC
  5
2AB
330
1D
100
AcDbEntity
  8
0
100
AcDbCircle
 10
3.921321
 20
5.747504
 30
0.0
 40
0.011302
100
AcDbArc
 50
300.305654
 51
324.675524
  0
ARC
  5
2AC
330
1D
100
AcDbEntity
  8
0
100
AcDbCircle
 10
3.923305000000001
 20
5.744108
 30
0.0
 40
0.007369
100
AcDbArc
 50
270.0
 51
300.305654
  0
ARC
  5
2AD
330
1D
100
AcDbEntity
  8
0
100
AcDbCircle
 10
3.923305000000001
 20
5.744108
 30
0.0
 40
0.007369
100
AcDbArc
 50
239.694346
 51
270.0
  0
ARC
  5
2AE
330
1D
100
AcDbEntity
  8
0
100
AcDbCircle
 10
3.923305000000001
 20
5.758253
 30
0.0
 40
0.007369
100
AcDbArc
 50
90.0
 51
120.305654
  0
ARC
  5
2AF
330
1D
100
AcDbEntity
  8
0
100
AcDbCircle
 10
3.947095
 20
5.708987000000001
 30
0.0
 40
0.007369
100
AcDbArc
 50
59.694346
 51
90.0
  0
ARC
  5
2B0
330
1D
100
AcDbEntity
  8
0
100
AcDbCircle
 10
3.947095
 20
5.708987000000001
 30
0.0
 40
0.007369
100
AcDbArc
 50
90.0
 51
120.305654
  0
ARC
  5
2B1
330
1D
100
AcDbEntity
  8
0
100
AcDbCircle
 10
4.125282
 20
5.499637
 30
0.0
 40
0.009575
100
AcDbArc
 50
84.42538399999999
 51
113.503032
  0
ARC
  5
2B2
330
1D
100
AcDbEntity
  8
0
100
AcDbCircle
 10
4.124882
 20
5.495545
 30
0.0
 40
0.013687
100
AcDbArc
 50
60.184669
 51
84.42538399999999
  0
ARC
  5
2B3
330
1D
100
AcDbEntity
  8
0
100
AcDbCircle
 10
4.12293
 20
5.492139
 30
0.0
 40
0.017612
100
AcDbArc
 50
40.650057
 51
60.184669
  0
ARC
  5
2B4
330
1D
100
AcDbEntity
  8
0
100
AcDbCircle
 10
4.128548
 20
5.497139
 30
0.0
 40
0.013687
100
AcDbArc
 50
142.58068
 51
166.821396
  0
ARC
  5
2B5
330
1D
100
AcDbEntity
  8
0
100
AcDbCircle
 10
4.125282
 20
5.499637
 30
0.0
 40
0.009575
100
AcDbArc
 50
113.503032
 51
142.58068
  0
ENDBLK
  5
2B8
330
1D
100
AcDbEntity
  8
0
100
AcDbBlockEnd
  0
ENDSEC
  0
SECTION
  2
ENTITIES
  0
LINE
  5
2B9
330
18
100
AcDbEntity
  8
0
100
AcDbLine
 10
2.800153568187287
 20
5.824549752673613
 30
0.0
 11
3.339245123553813
 21
5.642409182173235
 31
0.0
  0
LINE
  5
2BA
330
18
100
AcDbEntity
  8
0
100
AcDbLine
 10
2.800153568187287
 20
5.824549752673613
 30
0.0
 11
2.800153568187287
 21
5.989639752673613
 31
0.0
  0
LINE
  5
2BB
330
18
100
AcDbEntity
  8
0
100
AcDbLine
 10
2.800153568187287
 20
5.989639752673613
 30
0.0
 11
3.234738568187288
 21
5.845848752673613
 31
0.0
  0
LINE
  5
2BC
330
18
100
AcDbEntity
  8
0
100
AcDbLine
 10
7.510149
 20
4.220253
 30
0.0
 11
7.510149
 21
4.431238
 31
0.0
  0
LINE
  5
2BD
330
18
100
AcDbEntity
  8
0
100
AcDbLine
 10
7.510149
 20
4.431238
 30
0.0
 11
7.604241004019883
 21
4.530040047069238
 31
0.0
  0
LINE
  5
2BE
330
18
100
AcDbEntity
  8
0
100
AcDbLine
 10
7.857068004019883
 20
4.592644047069237
 30
0.0
 11
7.857068004019883
 21
4.795522047069237
 31
0.0
  0
LINE
  5
2BF
330
18
100
AcDbEntity
  8
0
100
AcDbLine
 10
7.839000004019883
 20
4.573341047069237
 30
0.0
 11
7.857068004019883
 21
4.592644047069237
 31
0.0
  0
LINE
  5
2C0
330
18
100
AcDbEntity
  8
0
100
AcDbLine
 10
7.857068004019883
 20
4.592644047069237
 30
0.0
 11
8.146444004019884
 21
4.489185047069237
 31
0.0
  0
LINE
  5
2C1
330
18
100
AcDbEntity
  8
0
100
AcDbLine
 10
7.604241004019883
 20
4.530040047069237
 30
0.0
 11
7.559705004019883
 21
4.605259047069237
 31
0.0
  0
LINE
  5
2C2
330
18
100
AcDbEntity
  8
0
100
AcDbLine
 10
7.559705004019883
 20
4.605259047069237
 30
0.0
 11
7.839000004019883
 21
4.585349047069237
 31
0.0
  0
LINE
  5
2C3
330
18
100
AcDbEntity
  8
0
100
AcDbLine
 10
7.839000004019883
 20
4.585349047069237
 30
0.0
 11
7.755969004019883
 21
4.689363047069237
 31
0.0
  0
LINE
  5
2C4
330
18
100
AcDbEntity
  8
0
100
AcDbLine
 10
7.755969004019883
 20
4.689363047069237
 30
0.0
 11
7.857068004019883
 21
4.795522047069237
 31
0.0
  0
LINE
  5
2C5
330
18
100
AcDbEntity
  8
0
100
AcDbLine
 10
7.839000004019883
 20
4.585349047069237
 30
0.0
 11
7.839000004019883
 21
4.381137047069236
 31
0.0
  0
LINE
  5
2C6
330
18
100
AcDbEntity
  8
0
100
AcDbLine
 10
7.839000004019883
 20
4.381137047069236
 30
0.0
 11
7.604241004019883
 21
4.408384047069237
 31
0.0
  0
LINE
  5
2C7
330
18
100
AcDbEntity
  8
0
100
AcDbLine
 10
7.604241004019883
 20
4.530040047069237
 30
0.0
 11
7.604241004019883
 21
4.320776966368718
 31
0.0
  0
LINE
  5
2C8
330
18
100
AcDbEntity
  8
0
100
AcDbLine
 10
7.604241004019883
 20
4.320776966368718
 30
0.0
 11
7.510149
 21
4.220253
 31
0.0
  0
LINE
  5
2C9
330
18
100
AcDbEntity
  8
0
100
AcDbLine
 10
7.857068004019883
 20
4.729017047069237
 30
0.0
 11
7.816933004019883
 21
4.697456047069237
 31
0.0
  0
LINE
  5
2CA
330
18
100
AcDbEntity
  8
0
100
AcDbLine
 10
7.816933004019883
 20
4.697456047069237
 30
0.0
 11
7.769719004019883
 21
4.672139047069237
 31
0.0
  0
LINE
  5
2CB
330
18
100
AcDbEntity
  8
0
100
AcDbLine
 10
7.795131004019884
 20
4.640304047069237
 30
0.0
 11
7.857068004019883
 21
4.684296047069237
 31
0.0
  0
LINE
  5
2CC
330
18
100
AcDbEntity
  8
0
100
AcDbLine
 10
7.857068004019883
 20
4.633432047069237
 30
0.0
 11
7.813635004019883
 21
4.617125047069236
 31
0.0
  0
LINE
  5
2CD
330
18
100
AcDbEntity
  8
0
100
AcDbLine
 10
2.800153568187287
 20
5.989639752673613
 30
0.0
 11
2.917754312090731
 21
6.035298526791922
 31
0.0
  0
LINE
  5
2CE
330
18
100
AcDbEntity
  8
0
100
AcDbLine
 10
4.885315
 20
3.806301
 30
0.0
 11
7.106551
 21
7.431736999999999
 31
0.0
  0
LINE
  5
2CF
330
18
100
AcDbEntity
  8
0
100
AcDbLine
 10
7.607603999999999
 20
8.249542
 30
0.0
 11
7.607603999999999
 21
8.050834630405154
 31
0.0
  0
LINE
  5
2D0
330
18
100
AcDbEntity
  8
0
100
AcDbLine
 10
4.725576
 20
3.879893
 30
0.0
 11
6.930509
 21
7.423027
 31
0.0
  0
LINE
  5
2D1
330
18
100
AcDbEntity
  8
0
100
AcDbLine
 10
4.885315
 20
3.806301
 30
0.0
 11
4.885315
 21
3.017816
 31
0.0
  0
LINE
  5
2D2
330
18
100
AcDbEntity
  8
0
100
AcDbLine
 10
4.885315
 20
3.017816
 30
0.0
 11
6.008834019432734
 21
4.933884490227215
 31
0.0
  0
LINE
  5
2D3
330
18
100
AcDbEntity
  8
0
100
AcDbLine
 10
4.885315
 20
3.806301
 30
0.0
 11
4.725576
 21
3.879893
 31
0.0
  0
LINE
  5
2D4
330
18
100
AcDbEntity
  8
0
100
AcDbLine
 10
4.725576
 20
3.879893
 30
0.0
 11
4.725576
 21
3.091408
 31
0.0
  0
LINE
  5
2D5
330
18
100
AcDbEntity
  8
0
100
AcDbLine
 10
4.725576
 20
3.091408
 30
0.0
 11
4.885315
 21
3.017816
 31
0.0
  0
LINE
  5
2D6
330
18
100
AcDbEntity
  8
0
100
AcDbLine
 10
6.774967999999999
 20
6.240461
 30
0.0
 11
7.291764
 21
6.613169
 31
0.0
  0
LINE
  5
2D7
330
18
100
AcDbEntity
  8
0
100
AcDbLine
 10
6.702136425658782
 20
6.054024220697603
 30
0.0
 11
7.433934
 21
6.577686999999999
 31
0.0
  0
LINE
  5
2D8
330
18
100
AcDbEntity
  8
0
100
AcDbLine
 10
7.433934
 20
6.577686999999999
 30
0.0
 11
7.433934
 21
6.406733999999999
 31
0.0
  0
LINE
  5
2D9
330
18
100
AcDbEntity
  8
0
100
AcDbLine
 10
7.291764
 20
6.613169
 30
0.0
 11
7.433934
 21
6.577686999999999
 31
0.0
  0
LINE
  5
2DA
330
18
100
AcDbEntity
  8
0
100
AcDbLine
 10
6.155902013896283
 20
4.879319633195101
 30
0.0
 11
7.510149
 21
4.431238
 31
0.0
  0
LINE
  5
2DB
330
18
100
AcDbEntity
  8
0
100
AcDbLine
 10
4.249770239222696
 20
8.6744024394627
 30
0.0
 11
7.828533999999999
 21
7.97777
 31
0.0
  0
LINE
  5
2DC
330
18
100
AcDbEntity
  8
0
100
AcDbLine
 10
7.828533999999999
 20
7.97777
 30
0.0
 11
7.593497
 21
7.545925
 31
0.0
  0
LINE
  5
2DD
330
18
100
AcDbEntity
  8
0
100
AcDbLine
 10
3.177048
 20
7.548277000000001
 30
0.0
 11
5.715587999999999
 21
7.713454
 31
0.0
  0
LINE
  5
2DE
330
18
100
AcDbEntity
  8
0
100
AcDbLine
 10
5.715587999999999
 20
7.713454
 30
0.0
 11
6.453435
 21
7.489517
 31
0.0
  0
LINE
  5
2DF
330
18
100
AcDbEntity
  8
0
100
AcDbLine
 10
6.453435
 20
7.489517
 30
0.0
 11
7.593497
 21
7.545925
 31
0.0
  0
LINE
  5
2E0
330
18
100
AcDbEntity
  8
0
100
AcDbLine
 10
3.177048
 20
7.458183
 30
0.0
 11
5.715587999999999
 21
7.623359
 31
0.0
  0
LINE
  5
2E1
330
18
100
AcDbEntity
  8
0
100
AcDbLine
 10
6.453435
 20
7.399422
 30
0.0
 11
7.593497
 21
7.455830000000001
 31
0.0
  0
LINE
  5
2E2
330
18
100
AcDbEntity
  8
0
100
AcDbLine
 10
5.715587999999999
 20
7.623359
 30
0.0
 11
6.453435
 21
7.399422
 31
0.0
  0
LINE
  5
2E3
330
18
100
AcDbEntity
  8
0
100
AcDbLine
 10
3.177048
 20
7.548277000000001
 30
0.0
 11
3.177048
 21
7.458183
 31
0.0
  0
LINE
  5
2E4
330
18
100
AcDbEntity
  8
0
100
AcDbLine
 10
5.715587999999999
 20
7.713454
 30
0.0
 11
5.715587999999999
 21
7.623359
 31
0.0
  0
LINE
  5
2E5
330
18
100
AcDbEntity
  8
0
100
AcDbLine
 10
6.453435
 20
7.489517
 30
0.0
 11
6.453435
 21
7.399422
 31
0.0
  0
LINE
  5
2E6
330
18
100
AcDbEntity
  8
0
100
AcDbLine
 10
7.593497
 20
7.545925
 30
0.0
 11
7.593497
 21
7.455830000000001
 31
0.0
  0
LINE
  5
2E7
330
18
100
AcDbEntity
  8
0
100
AcDbLine
 10
7.828533999999999
 20
7.887675
 30
0.0
 11
7.593497
 21
7.455830000000001
 31
0.0
  0
LINE
  5
2E8
330
18
100
AcDbEntity
  8
0
100
AcDbLine
 10
7.828533999999999
 20
7.97777
 30
0.0
 11
7.828533999999999
 21
7.887675
 31
0.0
  0
LINE
  5
2E9
330
18
100
AcDbEntity
  8
0
100
AcDbLine
 10
7.335461000000001
 20
8.07375
 30
0.0
 11
7.461617
 21
8.276471000000001
 31
0.0
  0
LINE
  5
2EA
330
18
100
AcDbEntity
  8
0
100
AcDbLine
 10
7.482378
 20
8.045152
 30
0.0
 11
7.607603999999999
 21
8.249542
 31
0.0
  0
LINE
  5
2EB
330
18
100
AcDbEntity
  8
0
100
AcDbLine
 10
5.790762
 20
8.588550999999999
 30
0.0
 11
5.648427
 21
8.402144
 31
0.0
  0
LINE
  5
2EC
330
18
100
AcDbEntity
  8
0
100
AcDbLine
 10
2.774042
 20
3.941854
 30
0.0
 11
3.98601
 21
5.594604
 31
0.0
  0
LINE
  5
2ED
330
18
100
AcDbEntity
  8
0
100
AcDbLine
 10
2.602845
 20
4.009816000000001
 30
0.0
 11
2.602845
 21
4.691127
 31
0.0
  0
LINE
  5
2EE
330
18
100
AcDbEntity
  8
0
100
AcDbLine
 10
2.774042
 20
3.941854
 30
0.0
 11
2.774042
 21
4.623184999999999
 31
0.0
  0
LINE
  5
2EF
330
18
100
AcDbEntity
  8
0
100
AcDbLine
 10
5.790762
 20
8.588550999999999
 30
0.0
 11
5.790762
 21
8.431284913639789
 31
0.0
  0
LINE
  5
2F0
330
18
100
AcDbEntity
  8
0
100
AcDbLine
 10
5.498226
 20
8.431381
 30
0.0
 11
5.641477
 21
8.616434
 31
0.0
  0
LINE
  5
2F1
330
18
100
AcDbEntity
  8
0
100
AcDbLine
 10
5.019174
 20
7.578045
 30
0.0
 11
2.774042
 21
4.623184999999999
 31
0.0
  0
LINE
  5
2F2
330
18
100
AcDbEntity
  8
0
100
AcDbLine
 10
7.433934
 20
6.406733999999999
 30
0.0
 11
7.385852000000001
 21
6.328695
 31
0.0
  0
LINE
  5
2F3
330
18
100
AcDbEntity
  8
0
100
AcDbLine
 10
7.385852000000001
 20
6.328695
 30
0.0
 11
7.514005
 21
6.275691
 31
0.0
  0
LINE
  5
2F4
330
18
100
AcDbEntity
  8
0
100
AcDbLine
 10
7.514005
 20
6.275691
 30
0.0
 11
7.433934
 21
6.177341999999999
 31
0.0
  0
LINE
  5
2F5
330
18
100
AcDbEntity
  8
0
100
AcDbLine
 10
7.433934
 20
6.177341999999999
 30
0.0
 11
7.433934
 21
6.031869
 31
0.0
  0
LINE
  5
2F6
330
18
100
AcDbEntity
  8
0
100
AcDbLine
 10
4.18377108491421
 20
5.344123362781828
 30
0.0
 11
5.384352
 21
4.938488
 31
0.0
  0
LINE
  5
2F7
330
18
100
AcDbEntity
  8
0
100
AcDbLine
 10
4.822236
 20
6.734959
 30
0.0
 11
5.452071
 21
7.079181
 31
0.0
  0
LINE
  5
2F8
330
18
100
AcDbEntity
  8
0
100
AcDbLine
 10
5.605755
 20
7.043914
 30
0.0
 11
4.685555
 21
6.548568
 31
0.0
  0
LINE
  5
2F9
330
18
100
AcDbEntity
  8
0
100
AcDbLine
 10
5.605755
 20
6.534598
 30
0.0
 11
4.183771084914211
 21
5.706548597868187
 31
0.0
  0
LINE
  5
2FA
330
18
100
AcDbEntity
  8
0
100
AcDbLine
 10
5.605755
 20
7.043914
 30
0.0
 11
5.605755
 21
6.902669
 31
0.0
  0
LINE
  5
2FB
330
18
100
AcDbEntity
  8
0
100
AcDbLine
 10
5.605755
 20
7.043914
 30
0.0
 11
5.452071
 21
7.079181
 31
0.0
  0
LINE
  5
2FC
330
18
100
AcDbEntity
  8
0
100
AcDbLine
 10
4.429441866724796
 20
5.849607560660489
 30
0.0
 11
5.678936004019883
 21
5.465355047069237
 31
0.0
  0
LINE
  5
2FD
330
18
100
AcDbEntity
  8
0
100
AcDbLine
 10
5.605755
 20
6.902669
 30
0.0
 11
5.550777
 21
6.810461999999999
 31
0.0
  0
LINE
  5
2FE
330
18
100
AcDbEntity
  8
0
100
AcDbLine
 10
5.550777
 20
6.810461999999999
 30
0.0
 11
5.65991
 21
6.75745
 31
0.0
  0
LINE
  5
2FF
330
18
100
AcDbEntity
  8
0
100
AcDbLine
 10
5.65991
 20
6.75745
 30
0.0
 11
5.605755
 21
6.700448
 31
0.0
  0
LINE
  5
300
330
18
100
AcDbEntity
  8
0
100
AcDbLine
 10
5.605755
 20
6.700448
 30
0.0
 11
5.605755
 21
6.534598
 31
0.0
  0
LINE
  5
301
330
18
100
AcDbEntity
  8
0
100
AcDbLine
 10
2.602845
 20
4.691127
 30
0.0
 11
2.774042
 21
4.623184999999999
 31
0.0
  0
LINE
  5
302
330
18
100
AcDbEntity
  8
0
100
AcDbLine
 10
2.602845
 20
4.009816000000001
 30
0.0
 11
2.770809
 21
3.943157
 31
0.0
  0
LINE
  5
303
330
18
100
AcDbEntity
  8
0
100
AcDbLine
 10
7.461617
 20
8.276471000000001
 30
0.0
 11
7.599309
 21
8.250753
 31
0.0
  0
LINE
  5
304
330
18
100
AcDbEntity
  8
0
100
AcDbLine
 10
5.641477
 20
8.616434
 30
0.0
 11
5.790762
 21
8.588550999999999
 31
0.0
  0
LINE
  5
305
330
18
100
AcDbEntity
  8
0
100
AcDbLine
 10
2.800153568187287
 20
5.989639752673613
 30
0.0
 11
3.443309
 21
5.776838
 31
0.0
  0
LINE
  5
306
330
18
100
AcDbEntity
  8
0
100
AcDbLine
 10
6.102140622867335
 20
5.093009364685309
 30
0.0
 11
6.32743382213298
 21
5.477227903927416
 31
0.0
  0
LINE
  5
307
330
18
100
AcDbEntity
  8
0
100
AcDbLine
 10
6.123091677492144
 20
5.009733520226568
 30
0.0
 11
7.433934
 21
6.031869
 31
0.0
  0
LINE
  5
308
330
18
100
AcDbEntity
  8
0
100
AcDbLine
 10
4.183771084914211
 20
5.864289617648108
 30
0.0
 11
4.27935027103613
 21
5.994630124244851
 31
0.0
  0
LINE
  5
309
330
18
100
AcDbEntity
  8
0
100
AcDbLine
 10
4.183771084914211
 20
5.531840502365903
 30
0.0
 11
5.485558
 21
5.101117
 31
0.0
  0
LINE
  5
30A
330
18
100
AcDbEntity
  8
0
100
AcDbLine
 10
3.149090312090731
 20
6.127767526791923
 30
0.0
 11
2.917754312090731
 21
6.158519526791924
 31
0.0
  0
LINE
  5
30B
330
18
100
AcDbEntity
  8
0
100
AcDbLine
 10
2.917754312090731
 20
6.158519526791924
 30
0.0
 11
3.042930312090731
 21
6.038445526791923
 31
0.0
  0
LINE
  5
30C
330
18
100
AcDbEntity
  8
0
100
AcDbLine
 10
3.042930312090731
 20
6.038445526791923
 30
0.0
 11
2.941459312090731
 21
6.042704526791923
 31
0.0
  0
LINE
  5
30D
330
18
100
AcDbEntity
  8
0
100
AcDbLine
 10
3.158964312090731
 20
6.128949526791924
 30
0.0
 11
3.31901927140328
 21
6.191091343267557
 31
0.0
  0
ARC
  5
30E
330
18
100
AcDbEntity
  8
0
100
AcDbCircle
 10
3.036688308070848
 20
6.123599479722687
 30
0.0
 40
0.02
100
AcDbArc
 50
87.59641500000001
 51
111.218808
  0
ARC
  5
30F
330
18
100
AcDbEntity
  8
0
100
AcDbCircle
 10
3.261593568187287
 20
6.190249752673612
 30
0.0
 40
0.02
100
AcDbArc
 50
262.428107
 51
291.218808
  0
LINE
  5
310
330
18
100
AcDbEntity
  8
0
100
AcDbLine
 10
2.917754312090731
 20
6.158519526791924
 30
0.0
 11
2.917754312090731
 21
6.035298526791923
 31
0.0
  0
LINE
  5
311
330
18
100
AcDbEntity
  8
0
100
AcDbLine
 10
2.917754312090731
 20
6.102461526791924
 30
0.0
 11
2.948814312090732
 21
6.087458526791924
 31
0.0
  0
LINE
  5
312
330
18
100
AcDbEntity
  8
0
100
AcDbLine
 10
2.950074688277102
 20
6.08926615261263
 30
0.0
 11
2.973105688277101
 21
6.06925515261263
 31
0.0
  0
LINE
  5
313
330
18
100
AcDbEntity
  8
0
100
AcDbLine
 10
2.971845312090731
 20
6.067447526791924
 30
0.0
 11
2.988759312090732
 21
6.040719526791924
 31
0.0
  0
LINE
  5
314
330
18
100
AcDbEntity
  8
0
100
AcDbLine
 10
2.919014688277102
 20
6.06723115261263
 30
0.0
 11
2.950963688277102
 21
6.044166152612631
 31
0.0
  0
POINT
  5
315
330
18
100
AcDbEntity
  8
0
100
AcDbPoint
 10
8.008260999999999
 20
4.539122
 30
0.0
  0
POINT
  5
316
330
18
100
AcDbEntity
  8
0
100
AcDbPoint
 10
7.982928
 20
4.551784
 30
0.0
  0
POINT
  5
317
330
18
100
AcDbEntity
  8
0
100
AcDbPoint
 10
7.866278004019884
 20
4.378097047069237
 30
0.0
  0
POINT
  5
318
330
18
100
AcDbEntity
  8
0
100
AcDbPoint
 10
7.752277004019883
 20
4.300536047069237
 30
0.0
  0
POINT
  5
319
330
18
100
AcDbEntity
  8
0
100
AcDbPoint
 10
7.692107004019883
 20
4.332199047069237
 30
0.0
  0
POINT
  5
31A
330
18
100
AcDbEntity
  8
0
100
AcDbPoint
 10
7.669938004019883
 20
4.360685047069238
 30
0.0
  0
POINT
  5
31B
330
18
100
AcDbEntity
  8
0
100
AcDbPoint
 10
7.638265004019884
 20
4.281544047069237
 30
0.0
  0
POINT
  5
31C
330
18
100
AcDbEntity
  8
0
100
AcDbPoint
 10
7.653582000000001
 20
4.30328
 30
0.0
  0
POINT
  5
31D
330
18
100
AcDbEntity
  8
0
100
AcDbPoint
 10
7.628774004019883
 20
4.268882047069236
 30
0.0
  0
POINT
  5
31E
330
18
100
AcDbEntity
  8
0
100
AcDbPoint
 10
7.744351004019883
 20
4.279963047069237
 30
0.0
  0
POINT
  5
31F
330
18
100
AcDbEntity
  8
0
100
AcDbPoint
 10
7.752277004019883
 20
4.292625047069237
 30
0.0
  0
POINT
  5
320
330
18
100
AcDbEntity
  8
0
100
AcDbPoint
 10
7.720605004019883
 20
4.357523047069237
 30
0.0
  0
POINT
  5
321
330
18
100
AcDbEntity
  8
0
100
AcDbPoint
 10
7.720605004019883
 20
4.357523047069237
 30
0.0
  0
POINT
  5
322
330
18
100
AcDbEntity
  8
0
100
AcDbPoint
 10
7.793441004019883
 20
4.330610047069238
 30
0.0
  0
LINE
  5
323
330
18
100
AcDbEntity
  8
0
100
AcDbLine
 10
6.416513903850708
 20
5.238530884307252
 30
0.0
 11
7.857068004019883
 21
4.795522047069237
 31
0.0
  0
LINE
  5
324
330
18
100
AcDbEntity
  8
0
100
AcDbLine
 10
2.664148
 20
4.666798
 30
0.0
 11
2.664671
 21
4.649098
 31
0.0
  0
LINE
  5
325
330
18
100
AcDbEntity
  8
0
100
AcDbLine
 10
2.664671
 20
4.649098
 30
0.0
 11
2.670714
 21
4.558007
 31
0.0
  0
LINE
  5
326
330
18
100
AcDbEntity
  8
0
100
AcDbLine
 10
2.670714
 20
4.558007
 30
0.0
 11
2.681753
 21
4.486937999999999
 31
0.0
  0
LINE
  5
327
330
18
100
AcDbEntity
  8
0
100
AcDbLine
 10
2.681753
 20
4.486937999999999
 30
0.0
 11
2.694834
 21
4.317769999999999
 31
0.0
  0
LINE
  5
328
330
18
100
AcDbEntity
  8
0
100
AcDbLine
 10
2.694834
 20
4.317769999999999
 30
0.0
 11
2.711905
 21
4.181637
 31
0.0
  0
LINE
  5
329
330
18
100
AcDbEntity
  8
0
100
AcDbLine
 10
2.711905
 20
4.181637
 30
0.0
 11
2.723961
 21
4.071528
 31
0.0
  0
LINE
  5
32A
330
18
100
AcDbEntity
  8
0
100
AcDbLine
 10
2.723961
 20
4.071528
 30
0.0
 11
2.702945
 21
4.057506
 31
0.0
  0
LINE
  5
32B
330
18
100
AcDbEntity
  8
0
100
AcDbLine
 10
2.702945
 20
4.057506
 30
0.0
 11
2.718745
 21
3.964151
 31
0.0
  0
LINE
  5
32C
330
18
100
AcDbEntity
  8
0
100
AcDbLine
 10
2.709406
 20
4.648837
 30
0.0
 11
2.739843
 21
4.411884
 31
0.0
  0
LINE
  5
32D
330
18
100
AcDbEntity
  8
0
100
AcDbLine
 10
2.739843
 20
4.411884
 30
0.0
 11
2.750901
 21
4.293767
 31
0.0
  0
LINE
  5
32E
330
18
100
AcDbEntity
  8
0
100
AcDbLine
 10
2.750901
 20
4.293767
 30
0.0
 11
2.766967
 21
4.168645
 31
0.0
  0
LINE
  5
32F
330
18
100
AcDbEntity
  8
0
100
AcDbLine
 10
2.766967
 20
4.168645
 30
0.0
 11
2.774042
 21
4.104661
 31
0.0
  0
LINE
  5
330
330
18
100
AcDbEntity
  8
0
100
AcDbLine
 10
2.616351
 20
4.686914
 30
0.0
 11
2.628692
 21
4.504935
 31
0.0
  0
LINE
  5
331
330
18
100
AcDbEntity
  8
0
100
AcDbLine
 10
2.628692
 20
4.504935
 30
0.0
 11
2.64978
 21
4.336771
 31
0.0
  0
LINE
  5
332
330
18
100
AcDbEntity
  8
0
100
AcDbLine
 10
2.64978
 20
4.336771
 30
0.0
 11
2.659846
 21
4.197632
 31
0.0
  0
LINE
  5
333
330
18
100
AcDbEntity
  8
0
100
AcDbLine
 10
2.659846
 20
4.197632
 30
0.0
 11
2.670869
 21
4.166605000000001
 31
0.0
  0
LINE
  5
334
330
18
100
AcDbEntity
  8
0
100
AcDbLine
 10
2.670869
 20
4.166605000000001
 30
0.0
 11
2.650866
 21
4.123553
 31
0.0
  0
LINE
  5
335
330
18
100
AcDbEntity
  8
0
100
AcDbLine
 10
2.650866
 20
4.123553
 30
0.0
 11
2.677505
 21
3.980779
 31
0.0
  0
LINE
  5
336
330
18
100
AcDbEntity
  8
0
100
AcDbLine
 10
2.632525
 20
3.998916
 30
0.0
 11
2.626875
 21
4.037455000000001
 31
0.0
  0
LINE
  5
337
330
18
100
AcDbEntity
  8
0
100
AcDbLine
 10
2.626875
 20
4.037455000000001
 30
0.0
 11
2.620853
 21
4.077494000000001
 31
0.0
  0
LINE
  5
338
330
18
100
AcDbEntity
  8
0
100
AcDbLine
 10
2.620853
 20
4.077494000000001
 30
0.0
 11
2.602845
 21
4.152396
 31
0.0
  0
LINE
  5
339
330
18
100
AcDbEntity
  8
0
100
AcDbLine
 10
2.774042
 20
4.04222
 30
0.0
 11
2.749013
 21
4.007472
 31
0.0
  0
LINE
  5
33A
330
18
100
AcDbEntity
  8
0
100
AcDbLine
 10
2.749013
 20
4.007472
 30
0.0
 11
2.770809
 21
3.943157
 31
0.0
  0
LINE
  5
33B
330
18
100
AcDbEntity
  8
0
100
AcDbLine
 10
2.752017
 20
4.631926
 30
0.0
 11
2.756783
 21
4.607091000000001
 31
0.0
  0
LINE
  5
33C
330
18
100
AcDbEntity
  8
0
100
AcDbLine
 10
2.756783
 20
4.607091000000001
 30
0.0
 11
2.767835
 21
4.50399
 31
0.0
  0
LINE
  5
33D
330
18
100
AcDbEntity
  8
0
100
AcDbLine
 10
2.767835
 20
4.50399
 30
0.0
 11
2.76986
 21
4.445931
 31
0.0
  0
LINE
  5
33E
330
18
100
AcDbEntity
  8
0
100
AcDbLine
 10
2.76986
 20
4.445931
 30
0.0
 11
2.774042
 21
4.431787
 31
0.0
  0
ARC
  5
33F
330
18
100
AcDbEntity
  8
0
100
AcDbCircle
 10
5.349032
 20
3.101365
 30
0.0
 40
0.674438
100
AcDbArc
 50
155.683468
 51
157.579432
  0
ARC
  5
340
330
18
100
AcDbEntity
  8
0
100
AcDbCircle
 10
4.677361
 20
3.404869
 30
0.0
 40
0.062622
100
AcDbArc
 50
335.683468
 51
351.519325
  0
ARC
  5
341
330
18
100
AcDbEntity
  8
0
100
AcDbCircle
 10
4.357849
 20
3.45251
 30
0.0
 40
0.385667
100
AcDbArc
 50
351.519325
 51
358.242398
  0
ARC
  5
342
330
18
100
AcDbEntity
  8
0
100
AcDbCircle
 10
5.782031
 20
3.408808
 30
0.0
 40
1.039186
100
AcDbArc
 50
174.148185
 51
178.242398
  0
ARC
  5
343
330
18
100
AcDbEntity
  8
0
100
AcDbCircle
 10
9.651621
 20
3.012214
 30
0.0
 40
4.929047
100
AcDbArc
 50
172.879739
 51
174.148185
  0
ARC
  5
344
330
18
100
AcDbEntity
  8
0
100
AcDbCircle
 10
2.679411
 20
3.883153
 30
0.0
 40
2.097351
100
AcDbArc
 50
352.879739
 51
354.824337
  0
ARC
  5
345
330
18
100
AcDbEntity
  8
0
100
AcDbCircle
 10
3.923434
 20
3.77047
 30
0.0
 40
0.8482350000000001
100
AcDbArc
 50
354.824337
 51
0.116731
  0
ARC
  5
346
330
18
100
AcDbEntity
  8
0
100
AcDbCircle
 10
5.252993
 20
3.773179
 30
0.0
 40
0.4813270000000001
100
AcDbArc
 50
173.089119
 51
180.116731
  0
ARC
  5
347
330
18
100
AcDbEntity
  8
0
100
AcDbCircle
 10
5.007025
 20
3.802992
 30
0.0
 40
0.233559
100
AcDbArc
 50
171.892648
 51
173.089119
  0
ARC
  5
348
330
18
100
AcDbEntity
  8
0
100
AcDbCircle
 10
104.522883
 20
-10.37324
 30
0.0
 40
100.754062
100
AcDbArc
 50
171.881424
 51
171.892648
  0
ARC
  5
349
330
18
100
AcDbEntity
  8
0
100
AcDbCircle
 10
5.522085
 20
2.993917
 30
0.0
 40
0.777989
100
AcDbArc
 50
168.999295
 51
173.599766
  0
ARC
  5
34A
330
18
100
AcDbEntity
  8
0
100
AcDbCircle
 10
5.211795
 20
3.054236
 30
0.0
 40
0.461891
100
AcDbArc
 50
160.494947
 51
168.999295
  0
ARC
  5
34B
330
18
100
AcDbEntity
  8
0
100
AcDbCircle
 10
5.412144000000001
 20
2.983268
 30
0.0
 40
0.674438
100
AcDbArc
 50
155.683468
 51
160.494947
  0
ARC
  5
34C
330
18
100
AcDbEntity
  8
0
100
AcDbCircle
 10
4.740473000000001
 20
3.286773
 30
0.0
 40
0.062622
100
AcDbArc
 50
335.683468
 51
351.519325
  0
ARC
  5
34D
330
18
100
AcDbEntity
  8
0
100
AcDbCircle
 10
4.420961
 20
3.334414
 30
0.0
 40
0.385667
100
AcDbArc
 50
351.519325
 51
358.242398
  0
ARC
  5
34E
330
18
100
AcDbEntity
  8
0
100
AcDbCircle
 10
5.845143
 20
3.290712
 30
0.0
 40
1.039186
100
AcDbArc
 50
174.148185
 51
178.242398
  0
ARC
  5
34F
330
18
100
AcDbEntity
  8
0
100
AcDbCircle
 10
9.714733000000001
 20
2.894118
 30
0.0
 40
4.929047
100
AcDbArc
 50
172.879739
 51
174.148185
  0
ARC
  5
350
330
18
100
AcDbEntity
  8
0
100
AcDbCircle
 10
2.742522
 20
3.765056
 30
0.0
 40
2.097351
100
AcDbArc
 50
352.879739
 51
354.824337
  0
ARC
  5
351
330
18
100
AcDbEntity
  8
0
100
AcDbCircle
 10
3.986545
 20
3.652374
 30
0.0
 40
0.8482350000000001
100
AcDbArc
 50
354.824337
 51
0.116731
  0
ARC
  5
352
330
18
100
AcDbEntity
  8
0
100
AcDbCircle
 10
5.316105
 20
3.655083
 30
0.0
 40
0.4813270000000001
100
AcDbArc
 50
173.089119
 51
180.116731
  0
ARC
  5
353
330
18
100
AcDbEntity
  8
0
100
AcDbCircle
 10
5.070137
 20
3.684896
 30
0.0
 40
0.233559
100
AcDbArc
 50
171.892648
 51
173.089119
  0
ARC
  5
354
330
18
100
AcDbEntity
  8
0
100
AcDbCircle
 10
104.585994
 20
-10.491336
 30
0.0
 40
100.754062
100
AcDbArc
 50
171.835043
 51
171.892648
  0
ARC
  5
355
330
18
100
AcDbEntity
  8
0
100
AcDbCircle
 10
8.750419000000001
 20
3.258955
 30
0.0
 40
3.93708
100
AcDbArc
 50
171.794203
 51
171.835043
  0
ARC
  5
356
330
18
100
AcDbEntity
  8
0
100
AcDbCircle
 10
5.456267
 20
2.808705
 30
0.0
 40
0.723503
100
AcDbArc
 50
156.82416
 51
159.146152
  0
ARC
  5
357
330
18
100
AcDbEntity
  8
0
100
AcDbCircle
 10
5.114022
 20
2.95522
 30
0.0
 40
0.351215
100
AcDbArc
 50
147.600894
 51
156.82416
  0
ARC
  5
358
330
18
100
AcDbEntity
  8
0
100
AcDbCircle
 10
13.361174
 20
-2.278401
 30
0.0
 40
10.11883
100
AcDbArc
 50
147.287524
 51
147.600894
  0
ARC
  5
359
330
18
100
AcDbEntity
  8
0
100
AcDbCircle
 10
5.202192
 20
2.962081
 30
0.0
 40
0.421838
100
AcDbArc
 50
145.752692
 51
147.287524
  0
ARC
  5
35A
330
18
100
AcDbEntity
  8
0
100
AcDbCircle
 10
5.289153
 20
2.902878
 30
0.0
 40
0.52704
100
AcDbArc
 50
142.176528
 51
145.752692
  0
ARC
  5
35B
330
18
100
AcDbEntity
  8
0
100
AcDbCircle
 10
2.660217
 20
4.943815
 30
0.0
 40
2.801133
100
AcDbArc
 50
322.176528
 51
322.594509
  0
ARC
  5
35C
330
18
100
AcDbEntity
  8
0
100
AcDbCircle
 10
4.613256
 20
3.103249
 30
0.0
 40
0.23238
100
AcDbArc
 50
344.237299
 51
353.993918
  0
ARC
  5
35D
330
18
100
AcDbEntity
  8
0
100
AcDbCircle
 10
4.896369
 20
3.073462
 30
0.0
 40
0.052295
100
AcDbArc
 50
149.026718
 51
173.993918
  0
ARC
  5
35E
330
18
100
AcDbEntity
  8
0
100
AcDbCircle
 10
4.887522
 20
3.078772
 30
0.0
 40
0.041977
100
AcDbArc
 50
113.492345
 51
149.026718
  0
ARC
  5
35F
330
18
100
AcDbEntity
  8
0
100
AcDbCircle
 10
4.842149
 20
3.183163
 30
0.0
 40
0.071848
100
AcDbArc
 50
293.492345
 51
306.926831
  0
LINE
  5
360
330
18
100
AcDbEntity
  8
0
100
AcDbLine
 10
7.604241004019883
 20
4.484335047069237
 30
0.0
 11
7.839000004019883
 21
4.482752047069237
 31
0.0
  0
LINE
  5
361
330
18
100
AcDbEntity
  8
0
100
AcDbLine
 10
7.839000004019883
 20
4.431533047069237
 30
0.0
 11
7.604241004019883
 21
4.443262047069237
 31
0.0
  0
LINE
  5
362
330
18
100
AcDbEntity
  8
0
100
AcDbLine
 10
7.839000004019883
 20
4.516273047069237
 30
0.0
 11
7.720900004019883
 21
4.531247047069237
 31
0.0
  0
LINE
  5
363
330
18
100
AcDbEntity
  8
0
100
AcDbLine
 10
7.720900004019883
 20
4.531247047069237
 30
0.0
 11
7.596348004019884
 21
4.543371047069237
 31
0.0
  0
LINE
  5
364
330
18
100
AcDbEntity
  8
0
100
AcDbLine
 10
7.510149
 20
4.297661
 30
0.0
 11
7.576830999999999
 21
4.354744
 31
0.0
  0
LINE
  5
365
330
18
100
AcDbEntity
  8
0
100
AcDbLine
 10
7.576830999999999
 20
4.354744
 30
0.0
 11
7.604241004019883
 21
4.379963536426992
 31
0.0
  0
LINE
  5
366
330
18
100
AcDbEntity
  8
0
100
AcDbLine
 10
7.510149
 20
4.346711
 30
0.0
 11
7.577805000000001
 21
4.423815
 31
0.0
  0
LINE
  5
367
330
18
100
AcDbEntity
  8
0
100
AcDbLine
 10
7.577805000000001
 20
4.423815
 30
0.0
 11
7.604241004019883
 21
4.443445261539271
 31
0.0
  0
LINE
  5
368
330
18
100
AcDbEntity
  8
0
100
AcDbLine
 10
7.510149
 20
4.400765
 30
0.0
 11
7.583788
 21
4.481877
 31
0.0
  0
LINE
  5
369
330
18
100
AcDbEntity
  8
0
100
AcDbLine
 10
7.583788
 20
4.481877
 30
0.0
 11
7.604241004019883
 21
4.492257923499924
 31
0.0
  0
LINE
  5
36A
330
18
100
AcDbEntity
  8
0
100
AcDbLine
 10
2.602845
 20
4.691127
 30
0.0
 11
4.828018
 21
7.565607000000001
 31
0.0
  0
TEXT
  5
36B
330
18
100
AcDbEntity
  8
0
100
AcDbText
 10
3.737731
 20
2.01633
 30
0.0
 40
0.2
  1
H10
 72
     1
 11
4.037731
 21
2.01633
 31
0.0
100
AcDbText
  0
TEXT
  5
36C
330
18
100
AcDbEntity
  8
0
100
AcDbText
 10
5.796822952380953
 20
1.7024
 30
0.0
 40
0.2
  1
H2.5
 72
     1
 11
6.144442
 21
1.7024
 31
0.0
100
AcDbText
  0
TEXT
  5
36D
330
18
100
AcDbEntity
  8
0
100
AcDbText
 10
1.108289
 20
1.422183
 30
0.0
 40
0.225
  1
Simpson Strong-Tie
100
AcDbText
  0
TEXT
  5
36E
330
18
100
AcDbEntity
  8
0
100
AcDbText
 10
1.108289
 20
1.057898
 30
0.0
 40
0.225
  1
Truss and Rafter Connections to Wood Top Plates
100
AcDbText
  0
LINE
  5
36F
330
18
100
AcDbEntity
  8
0
100
AcDbLine
 10
2.83394944689417
 20
5.812314849376724
 30
0.0
 11
3.115232353809351
 21
5.719246863900372
 31
0.0
  0
LINE
  5
370
330
18
100
AcDbEntity
  8
0
100
AcDbLine
 10
2.83394944689417
 20
5.647224849376724
 30
0.0
 11
3.237441201823501
 21
5.510898806604528
 31
0.0
  0
LINE
  5
371
330
18
100
AcDbEntity
  8
0
100
AcDbLine
 10
2.83394944689417
 20
5.647224849376724
 30
0.0
 11
2.83394944689417
 21
5.812314849376724
 31
0.0
  0
LINE
  5
372
330
18
100
AcDbEntity
  8
0
100
AcDbLine
 10
3.75549723077927
 20
5.280255783438538
 30
0.0
 11
5.277107389114597
 21
4.766155583415984
 31
0.0
  0
LINE
  5
373
330
18
100
AcDbEntity
  8
0
100
AcDbLine
 10
7.453781522309261
 20
4.239297637939688
 30
0.0
 11
7.799525000000001
 21
4.124901
 31
0.0
  0
LINE
  5
374
330
18
100
AcDbEntity
  8
0
100
AcDbLine
 10
5.805751305355885
 20
4.587543767353702
 30
0.0
 11
7.799525000000001
 21
3.913916
 31
0.0
  0
LINE
  5
375
330
18
100
AcDbEntity
  8
0
100
AcDbLine
 10
7.893617004019884
 20
4.014439966368719
 30
0.0
 11
7.799525000000001
 21
3.913916
 31
0.0
  0
LINE
  5
376
330
18
100
AcDbEntity
  8
0
100
AcDbLine
 10
7.799525000000001
 20
4.124901
 30
0.0
 11
7.893617004019884
 21
4.223703047069239
 31
0.0
  0
LINE
  5
377
330
18
100
AcDbEntity
  8
0
100
AcDbLine
 10
7.893617004019884
 20
4.223703047069238
 30
0.0
 11
7.849081004019884
 21
4.298922047069238
 31
0.0
  0
LINE
  5
378
330
18
100
AcDbEntity
  8
0
100
AcDbLine
 10
7.849081004019884
 20
4.298922047069238
 30
0.0
 11
8.128376004019884
 21
4.279012047069238
 31
0.0
  0
LINE
  5
379
330
18
100
AcDbEntity
  8
0
100
AcDbLine
 10
7.799525000000001
 20
4.094428000000001
 30
0.0
 11
7.873164000000001
 21
4.175540000000001
 31
0.0
  0
LINE
  5
37A
330
18
100
AcDbEntity
  8
0
100
AcDbLine
 10
7.799525000000001
 20
4.040374000000001
 30
0.0
 11
7.867181000000001
 21
4.117478000000001
 31
0.0
  0
LINE
  5
37B
330
18
100
AcDbEntity
  8
0
100
AcDbLine
 10
7.799525000000001
 20
3.991324000000001
 30
0.0
 11
7.866207
 21
4.048407000000001
 31
0.0
  0
LINE
  5
37C
330
18
100
AcDbEntity
  8
0
100
AcDbLine
 10
7.799525000000001
 20
3.913916
 30
0.0
 11
7.799525000000001
 21
4.124901
 31
0.0
  0
LINE
  5
37D
330
18
100
AcDbEntity
  8
0
100
AcDbLine
 10
8.146444004019884
 20
4.286307047069237
 30
0.0
 11
8.146444004019884
 21
4.489185047069237
 31
0.0
  0
LINE
  5
37E
330
18
100
AcDbEntity
  8
0
100
AcDbLine
 10
8.128376004019884
 20
4.279012047069238
 30
0.0
 11
8.045345004019882
 21
4.383026047069238
 31
0.0
  0
LINE
  5
37F
330
18
100
AcDbEntity
  8
0
100
AcDbLine
 10
8.084507004019883
 20
4.333967047069238
 30
0.0
 11
8.146444004019884
 21
4.377959047069238
 31
0.0
  0
LINE
  5
380
330
18
100
AcDbEntity
  8
0
100
AcDbLine
 10
8.128376004019884
 20
4.074800047069237
 30
0.0
 11
7.893617004019884
 21
4.102047047069238
 31
0.0
  0
LINE
  5
381
330
18
100
AcDbEntity
  8
0
100
AcDbLine
 10
7.893617004019884
 20
4.177998047069238
 30
0.0
 11
8.128376004019884
 21
4.176415047069238
 31
0.0
  0
LINE
  5
382
330
18
100
AcDbEntity
  8
0
100
AcDbLine
 10
8.128376004019884
 20
4.125196047069237
 30
0.0
 11
7.893617004019884
 21
4.136925047069238
 31
0.0
  0
LINE
  5
383
330
18
100
AcDbEntity
  8
0
100
AcDbLine
 10
8.128376004019884
 20
4.209936047069237
 30
0.0
 11
8.010276004019882
 21
4.224910047069238
 31
0.0
  0
LINE
  5
384
330
18
100
AcDbEntity
  8
0
100
AcDbLine
 10
7.893617004019884
 20
4.223703047069238
 30
0.0
 11
7.893617004019884
 21
4.014439966368719
 31
0.0
  0
LINE
  5
385
330
18
100
AcDbEntity
  8
0
100
AcDbLine
 10
7.867181000000001
 20
4.117478000000001
 30
0.0
 11
7.893617004019884
 21
4.137108261539272
 31
0.0
  0
LINE
  5
386
330
18
100
AcDbEntity
  8
0
100
AcDbLine
 10
7.866207
 20
4.048407000000001
 30
0.0
 11
7.893617004019884
 21
4.073626536426993
 31
0.0
  0
POINT
  5
387
330
18
100
AcDbEntity
  8
0
100
AcDbPoint
 10
7.927641004019884
 20
3.975207047069238
 30
0.0
  0
POINT
  5
388
330
18
100
AcDbEntity
  8
0
100
AcDbPoint
 10
7.918150004019884
 20
3.962545047069237
 30
0.0
  0
POINT
  5
389
330
18
100
AcDbEntity
  8
0
100
AcDbPoint
 10
7.981483004019884
 20
4.025862047069237
 30
0.0
  0
POINT
  5
38A
330
18
100
AcDbEntity
  8
0
100
AcDbPoint
 10
7.959314004019884
 20
4.054348047069238
 30
0.0
  0
POINT
  5
38B
330
18
100
AcDbEntity
  8
0
100
AcDbPoint
 10
8.009981004019885
 20
4.051186047069238
 30
0.0
  0
POINT
  5
38C
330
18
100
AcDbEntity
  8
0
100
AcDbPoint
 10
8.009981004019885
 20
4.051186047069238
 30
0.0
  0
POINT
  5
38D
330
18
100
AcDbEntity
  8
0
100
AcDbPoint
 10
7.942958000000002
 20
3.996943000000001
 30
0.0
  0
LINE
  5
38E
330
18
100
AcDbEntity
  8
0
100
AcDbLine
 10
8.010276004019882
 20
4.224910047069238
 30
0.0
 11
7.885724004019885
 21
4.237034047069238
 31
0.0
  0
LINE
  5
38F
330
18
100
AcDbEntity
  8
0
100
AcDbLine
 10
7.873164000000001
 20
4.175540000000001
 30
0.0
 11
7.893617004019884
 21
4.185920923499925
 31
0.0
  0
LINE
  5
390
330
18
100
AcDbEntity
  8
0
100
AcDbLine
 10
8.128376004019884
 20
4.279012047069238
 30
0.0
 11
8.128376004019884
 21
4.074800047069237
 31
0.0
  0
POINT
  5
391
330
18
100
AcDbEntity
  8
0
100
AcDbPoint
 10
8.082817004019884
 20
4.024273047069238
 30
0.0
  0
POINT
  5
392
330
18
100
AcDbEntity
  8
0
100
AcDbPoint
 10
8.041653004019885
 20
3.994199047069238
 30
0.0
  0
POINT
  5
393
330
18
100
AcDbEntity
  8
0
100
AcDbPoint
 10
8.033727004019884
 20
3.973626047069238
 30
0.0
  0
POINT
  5
394
330
18
100
AcDbEntity
  8
0
100
AcDbPoint
 10
8.041653004019885
 20
3.986288047069238
 30
0.0
  0
POINT
  5
395
330
18
100
AcDbEntity
  8
0
100
AcDbPoint
 10
8.155654004019885
 20
4.071760047069238
 30
0.0
  0
LINE
  5
396
330
18
100
AcDbEntity
  8
0
100
AcDbLine
 10
8.146444004019884
 20
4.327095047069237
 30
0.0
 11
8.103011004019884
 21
4.310788047069237
 31
0.0
  0
LINE
  5
397
330
18
100
AcDbEntity
  8
0
100
AcDbLine
 10
8.128376004019884
 20
4.267004047069237
 30
0.0
 11
8.146444004019884
 21
4.286307047069237
 31
0.0
  0
LINE
  5
398
330
18
100
AcDbEntity
  8
0
100
AcDbLine
 10
8.146444004019884
 20
4.422680047069238
 30
0.0
 11
8.106309004019884
 21
4.391119047069238
 31
0.0
  0
LINE
  5
399
330
18
100
AcDbEntity
  8
0
100
AcDbLine
 10
8.045345004019882
 20
4.383026047069238
 30
0.0
 11
8.146444004019884
 21
4.489185047069237
 31
0.0
  0
LINE
  5
39A
330
18
100
AcDbEntity
  8
0
100
AcDbLine
 10
8.106309004019884
 20
4.391119047069238
 30
0.0
 11
8.059095004019884
 21
4.365802047069238
 31
0.0
  0
LINE
  5
39B
330
18
100
AcDbEntity
  8
0
100
AcDbLine
 10
6.209804019432734
 20
4.659594981691395
 30
0.0
 11
7.510149
 21
4.220253
 31
0.0
  0
LWPOLYLINE
  5
39C
330
18
100
AcDbEntity
  8
0
  6
HIDDEN
100
AcDbPolyline
 90
        2
 70
     0
 43
0.0
 10
3.626665465537541
 20
5.862868447239308
 10
3.69942446553754
 20
5.941237447239308
  0
LWPOLYLINE
  5
3A1
330
18
100
AcDbEntity
  8
0
  6
HIDDEN
100
AcDbPolyline
 90
        2
 70
     0
 43
0.0
 10
3.693918465537541
 20
6.066340447239307
 10
3.62413846553754
 20
5.993989447239308
  0
LWPOLYLINE
  5
3A6
330
18
100
AcDbEntity
  8
0
100
AcDbPolyline
 90
        2
 70
     0
 43
0.0
 10
4.002041084914211
 20
6.015757122366323
 10
4.00309608491421
 20
6.003252122366324
  0
LWPOLYLINE
  5
3AB
330
18
100
AcDbEntity
  8
0
100
AcDbPolyline
 90
        2
 70
     0
 43
0.0
 10
4.18377108491421
 20
5.894787122366323
 10
4.17279608491421
 20
5.885734122366324
  0
ARC
  5
3B0
330
18
100
AcDbEntity
  8
0
  6
HIDDEN
100
AcDbCircle
 10
4.06929252965498
 20
5.838094846785318
 30
0.0
 40
0.007996
100
AcDbArc
 50
269.9999999999745
 51
90.0
  0
ARC
  5
3B1
330
18
100
AcDbEntity
  8
0
  6
HIDDEN
100
AcDbCircle
 10
4.004868072921738
 20
5.60179801439867
 30
0.0
 40
0.007996
100
AcDbArc
 50
89.99999999999363
 51
242.5308128918415
  0
LWPOLYLINE
  5
3B2
330
18
100
AcDbEntity
  8
0
100
AcDbPolyline
 90
        2
 70
     0
 43
0.0
 10
4.050219262644065
 20
5.290939312076809
 42
0.0812356170998628
 10
4.053219852066981
 20
5.282016476191609
 42
0.0812356170998628
  0
ARC
  5
3B7
330
18
100
AcDbEntity
  8
0
100
AcDbCircle
 10
4.06653408491421
 20
5.287213172934628
 30
0.0
 40
0.024043
100
AcDbArc
 50
348.81966
 51
9.298347999999999
  0
ARC
  5
3B8
330
18
100
AcDbEntity
  8
0
100
AcDbCircle
 10
4.07547208491421
 20
5.291940172934628
 30
0.0
 40
0.024043
100
AcDbArc
 50
226.452425
 51
246.931113
  0
ARC
  5
3B9
330
18
100
AcDbEntity
  8
0
100
AcDbCircle
 10
4.078998084914209
 20
5.295651172934628
 30
0.0
 40
0.029162
100
AcDbArc
 50
207.875387
 51
226.452425
  0
ARC
  5
3BA
330
18
100
AcDbEntity
  8
0
100
AcDbCircle
 10
4.07043308491421
 20
5.286443172934628
 30
0.0
 40
0.020069
100
AcDbArc
 50
324.919477
 51
348.81966
  0
ARC
  5
3BB
330
18
100
AcDbEntity
  8
0
100
AcDbCircle
 10
4.07397708491421
 20
5.283954172934628
 30
0.0
 40
0.015738
100
AcDbArc
 50
297.875387
 51
324.919477
  0
ARC
  5
3BC
330
18
100
AcDbEntity
  8
0
100
AcDbCircle
 10
4.07397708491421
 20
5.283954172934628
 30
0.0
 40
0.015738
100
AcDbArc
 50
270.831296
 51
297.875387
  0
ARC
  5
3BD
330
18
100
AcDbEntity
  8
0
100
AcDbCircle
 10
4.073914084914209
 20
5.288284172934628
 30
0.0
 40
0.020069
100
AcDbArc
 50
246.931113
 51
270.831296
  0
POLYLINE
  5
3BE
330
18
100
AcDbEntity
  8
0
100
AcDb2dPolyline
 66
     1
 10
0.0
 20
0.0
 30
0.0
 70
     5
 75
     6
  0
VERTEX
  5
3BF
330
3BE
100
AcDbEntity
  8
0
100
AcDbVertex
100
AcDb2dVertex
 10
3.989201122354641
 20
5.554731630479926
 30
0.0
 70
    16
  0
VERTEX
  5
3C0
330
3BE
100
AcDbEntity
  8
0
100
AcDbVertex
100
AcDb2dVertex
 10
3.994088225041648
 20
5.554651237959512
 30
0.0
 70
     8
  0
VERTEX
  5
3C1
330
3BE
100
AcDbEntity
  8
0
100
AcDbVertex
100
AcDb2dVertex
 10
3.994716867503985
 20
5.55458132816916
 30
0.0
 70
     8
  0
VERTEX
  5
3C2
330
3BE
100
AcDbEntity
  8
0
100
AcDbVertex
100
AcDb2dVertex
 10
3.995350223607331
 20
5.554491399358952
 30
0.0
 70
     8
  0
VERTEX
  5
3C3
330
3BE
100
AcDbEntity
  8
0
100
AcDbVertex
100
AcDb2dVertex
 10
3.995987350652825
 20
5.554380273916359
 30
0.0
 70
     8
  0
VERTEX
  5
3C4
330
3BE
100
AcDbEntity
  8
0
100
AcDbVertex
100
AcDb2dVertex
 10
3.9966273059416
 20
5.554246774228857
 30
0.0
 70
     8
  0
VERTEX
  5
3C5
330
3BE
100
AcDbEntity
  8
0
100
AcDbVertex
100
AcDb2dVertex
 10
3.997269146774793
 20
5.554089722683919
 30
0.0
 70
     8
  0
VERTEX
  5
3C6
330
3BE
100
AcDbEntity
  8
0
100
AcDbVertex
100
AcDb2dVertex
 10
3.997911930453541
 20
5.553907941669018
 30
0.0
 70
     8
  0
VERTEX
  5
3C7
330
3BE
100
AcDbEntity
  8
0
100
AcDbVertex
100
AcDb2dVertex
 10
3.998554714278977
 20
5.553700253571627
 30
0.0
 70
     8
  0
VERTEX
  5
3C8
330
3BE
100
AcDbEntity
  8
0
100
AcDbVertex
100
AcDb2dVertex
 10
3.999196555552238
 20
5.553465480779221
 30
0.0
 70
     8
  0
VERTEX
  5
3C9
330
3BE
100
AcDbEntity
  8
0
100
AcDbVertex
100
AcDb2dVertex
 10
3.9998365508383
 20
5.55320283820859
 30
0.0
 70
     8
  0
VERTEX
  5
3CA
330
3BE
100
AcDbEntity
  8
0
100
AcDbVertex
100
AcDb2dVertex
 10
4.000473953757493
 20
5.552913110893808
 30
0.0
 70
     8
  0
VERTEX
  5
3CB
330
3BE
100
AcDbEntity
  8
0
100
AcDbVertex
100
AcDb2dVertex
 10
4.001108057193988
 20
5.552597476398262
 30
0.0
 70
     8
  0
VERTEX
  5
3CC
330
3BE
100
AcDbEntity
  8
0
100
AcDbVertex
100
AcDb2dVertex
 10
4.001738154031957
 20
5.552257112285343
 30
0.0
 70
     8
  0
VERTEX
  5
3CD
330
3BE
100
AcDbEntity
  8
0
100
AcDbVertex
100
AcDb2dVertex
 10
4.002363537155572
 20
5.55189319611844
 30
0.0
 70
     8
  0
VERTEX
  5
3CE
330
3BE
100
AcDbEntity
  8
0
100
AcDbVertex
100
AcDb2dVertex
 10
4.002983499449001
 20
5.551506905460943
 30
0.0
 70
     8
  0
VERTEX
  5
3CF
330
3BE
100
AcDbEntity
  8
0
100
AcDbVertex
100
AcDb2dVertex
 10
4.003597333796416
 20
5.551099417876242
 30
0.0
 70
     8
  0
VERTEX
  5
3D0
330
3BE
100
AcDbEntity
  8
0
100
AcDbVertex
100
AcDb2dVertex
 10
4.004204333081991
 20
5.550671910927727
 30
0.0
 70
     8
  0
VERTEX
  5
3D1
330
3BE
100
AcDbEntity
  8
0
100
AcDbVertex
100
AcDb2dVertex
 10
4.00480371164999
 20
5.550225562195165
 30
0.0
 70
     8
  0
VERTEX
  5
3D2
330
3BE
100
AcDbEntity
  8
0
100
AcDbVertex
100
AcDb2dVertex
 10
4.005394369685074
 20
5.549761549323843
 30
0.0
 70
     8
  0
VERTEX
  5
3D3
330
3BE
100
AcDbEntity
  8
0
100
AcDbVertex
100
AcDb2dVertex
 10
4.005975128831998
 20
5.549281049975423
 30
0.0
 70
     8
  0
VERTEX
  5
3D4
330
3BE
100
AcDbEntity
  8
0
100
AcDbVertex
100
AcDb2dVertex
 10
4.006544810735517
 20
5.548785241811568
 30
0.0
 70
     8
  0
VERTEX
  5
3D5
330
3BE
100
AcDbEntity
  8
0
100
AcDbVertex
100
AcDb2dVertex
 10
4.007102237040388
 20
5.548275302493942
 30
0.0
 70
     8
  0
VERTEX
  5
3D6
330
3BE
100
AcDbEntity
  8
0
100
AcDbVertex
100
AcDb2dVertex
 10
4.007646229391367
 20
5.547752409684208
 30
0.0
 70
     8
  0
VERTEX
  5
3D7
330
3BE
100
AcDbEntity
  8
0
100
AcDbVertex
100
AcDb2dVertex
 10
4.008175609433208
 20
5.547217741044029
 30
0.0
 70
     8
  0
VERTEX
  5
3D8
330
3BE
100
AcDbEntity
  8
0
100
AcDbVertex
100
AcDb2dVertex
 10
4.00868919881067
 20
5.546672474235069
 30
0.0
 70
     8
  0
VERTEX
  5
3D9
330
3BE
100
AcDbEntity
  8
0
100
AcDbVertex
100
AcDb2dVertex
 10
4.009186094125397
 20
5.546117315869068
 30
0.0
 70
     8
  0
VERTEX
  5
3DA
330
3BE
100
AcDbEntity
  8
0
100
AcDbVertex
100
AcDb2dVertex
 10
4.009666491806604
 20
5.545551088358065
 30
0.0
 70
     8
  0
VERTEX
  5
3DB
330
3BE
100
AcDbEntity
  8
0
100
AcDbVertex
100
AcDb2dVertex
 10
4.010130863240394
 20
5.544972143064179
 30
0.0
 70
     8
  0
VERTEX
  5
3DC
330
3BE
100
AcDbEntity
  8
0
100
AcDbVertex
100
AcDb2dVertex
 10
4.010579679812873
 20
5.544378831349529
 30
0.0
 70
     8
  0
VERTEX
  5
3DD
330
3BE
100
AcDbEntity
  8
0
100
AcDbVertex
100
AcDb2dVertex
 10
4.011013412910145
 20
5.54376950457623
 30
0.0
 70
     8
  0
VERTEX
  5
3DE
330
3BE
100
AcDbEntity
  8
0
100
AcDbVertex
100
AcDb2dVertex
 10
4.011432533918314
 20
5.543142514106402
 30
0.0
 70
     8
  0
VERTEX
  5
3DF
330
3BE
100
AcDbEntity
  8
0
100
AcDbVertex
100
AcDb2dVertex
 10
4.011837514223484
 20
5.542496211302161
 30
0.0
 70
     8
  0
VERTEX
  5
3E0
330
3BE
100
AcDbEntity
  8
0
100
AcDbVertex
100
AcDb2dVertex
 10
4.012228825211762
 20
5.541828947525625
 30
0.0
 70
     8
  0
VERTEX
  5
3E1
330
3BE
100
AcDbEntity
  8
0
100
AcDbVertex
100
AcDb2dVertex
 10
4.012606624011846
 20
5.541139898441474
 30
0.0
 70
     8
  0
VERTEX
  5
3E2
330
3BE
100
AcDbEntity
  8
0
100
AcDbVertex
100
AcDb2dVertex
 10
4.012969810722828
 20
5.540431536924636
 30
0.0
 70
     8
  0
VERTEX
  5
3E3
330
3BE
100
AcDbEntity
  8
0
100
AcDbVertex
100
AcDb2dVertex
 10
4.013316971186394
 20
5.539707160152604
 30
0.0
 70
     8
  0
VERTEX
  5
3E4
330
3BE
100
AcDbEntity
  8
0
100
AcDbVertex
100
AcDb2dVertex
 10
4.01364669124423
 20
5.538970065302869
 30
0.0
 70
     8
  0
VERTEX
  5
3E5
330
3BE
100
AcDbEntity
  8
0
100
AcDbVertex
100
AcDb2dVertex
 10
4.013957556738023
 20
5.53822354955292
 30
0.0
 70
     8
  0
VERTEX
  5
3E6
330
3BE
100
AcDbEntity
  8
0
100
AcDbVertex
100
AcDb2dVertex
 10
4.014248153509459
 20
5.537470910080251
 30
0.0
 70
     8
  0
VERTEX
  5
3E7
330
3BE
100
AcDbEntity
  8
0
100
AcDbVertex
100
AcDb2dVertex
 10
4.014517067400226
 20
5.536715444062352
 30
0.0
 70
     8
  0
VERTEX
  5
3E8
330
3BE
100
AcDbEntity
  8
0
100
AcDbVertex
100
AcDb2dVertex
 10
4.01476288425201
 20
5.535960448676715
 30
0.0
 70
     8
  0
VERTEX
  5
3E9
330
3BE
100
AcDbEntity
  8
0
100
AcDbVertex
100
AcDb2dVertex
 10
4.014984464887837
 20
5.535208396814647
 30
0.0
 70
     8
  0
VERTEX
  5
3EA
330
3BE
100
AcDbEntity
  8
0
100
AcDbVertex
100
AcDb2dVertex
 10
4.015181770056091
 20
5.534458464222722
 30
0.0
 70
     8
  0
VERTEX
  5
3EB
330
3BE
100
AcDbEntity
  8
0
100
AcDbVertex
100
AcDb2dVertex
 10
4.015355035486498
 20
5.533709002361333
 30
0.0
 70
     8
  0
VERTEX
  5
3EC
330
3BE
100
AcDbEntity
  8
0
100
AcDbVertex
100
AcDb2dVertex
 10
4.015504496908782
 20
5.532958362690871
 30
0.0
 70
     8
  0
VERTEX
  5
3ED
330
3BE
100
AcDbEntity
  8
0
100
AcDbVertex
100
AcDb2dVertex
 10
4.015630390052668
 20
5.532204896671725
 30
0.0
 70
     8
  0
VERTEX
  5
3EE
330
3BE
100
AcDbEntity
  8
0
100
AcDbVertex
100
AcDb2dVertex
 10
4.015732950647879
 20
5.531446955764289
 30
0.0
 70
     8
  0
VERTEX
  5
3EF
330
3BE
100
AcDbEntity
  8
0
100
AcDbVertex
100
AcDb2dVertex
 10
4.015812414424143
 20
5.530682891428953
 30
0.0
 70
     8
  0
VERTEX
  5
3F0
330
3BE
100
AcDbEntity
  8
0
100
AcDbVertex
100
AcDb2dVertex
 10
4.01586901711118
 20
5.529911055126106
 30
0.0
 70
     8
  0
VERTEX
  5
3F1
330
3BE
100
AcDbEntity
  8
0
100
AcDbVertex
100
AcDb2dVertex
 10
4.015902758745665
 20
5.529130269333309
 30
0.0
 70
     8
  0
VERTEX
  5
3F2
330
3BE
100
AcDbEntity
  8
0
100
AcDbVertex
100
AcDb2dVertex
 10
4.015912696592062
 20
5.528341240596783
 30
0.0
 70
     8
  0
VERTEX
  5
3F3
330
3BE
100
AcDbEntity
  8
0
100
AcDbVertex
100
AcDb2dVertex
 10
4.01589765222178
 20
5.527545146479919
 30
0.0
 70
     8
  0
VERTEX
  5
3F4
330
3BE
100
AcDbEntity
  8
0
100
AcDbVertex
100
AcDb2dVertex
 10
4.015856447206232
 20
5.526743164546106
 30
0.0
 70
     8
  0
VERTEX
  5
3F5
330
3BE
100
AcDbEntity
  8
0
100
AcDbVertex
100
AcDb2dVertex
 10
4.015787903116828
 20
5.525936472358734
 30
0.0
 70
     8
  0
VERTEX
  5
3F6
330
3BE
100
AcDbEntity
  8
0
100
AcDbVertex
100
AcDb2dVertex
 10
4.01569084152498
 20
5.525126247481193
 30
0.0
 70
     8
  0
VERTEX
  5
3F7
330
3BE
100
AcDbEntity
  8
0
100
AcDbVertex
100
AcDb2dVertex
 10
4.015564084002099
 20
5.524313667476872
 30
0.0
 70
     8
  0
VERTEX
  5
3F8
330
3BE
100
AcDbEntity
  8
0
100
AcDbVertex
100
AcDb2dVertex
 10
4.015406452119596
 20
5.523499909909162
 30
0.0
 70
     8
  0
VERTEX
  5
3F9
330
3BE
100
AcDbEntity
  8
0
100
AcDbVertex
100
AcDb2dVertex
 10
4.015216963853646
 20
5.522686544878961
 30
0.0
 70
     8
  0
VERTEX
  5
3FA
330
3BE
100
AcDbEntity
  8
0
100
AcDbVertex
100
AcDb2dVertex
 10
4.014995422799485
 20
5.521876712637202
 30
0.0
 70
     8
  0
VERTEX
  5
3FB
330
3BE
100
AcDbEntity
  8
0
100
AcDbVertex
100
AcDb2dVertex
 10
4.014741828957114
 20
5.521073945972329
 30
0.0
 70
     8
  0
VERTEX
  5
3FC
330
3BE
100
AcDbEntity
  8
0
100
AcDbVertex
100
AcDb2dVertex
 10
4.014456182326531
 20
5.520281777672785
 30
0.0
 70
     8
  0
VERTEX
  5
3FD
330
3BE
100
AcDbEntity
  8
0
100
AcDbVertex
100
AcDb2dVertex
 10
4.014138482907738
 20
5.519503740527012
 30
0.0
 70
     8
  0
VERTEX
  5
3FE
330
3BE
100
AcDbEntity
  8
0
100
AcDbVertex
100
AcDb2dVertex
 10
4.013788730700734
 20
5.518743367323452
 30
0.0
 70
     8
  0
VERTEX
  5
3FF
330
3BE
100
AcDbEntity
  8
0
100
AcDbVertex
100
AcDb2dVertex
 10
4.013406925705518
 20
5.51800419085055
 30
0.0
 70
     8
  0
VERTEX
  5
400
330
3BE
100
AcDbEntity
  8
0
100
AcDbVertex
100
AcDb2dVertex
 10
4.012993067922092
 20
5.517289743896748
 30
0.0
 70
     8
  0
VERTEX
  5
401
330
3BE
100
AcDbEntity
  8
0
100
AcDbVertex
100
AcDb2dVertex
 10
4.012547864392939
 20
5.516603245225394
 30
0.0
 70
     8
  0
VERTEX
  5
402
330
3BE
100
AcDbEntity
  8
0
100
AcDbVertex
100
AcDb2dVertex
 10
4.012074850330482
 20
5.515946657499466
 30
0.0
 70
     8
  0
VERTEX
  5
403
330
3BE
100
AcDbEntity
  8
0
100
AcDbVertex
100
AcDb2dVertex
 10
4.011578267989626
 20
5.515321629356845
 30
0.0
 70
     8
  0
VERTEX
  5
404
330
3BE
100
AcDbEntity
  8
0
100
AcDbVertex
100
AcDb2dVertex
 10
4.011062359625277
 20
5.514729809435414
 30
0.0
 70
     8
  0
VERTEX
  5
405
330
3BE
100
AcDbEntity
  8
0
100
AcDbVertex
100
AcDb2dVertex
 10
4.010531367492344
 20
5.514172846373056
 30
0.0
 70
     8
  0
VERTEX
  5
406
330
3BE
100
AcDbEntity
  8
0
100
AcDbVertex
100
AcDb2dVertex
 10
4.00998953384573
 20
5.513652388807652
 30
0.0
 70
     8
  0
VERTEX
  5
407
330
3BE
100
AcDbEntity
  8
0
100
AcDbVertex
100
AcDb2dVertex
 10
4.009441100940344
 20
5.513170085377086
 30
0.0
 70
     8
  0
VERTEX
  5
408
330
3BE
100
AcDbEntity
  8
0
100
AcDbVertex
100
AcDb2dVertex
 10
4.00889031103109
 20
5.512727584719238
 30
0.0
 70
     8
  0
VERTEX
  5
409
330
3BE
100
AcDbEntity
  8
0
100
AcDbVertex
100
AcDb2dVertex
 10
4.008340660066552
 20
5.512325789657278
 30
0.0
 70
     8
  0
VERTEX
  5
40A
330
3BE
100
AcDbEntity
  8
0
100
AcDbVertex
100
AcDb2dVertex
 10
4.007792658770017
 20
5.511962619755511
 30
0.0
 70
     8
  0
VERTEX
  5
40B
330
3BE
100
AcDbEntity
  8
0
100
AcDbVertex
100
AcDb2dVertex
 10
4.007246071558453
 20
5.511635248763528
 30
0.0
 70
     8
  0
VERTEX
  5
40C
330
3BE
100
AcDbEntity
  8
0
100
AcDbVertex
100
AcDb2dVertex
 10
4.006700662848821
 20
5.511340850430921
 30
0.0
 70
     8
  0
VERTEX
  5
40D
330
3BE
100
AcDbEntity
  8
0
100
AcDbVertex
100
AcDb2dVertex
 10
4.006156197058087
 20
5.511076598507279
 30
0.0
 70
     8
  0
VERTEX
  5
40E
330
3BE
100
AcDbEntity
  8
0
100
AcDbVertex
100
AcDb2dVertex
 10
4.005612438603216
 20
5.510839666742195
 30
0.0
 70
     8
  0
VERTEX
  5
40F
330
3BE
100
AcDbEntity
  8
0
100
AcDbVertex
100
AcDb2dVertex
 10
4.005069151901174
 20
5.510627228885259
 30
0.0
 70
     8
  0
VERTEX
  5
410
330
3BE
100
AcDbEntity
  8
0
100
AcDbVertex
100
AcDb2dVertex
 10
4.004526101368923
 20
5.510436458686062
 30
0.0
 70
     8
  0
VERTEX
  5
411
330
3BE
100
AcDbEntity
  8
0
100
AcDbVertex
100
AcDb2dVertex
 10
4.003982776429866
 20
5.510265040188044
 30
0.0
 70
     8
  0
VERTEX
  5
412
330
3BE
100
AcDbEntity
  8
0
100
AcDbVertex
100
AcDb2dVertex
 10
4.003437566533148
 20
5.510112698610032
 30
0.0
 70
     8
  0
VERTEX
  5
413
330
3BE
100
AcDbEntity
  8
0
100
AcDbVertex
100
AcDb2dVertex
 10
4.002888586134353
 20
5.509979669464708
 30
0.0
 70
     8
  0
VERTEX
  5
414
330
3BE
100
AcDbEntity
  8
0
100
AcDbVertex
100
AcDb2dVertex
 10
4.00233394968906
 20
5.509866188264748
 30
0.0
 70
     8
  0
VERTEX
  5
415
330
3BE
100
AcDbEntity
  8
0
100
AcDbVertex
100
AcDb2dVertex
 10
4.001771771652853
 20
5.509772490522829
 30
0.0
 70
     8
  0
VERTEX
  5
416
330
3BE
100
AcDbEntity
  8
0
100
AcDbVertex
100
AcDb2dVertex
 10
4.001200166481314
 20
5.509698811751631
 30
0.0
 70
     8
  0
VERTEX
  5
417
330
3BE
100
AcDbEntity
  8
0
100
AcDbVertex
100
AcDb2dVertex
 10
4.000617248630026
 20
5.509645387463831
 30
0.0
 70
     8
  0
VERTEX
  5
418
330
3BE
100
AcDbEntity
  8
0
100
AcDbVertex
100
AcDb2dVertex
 10
4.000021132554569
 20
5.509612453172106
 30
0.0
 70
     8
  0
VERTEX
  5
419
330
3BE
100
AcDbEntity
  8
0
100
AcDbVertex
100
AcDb2dVertex
 10
3.999410757605649
 20
5.509600205145212
 30
0.0
 70
     8
  0
VERTEX
  5
41A
330
3BE
100
AcDbEntity
  8
0
100
AcDbVertex
100
AcDb2dVertex
 10
3.99878836271446
 20
5.509608682676208
 30
0.0
 70
     8
  0
VERTEX
  5
41B
330
3BE
100
AcDbEntity
  8
0
100
AcDbVertex
100
AcDb2dVertex
 10
3.99815701170732
 20
5.509637885814232
 30
0.0
 70
     8
  0
VERTEX
  5
41C
330
3BE
100
AcDbEntity
  8
0
100
AcDbVertex
100
AcDb2dVertex
 10
3.997519768410547
 20
5.50968781460842
 30
0.0
 70
     8
  0
VERTEX
  5
41D
330
3BE
100
AcDbEntity
  8
0
100
AcDbVertex
100
AcDb2dVertex
 10
3.996879696650458
 20
5.50975846910791
 30
0.0
 70
     8
  0
VERTEX
  5
41E
330
3BE
100
AcDbEntity
  8
0
100
AcDbVertex
100
AcDb2dVertex
 10
3.99623986025337
 20
5.509849849361836
 30
0.0
 70
     8
  0
VERTEX
  5
41F
330
3BE
100
AcDbEntity
  8
0
100
AcDbVertex
100
AcDb2dVertex
 10
3.995603323045601
 20
5.509961955419338
 30
0.0
 70
     8
  0
VERTEX
  5
420
330
3BE
100
AcDbEntity
  8
0
100
AcDbVertex
100
AcDb2dVertex
 10
3.994973148853467
 20
5.510094787329551
 30
0.0
 70
     8
  0
VERTEX
  5
421
330
3BE
100
AcDbEntity
  8
0
100
AcDbVertex
100
AcDb2dVertex
 10
3.994351615920901
 20
5.510248423637649
 30
0.0
 70
     8
  0
VERTEX
  5
422
330
3BE
100
AcDbEntity
  8
0
100
AcDbVertex
100
AcDb2dVertex
 10
3.993737860162284
 20
5.510423256872951
 30
0.0
 70
     8
  0
VERTEX
  5
423
330
3BE
100
AcDbEntity
  8
0
100
AcDbVertex
100
AcDb2dVertex
 10
3.993130231909612
 20
5.510619758060813
 30
0.0
 70
     8
  0
VERTEX
  5
424
330
3BE
100
AcDbEntity
  8
0
100
AcDbVertex
100
AcDb2dVertex
 10
3.992527081494882
 20
5.510838398226591
 30
0.0
 70
     8
  0
VERTEX
  5
425
330
3BE
100
AcDbEntity
  8
0
100
AcDbVertex
100
AcDb2dVertex
 10
3.99192675925009
 20
5.511079648395641
 30
0.0
 70
     8
  0
VERTEX
  5
426
330
3BE
100
AcDbEntity
  8
0
100
AcDbVertex
100
AcDb2dVertex
 10
3.991327615507231
 20
5.511343979593318
 30
0.0
 70
     8
  0
VERTEX
  5
427
330
3BE
100
AcDbEntity
  8
0
100
AcDbVertex
100
AcDb2dVertex
 10
3.990728000598302
 20
5.511631862844979
 30
0.0
 70
     8
  0
VERTEX
  5
428
330
3BE
100
AcDbEntity
  8
0
100
AcDbVertex
100
AcDb2dVertex
 10
3.990126264855298
 20
5.511943769175979
 30
0.0
 70
     8
  0
VERTEX
  5
429
330
3BE
100
AcDbEntity
  8
0
100
AcDbVertex
100
AcDb2dVertex
 10
3.989521544180378
 20
5.51227969856994
 30
0.0
 70
     8
  0
VERTEX
  5
42A
330
3BE
100
AcDbEntity
  8
0
100
AcDbVertex
100
AcDb2dVertex
 10
3.988916116756353
 20
5.512637766843544
 30
0.0
 70
     8
  0
VERTEX
  5
42B
330
3BE
100
AcDbEntity
  8
0
100
AcDbVertex
100
AcDb2dVertex
 10
3.988313046336194
 20
5.513015618771736
 30
0.0
 70
     8
  0
VERTEX
  5
42C
330
3BE
100
AcDbEntity
  8
0
100
AcDbVertex
100
AcDb2dVertex
 10
3.987715396672876
 20
5.513410899129466
 30
0.0
 70
     8
  0
VERTEX
  5
42D
330
3BE
100
AcDbEntity
  8
0
100
AcDbVertex
100
AcDb2dVertex
 10
3.98712623151937
 20
5.513821252691677
 30
0.0
 70
     8
  0
VERTEX
  5
42E
330
3BE
100
AcDbEntity
  8
0
100
AcDbVertex
100
AcDb2dVertex
 10
3.986548614628648
 20
5.514244324233319
 30
0.0
 70
     8
  0
VERTEX
  5
42F
330
3BE
100
AcDbEntity
  8
0
100
AcDbVertex
100
AcDb2dVertex
 10
3.985985609753686
 20
5.514677758529338
 30
0.0
 70
     8
  0
VERTEX
  5
430
330
3BE
100
AcDbEntity
  8
0
100
AcDbVertex
100
AcDb2dVertex
 10
3.985440280647454
 20
5.515119200354681
 30
0.0
 70
     8
  0
VERTEX
  5
431
330
3BE
100
AcDbEntity
  8
0
100
AcDbVertex
100
AcDb2dVertex
 10
3.984914984057114
 20
5.515566765534219
 30
0.0
 70
     8
  0
VERTEX
  5
432
330
3BE
100
AcDbEntity
  8
0
100
AcDbVertex
100
AcDb2dVertex
 10
3.984409248706577
 20
5.516020454092519
 30
0.0
 70
     8
  0
VERTEX
  5
433
330
3BE
100
AcDbEntity
  8
0
100
AcDbVertex
100
AcDb2dVertex
 10
3.983921896313946
 20
5.516480737104077
 30
0.0
 70
     8
  0
VERTEX
  5
434
330
3BE
100
AcDbEntity
  8
0
100
AcDbVertex
100
AcDb2dVertex
 10
3.98345174859732
 20
5.516948085643383
 30
0.0
 70
     8
  0
VERTEX
  5
435
330
3BE
100
AcDbEntity
  8
0
100
AcDbVertex
100
AcDb2dVertex
 10
3.982997627274799
 20
5.517422970784931
 30
0.0
 70
     8
  0
VERTEX
  5
436
330
3BE
100
AcDbEntity
  8
0
100
AcDbVertex
100
AcDb2dVertex
 10
3.982558354064484
 20
5.517905863603213
 30
0.0
 70
     8
  0
VERTEX
  5
437
330
3BE
100
AcDbEntity
  8
0
100
AcDbVertex
100
AcDb2dVertex
 10
3.982132750684476
 20
5.518397235172722
 30
0.0
 70
     8
  0
VERTEX
  5
438
330
3BE
100
AcDbEntity
  8
0
100
AcDbVertex
100
AcDb2dVertex
 10
3.981719638852874
 20
5.518897556567951
 30
0.0
 70
     8
  0
VERTEX
  5
439
330
3BE
100
AcDbEntity
  8
0
100
AcDbVertex
100
AcDb2dVertex
 10
3.981318036655871
 20
5.519407416611541
 30
0.0
 70
     8
  0
VERTEX
  5
43A
330
3BE
100
AcDbEntity
  8
0
100
AcDbVertex
100
AcDb2dVertex
 10
3.980927747652031
 20
5.519927875118733
 30
0.0
 70
     8
  0
VERTEX
  5
43B
330
3BE
100
AcDbEntity
  8
0
100
AcDbVertex
100
AcDb2dVertex
 10
3.980548771768011
 20
5.520460109652918
 30
0.0
 70
     8
  0
VERTEX
  5
43C
330
3BE
100
AcDbEntity
  8
0
100
AcDbVertex
100
AcDb2dVertex
 10
3.980181108930462
 20
5.521005297777483
 30
0.0
 70
     8
  0
VERTEX
  5
43D
330
3BE
100
AcDbEntity
  8
0
100
AcDbVertex
100
AcDb2dVertex
 10
3.979824759066044
 20
5.52156461705582
 30
0.0
 70
     8
  0
VERTEX
  5
43E
330
3BE
100
AcDbEntity
  8
0
100
AcDbVertex
100
AcDb2dVertex
 10
3.979479722101408
 20
5.522139245051318
 30
0.0
 70
     8
  0
VERTEX
  5
43F
330
3BE
100
AcDbEntity
  8
0
100
AcDbVertex
100
AcDb2dVertex
 10
3.979145997963212
 20
5.522730359327367
 30
0.0
 70
     8
  0
VERTEX
  5
440
330
3BE
100
AcDbEntity
  8
0
100
AcDbVertex
100
AcDb2dVertex
 10
3.978823586578112
 20
5.523339137447356
 30
0.0
 70
     8
  0
VERTEX
  5
441
330
3BE
100
AcDbEntity
  8
0
100
AcDbVertex
100
AcDb2dVertex
 10
3.978512566437111
 20
5.523966325193244
 30
0.0
 70
     8
  0
VERTEX
  5
442
330
3BE
100
AcDbEntity
  8
0
100
AcDbVertex
100
AcDb2dVertex
 10
3.978213330288621
 20
5.524610941221257
 30
0.0
 70
     8
  0
VERTEX
  5
443
330
3BE
100
AcDbEntity
  8
0
100
AcDbVertex
100
AcDb2dVertex
 10
3.9779263494454
 20
5.525271572406191
 30
0.0
 70
     8
  0
VERTEX
  5
444
330
3BE
100
AcDbEntity
  8
0
100
AcDbVertex
100
AcDb2dVertex
 10
3.977652095220209
 20
5.525946805622842
 30
0.0
 70
     8
  0
VERTEX
  5
445
330
3BE
100
AcDbEntity
  8
0
100
AcDbVertex
100
AcDb2dVertex
 10
3.977391038925807
 20
5.526635227746005
 30
0.0
 70
     8
  0
VERTEX
  5
446
330
3BE
100
AcDbEntity
  8
0
100
AcDbVertex
100
AcDb2dVertex
 10
3.977143651874954
 20
5.527335425650477
 30
0.0
 70
     8
  0
VERTEX
  5
447
330
3BE
100
AcDbEntity
  8
0
100
AcDbVertex
100
AcDb2dVertex
 10
3.976910405380409
 20
5.528045986211051
 30
0.0
 70
     8
  0
VERTEX
  5
448
330
3BE
100
AcDbEntity
  8
0
100
AcDbVertex
100
AcDb2dVertex
 10
3.976691770754935
 20
5.528765496302524
 30
0.0
 70
     8
  0
VERTEX
  5
449
330
3BE
100
AcDbEntity
  8
0
100
AcDbVertex
100
AcDb2dVertex
 10
3.976488376464438
 20
5.529492582068184
 30
0.0
 70
     8
  0
VERTEX
  5
44A
330
3BE
100
AcDbEntity
  8
0
100
AcDbVertex
100
AcDb2dVertex
 10
3.976301479587428
 20
5.530226026725285
 30
0.0
 70
     8
  0
VERTEX
  5
44B
330
3BE
100
AcDbEntity
  8
0
100
AcDbVertex
100
AcDb2dVertex
 10
3.976132494355563
 20
5.530964652759574
 30
0.0
 70
     8
  0
VERTEX
  5
44C
330
3BE
100
AcDbEntity
  8
0
100
AcDbVertex
100
AcDb2dVertex
 10
3.9759828350005
 20
5.531707282656799
 30
0.0
 70
     8
  0
VERTEX
  5
44D
330
3BE
100
AcDbEntity
  8
0
100
AcDbVertex
100
AcDb2dVertex
 10
3.975853915753899
 20
5.532452738902707
 30
0.0
 70
     8
  0
VERTEX
  5
44E
330
3BE
100
AcDbEntity
  8
0
100
AcDbVertex
100
AcDb2dVertex
 10
3.975747150847416
 20
5.533199843983044
 30
0.0
 70
     8
  0
VERTEX
  5
44F
330
3BE
100
AcDbEntity
  8
0
100
AcDbVertex
100
AcDb2dVertex
 10
3.975663954512711
 20
5.533947420383559
 30
0.0
 70
     8
  0
VERTEX
  5
450
330
3BE
100
AcDbEntity
  8
0
100
AcDbVertex
100
AcDb2dVertex
 10
3.975605740981441
 20
5.534694290589996
 30
0.0
 70
     8
  0
VERTEX
  5
451
330
3BE
100
AcDbEntity
  8
0
100
AcDbVertex
100
AcDb2dVertex
 10
3.97557345307471
 20
5.535439002282367
 30
0.0
 70
     8
  0
VERTEX
  5
452
330
3BE
100
AcDbEntity
  8
0
100
AcDbVertex
100
AcDb2dVertex
 10
3.975566147971414
 20
5.536179003917725
 30
0.0
 70
     8
  0
VERTEX
  5
453
330
3BE
100
AcDbEntity
  8
0
100
AcDbVertex
100
AcDb2dVertex
 10
3.975582411439897
 20
5.536911469147388
 30
0.0
 70
     8
  0
VERTEX
  5
454
330
3BE
100
AcDbEntity
  8
0
100
AcDbVertex
100
AcDb2dVertex
 10
3.975620829248498
 20
5.537633571622676
 30
0.0
 70
     8
  0
VERTEX
  5
455
330
3BE
100
AcDbEntity
  8
0
100
AcDbVertex
100
AcDb2dVertex
 10
3.97567998716556
 20
5.538342484994904
 30
0.0
 70
     8
  0
VERTEX
  5
456
330
3BE
100
AcDbEntity
  8
0
100
AcDbVertex
100
AcDb2dVertex
 10
3.975758470959424
 20
5.539035382915389
 30
0.0
 70
     8
  0
VERTEX
  5
457
330
3BE
100
AcDbEntity
  8
0
100
AcDbVertex
100
AcDb2dVertex
 10
3.975854866398434
 20
5.53970943903545
 30
0.0
 70
     8
  0
VERTEX
  5
458
330
3BE
100
AcDbEntity
  8
0
100
AcDbVertex
100
AcDb2dVertex
 10
3.97596775925093
 20
5.540361827006404
 30
0.0
 70
     8
  0
VERTEX
  5
459
330
3BE
100
AcDbEntity
  8
0
100
AcDbVertex
100
AcDb2dVertex
 10
3.976096088843169
 20
5.540990741100021
 30
0.0
 70
     8
  0
VERTEX
  5
45A
330
3BE
100
AcDbEntity
  8
0
100
AcDbVertex
100
AcDb2dVertex
 10
3.976240208733066
 20
5.541598458069887
 30
0.0
 70
     8
  0
VERTEX
  5
45B
330
3BE
100
AcDbEntity
  8
0
100
AcDbVertex
100
AcDb2dVertex
 10
3.976400826036449
 20
5.54218827529004
 30
0.0
 70
     8
  0
VERTEX
  5
45C
330
3BE
100
AcDbEntity
  8
0
100
AcDbVertex
100
AcDb2dVertex
 10
3.976578647869149
 20
5.54276349013452
 30
0.0
 70
     8
  0
VERTEX
  5
45D
330
3BE
100
AcDbEntity
  8
0
100
AcDbVertex
100
AcDb2dVertex
 10
3.976774381346993
 20
5.543327399977362
 30
0.0
 70
     8
  0
VERTEX
  5
45E
330
3BE
100
AcDbEntity
  8
0
100
AcDbVertex
100
AcDb2dVertex
 10
3.97698873358581
 20
5.543883302192608
 30
0.0
 70
     8
  0
VERTEX
  5
45F
330
3BE
100
AcDbEntity
  8
0
100
AcDbVertex
100
AcDb2dVertex
 10
3.977222411701431
 20
5.544434494154294
 30
0.0
 70
     8
  0
VERTEX
  5
460
330
3BE
100
AcDbEntity
  8
0
100
AcDbVertex
100
AcDb2dVertex
 10
3.977476122809684
 20
5.544984273236461
 30
0.0
 70
     8
  0
VERTEX
  5
461
330
3BE
100
AcDbEntity
  8
0
100
AcDbVertex
100
AcDb2dVertex
 10
3.977750102652516
 20
5.545534837704844
 30
0.0
 70
     8
  0
VERTEX
  5
462
330
3BE
100
AcDbEntity
  8
0
100
AcDbVertex
100
AcDb2dVertex
 10
3.978042701476357
 20
5.54608398939198
 30
0.0
 70
     8
  0
VERTEX
  5
463
330
3BE
100
AcDbEntity
  8
0
100
AcDbVertex
100
AcDb2dVertex
 10
3.978351798153752
 20
5.546628431022105
 30
0.0
 70
     8
  0
VERTEX
  5
464
330
3BE
100
AcDbEntity
  8
0
100
AcDbVertex
100
AcDb2dVertex
 10
3.97867527155725
 20
5.547164865319454
 30
0.0
 70
     8
  0
VERTEX
  5
465
330
3BE
100
AcDbEntity
  8
0
100
AcDbVertex
100
AcDb2dVertex
 10
3.979011000559394
 20
5.54768999500826
 30
0.0
 70
     8
  0
VERTEX
  5
466
330
3BE
100
AcDbEntity
  8
0
100
AcDbVertex
100
AcDb2dVertex
 10
3.979356864032734
 20
5.548200522812761
 30
0.0
 70
     8
  0
VERTEX
  5
467
330
3BE
100
AcDbEntity
  8
0
100
AcDbVertex
100
AcDb2dVertex
 10
3.979710740849817
 20
5.548693151457189
 30
0.0
 70
     8
  0
VERTEX
  5
468
330
3BE
100
AcDbEntity
  8
0
100
AcDbVertex
100
AcDb2dVertex
 10
3.980070509883189
 20
5.549164583665783
 30
0.0
 70
     8
  0
VERTEX
  5
469
330
3BE
100
AcDbEntity
  8
0
100
AcDbVertex
100
AcDb2dVertex
 10
3.980434639195241
 20
5.549612228708997
 30
0.0
 70
     8
  0
VERTEX
  5
46A
330
3BE
100
AcDbEntity
  8
0
100
AcDbVertex
100
AcDb2dVertex
 10
3.980803953607754
 20
5.550036322042186
 30
0.0
 70
     8
  0
VERTEX
  5
46B
330
3BE
100
AcDbEntity
  8
0
100
AcDbVertex
100
AcDb2dVertex
 10
3.981179867132352
 20
5.550437805666925
 30
0.0
 70
     8
  0
VERTEX
  5
46C
330
3BE
100
AcDbEntity
  8
0
100
AcDbVertex
100
AcDb2dVertex
 10
3.981563793780657
 20
5.550817621584787
 30
0.0
 70
     8
  0
VERTEX
  5
46D
330
3BE
100
AcDbEntity
  8
0
100
AcDbVertex
100
AcDb2dVertex
 10
3.981957147564294
 20
5.551176711797348
 30
0.0
 70
     8
  0
VERTEX
  5
46E
330
3BE
100
AcDbEntity
  8
0
100
AcDbVertex
100
AcDb2dVertex
 10
3.982361342494888
 20
5.551516018306183
 30
0.0
 70
     8
  0
VERTEX
  5
46F
330
3BE
100
AcDbEntity
  8
0
100
AcDbVertex
100
AcDb2dVertex
 10
3.982777792584062
 20
5.551836483112867
 30
0.0
 70
     8
  0
VERTEX
  5
470
330
3BE
100
AcDbEntity
  8
0
100
AcDbVertex
100
AcDb2dVertex
 10
3.983207911843441
 20
5.552139048218974
 30
0.0
 70
     8
  0
VERTEX
  5
471
330
3BE
100
AcDbEntity
  8
0
100
AcDbVertex
100
AcDb2dVertex
 10
3.983651975181019
 20
5.552424459373706
 30
0.0
 70
     8
  0
VERTEX
  5
472
330
3BE
100
AcDbEntity
  8
0
100
AcDbVertex
100
AcDb2dVertex
 10
3.984105701090274
 20
5.552692677316758
 30
0.0
 70
     8
  0
VERTEX
  5
473
330
3BE
100
AcDbEntity
  8
0
100
AcDbVertex
100
AcDb2dVertex
 10
3.984563668961058
 20
5.552943466535453
 30
0.0
 70
     8
  0
VERTEX
  5
474
330
3BE
100
AcDbEntity
  8
0
100
AcDbVertex
100
AcDb2dVertex
 10
3.985020458183219
 20
5.553176591517113
 30
0.0
 70
     8
  0
VERTEX
  5
475
330
3BE
100
AcDbEntity
  8
0
100
AcDbVertex
100
AcDb2dVertex
 10
3.985470648146607
 20
5.553391816749061
 30
0.0
 70
     8
  0
VERTEX
  5
476
330
3BE
100
AcDbEntity
  8
0
100
AcDbVertex
100
AcDb2dVertex
 10
3.985908818241071
 20
5.553588906718618
 30
0.0
 70
     8
  0
VERTEX
  5
477
330
3BE
100
AcDbEntity
  8
0
100
AcDbVertex
100
AcDb2dVertex
 10
3.986329547856461
 20
5.553767625913106
 30
0.0
 70
     8
  0
VERTEX
  5
478
330
3BE
100
AcDbEntity
  8
0
100
AcDbVertex
100
AcDb2dVertex
 10
3.986727416382625
 20
5.553927738819848
 30
0.0
 70
     8
  0
VERTEX
  5
479
330
3BE
100
AcDbEntity
  8
0
100
AcDbVertex
100
AcDb2dVertex
 10
3.987099360017695
 20
5.554069284707334
 30
0.0
 70
     8
  0
VERTEX
  5
47A
330
3BE
100
AcDbEntity
  8
0
100
AcDbVertex
100
AcDb2dVertex
 10
3.987451742192929
 20
5.554193401968738
 30
0.0
 70
     8
  0
VERTEX
  5
47B
330
3BE
100
AcDbEntity
  8
0
100
AcDbVertex
100
AcDb2dVertex
 10
3.987793283147862
 20
5.554301503778399
 30
0.0
 70
     8
  0
VERTEX
  5
47C
330
3BE
100
AcDbEntity
  8
0
100
AcDbVertex
100
AcDb2dVertex
 10
3.988132703122029
 20
5.55439500331066
 30
0.0
 70
     8
  0
VERTEX
  5
47D
330
3BE
100
AcDbEntity
  8
0
100
AcDbVertex
100
AcDb2dVertex
 10
3.98847872235497
 20
5.55447531373986
 30
0.0
 70
     8
  0
VERTEX
  5
47E
330
3BE
100
AcDbEntity
  8
0
100
AcDbVertex
100
AcDb2dVertex
 10
3.988840061086223
 20
5.554543848240343
 30
0.0
 70
     8
  0
VERTEX
  5
47F
330
3BE
100
AcDbEntity
  8
0
100
AcDbVertex
100
AcDb2dVertex
 10
3.989225439555322
 20
5.554602019986449
 30
0.0
 70
     8
  0
VERTEX
  5
480
330
3BE
100
AcDbEntity
  8
0
100
AcDbVertex
100
AcDb2dVertex
 10
3.989643578001807
 20
5.554651242152519
 30
0.0
 70
     8
  0
VERTEX
  5
481
330
3BE
100
AcDbEntity
  8
0
100
AcDbVertex
100
AcDb2dVertex
 10
3.990100996961185
 20
5.554692456862971
 30
0.0
 70
     8
  0
VERTEX
  5
482
330
3BE
100
AcDbEntity
  8
0
100
AcDbVertex
100
AcDb2dVertex
 10
3.990595418152853
 20
5.554724722042523
 30
0.0
 70
     8
  0
VERTEX
  5
483
330
3BE
100
AcDbEntity
  8
0
100
AcDbVertex
100
AcDb2dVertex
 10
3.991122363592182
 20
5.554746624565972
 30
0.0
 70
     8
  0
VERTEX
  5
484
330
3BE
100
AcDbEntity
  8
0
100
AcDbVertex
100
AcDb2dVertex
 10
3.991677355294541
 20
5.554756751308114
 30
0.0
 70
     8
  0
VERTEX
  5
485
330
3BE
100
AcDbEntity
  8
0
100
AcDbVertex
100
AcDb2dVertex
 10
3.992255915275297
 20
5.554753689143743
 30
0.0
 70
     8
  0
VERTEX
  5
486
330
3BE
100
AcDbEntity
  8
0
100
AcDbVertex
100
AcDb2dVertex
 10
3.992853565549821
 20
5.554736024947656
 30
0.0
 70
     8
  0
VERTEX
  5
487
330
3BE
100
AcDbEntity
  8
0
100
AcDbVertex
100
AcDb2dVertex
 10
3.993465828133481
 20
5.554702345594647
 30
0.0
 70
     8
  0
VERTEX
  5
488
330
3BE
100
AcDbEntity
  8
0
100
AcDbVertex
100
AcDb2dVertex
 10
3.994027890749648
 20
5.554852212971035
 30
0.0
 70
    16
  0
VERTEX
  5
489
330
3BE
100
AcDbEntity
  8
0
100
AcDbVertex
100
AcDb2dVertex
 10
3.999216664896657
 20
5.553766945393008
 30
0.0
 70
    16
  0
VERTEX
  5
48A
330
3BE
100
AcDbEntity
  8
0
100
AcDbVertex
100
AcDb2dVertex
 10
4.004284782977154
 20
5.550872890132256
 30
0.0
 70
    16
  0
VERTEX
  5
48B
330
3BE
100
AcDbEntity
  8
0
100
AcDbVertex
100
AcDb2dVertex
 10
4.008870201686671
 20
5.546772959644327
 30
0.0
 70
    16
  0
VERTEX
  5
48C
330
3BE
100
AcDbEntity
  8
0
100
AcDbVertex
100
AcDb2dVertex
 10
4.012369603140182
 20
5.542070116700851
 30
0.0
 70
    16
  0
VERTEX
  5
48D
330
3BE
100
AcDbEntity
  8
0
100
AcDbVertex
100
AcDb2dVertex
 10
4.015024337023174
 20
5.535920258706018
 30
0.0
 70
    16
  0
VERTEX
  5
48E
330
3BE
100
AcDbEntity
  8
0
100
AcDbVertex
100
AcDb2dVertex
 10
4.016110354279181
 20
5.530011540535364
 30
0.0
 70
    16
  0
VERTEX
  5
48F
330
3BE
100
AcDbEntity
  8
0
100
AcDbVertex
100
AcDb2dVertex
 10
4.015748348527179
 20
5.523499909909162
 30
0.0
 70
    16
  0
VERTEX
  5
490
330
3BE
100
AcDbEntity
  8
0
100
AcDbVertex
100
AcDb2dVertex
 10
4.013334964329675
 20
5.51698827928296
 30
0.0
 70
    16
  0
VERTEX
  5
491
330
3BE
100
AcDbEntity
  8
0
100
AcDbVertex
100
AcDb2dVertex
 10
4.008870201686671
 20
5.512285436339483
 30
0.0
 70
    16
  0
VERTEX
  5
492
330
3BE
100
AcDbEntity
  8
0
100
AcDbVertex
100
AcDb2dVertex
 10
4.004526095110179
 20
5.510235483674539
 30
0.0
 70
    16
  0
VERTEX
  5
493
330
3BE
100
AcDbEntity
  8
0
100
AcDbVertex
100
AcDb2dVertex
 10
4.000182026086152
 20
5.509391381078732
 30
0.0
 70
    16
  0
VERTEX
  5
494
330
3BE
100
AcDbEntity
  8
0
100
AcDbVertex
100
AcDb2dVertex
 10
3.994872595872629
 20
5.50987371104317
 30
0.0
 70
    16
  0
VERTEX
  5
495
330
3BE
100
AcDbEntity
  8
0
100
AcDbVertex
100
AcDb2dVertex
 10
3.990166483544136
 20
5.511682498725895
 30
0.0
 70
    16
  0
VERTEX
  5
496
330
3BE
100
AcDbEntity
  8
0
100
AcDbVertex
100
AcDb2dVertex
 10
3.985219059082616
 20
5.515058909109126
 30
0.0
 70
    16
  0
VERTEX
  5
497
330
3BE
100
AcDbEntity
  8
0
100
AcDbVertex
100
AcDb2dVertex
 10
3.981598964010129
 20
5.518797066965686
 30
0.0
 70
    16
  0
VERTEX
  5
498
330
3BE
100
AcDbEntity
  8
0
100
AcDbVertex
100
AcDb2dVertex
 10
3.97870291799411
 20
5.523138162435833
 30
0.0
 70
    16
  0
VERTEX
  5
499
330
3BE
100
AcDbEntity
  8
0
100
AcDbVertex
100
AcDb2dVertex
 10
3.976530883482096
 20
5.528685107975118
 30
0.0
 70
    16
  0
VERTEX
  5
49A
330
3BE
100
AcDbEntity
  8
0
100
AcDbVertex
100
AcDb2dVertex
 10
3.975324172607112
 20
5.534714383478841
 30
0.0
 70
    16
  0
VERTEX
  5
49B
330
3BE
100
AcDbEntity
  8
0
100
AcDbVertex
100
AcDb2dVertex
 10
3.975806871978091
 20
5.540623101649495
 30
0.0
 70
    16
  0
VERTEX
  5
49C
330
3BE
100
AcDbEntity
  8
0
100
AcDbVertex
100
AcDb2dVertex
 10
3.977254894986101
 20
5.544964171961602
 30
0.0
 70
    16
  0
VERTEX
  5
49D
330
3BE
100
AcDbEntity
  8
0
100
AcDbVertex
100
AcDb2dVertex
 10
3.980030284935606
 20
5.54942584992286
 30
0.0
 70
    16
  0
VERTEX
  5
49E
330
3BE
100
AcDbEntity
  8
0
100
AcDbVertex
100
AcDb2dVertex
 10
3.983047024570602
 20
5.552319930341652
 30
0.0
 70
    16
  0
VERTEX
  5
49F
330
3BE
100
AcDbEntity
  8
0
100
AcDbVertex
100
AcDb2dVertex
 10
3.987029087842627
 20
5.554128718024377
 30
0.0
 70
    16
  0
SEQEND
  5
4A1
330
3BE
100
AcDbEntity
  8
0
  0
ARC
  5
4A2
330
18
100
AcDbEntity
  8
0
100
AcDbCircle
 10
4.066504084914211
 20
5.298083172934629
 30
0.0
 40
0.015738
100
AcDbArc
 50
90.831296
 51
117.875387
  0
ARC
  5
4A3
330
18
100
AcDbEntity
  8
0
100
AcDbCircle
 10
4.073947084914209
 20
5.294824172934629
 30
0.0
 40
0.024043
100
AcDbArc
 50
168.81966
 51
189.298348
  0
ARC
  5
4A4
330
18
100
AcDbEntity
  8
0
100
AcDbCircle
 10
4.070048084914209
 20
5.295594172934628
 30
0.0
 40
0.020069
100
AcDbArc
 50
144.919477
 51
168.81966
  0
ARC
  5
4A5
330
18
100
AcDbEntity
  8
0
100
AcDbCircle
 10
4.066504084914211
 20
5.298083172934629
 30
0.0
 40
0.015738
100
AcDbArc
 50
117.875387
 51
144.919477
  0
LWPOLYLINE
  5
4A6
330
18
100
AcDbEntity
  8
0
100
AcDbPolyline
 90
        2
 70
     0
 43
0.0
 10
4.12019621231144
 20
5.437952927909564
 42
0.0812356127077451
 10
4.12588309144902
 20
5.430450932619207
 42
0.0812356127077451
  0
ARC
  5
4AB
330
18
100
AcDbEntity
  8
0
  6
Continuous
100
AcDbCircle
 10
4.06148308491421
 20
5.286386172934628
 30
0.0
 40
0.029162
100
AcDbArc
 50
9.298347999999999
 51
27.875387
  0
ARC
  5
4AC
330
18
100
AcDbEntity
  8
0
100
AcDbCircle
 10
4.06656708491421
 20
5.293753172934628
 30
0.0
 40
0.020069
100
AcDbArc
 50
66.931113
 51
90.831296
  0
ARC
  5
4AD
330
18
100
AcDbEntity
  8
0
100
AcDbCircle
 10
4.065009084914209
 20
5.290096172934629
 30
0.0
 40
0.024043
100
AcDbArc
 50
46.452425
 51
66.931113
  0
ARC
  5
4AE
330
18
100
AcDbEntity
  8
0
100
AcDbCircle
 10
4.06148308491421
 20
5.286386172934628
 30
0.0
 40
0.029162
100
AcDbArc
 50
27.875387
 51
46.452425
  0
ARC
  5
4AF
330
18
100
AcDbEntity
  8
0
100
AcDbCircle
 10
4.133479445158668
 20
5.454019624652584
 30
0.0
 40
0.015738
100
AcDbArc
 50
90.831296
 51
117.875387
  0
ARC
  5
4B0
330
18
100
AcDbEntity
  8
0
100
AcDbCircle
 10
4.133542445158667
 20
5.449689624652584
 30
0.0
 40
0.020069
100
AcDbArc
 50
66.931113
 51
90.831296
  0
ARC
  5
4B1
330
18
100
AcDbEntity
  8
0
100
AcDbCircle
 10
4.131985445158668
 20
5.446033624652583
 30
0.0
 40
0.024043
100
AcDbArc
 50
46.452425
 51
66.931113
  0
ARC
  5
4B2
330
18
100
AcDbEntity
  8
0
100
AcDbCircle
 10
4.128458445158668
 20
5.442322624652584
 30
0.0
 40
0.029162
100
AcDbArc
 50
27.875387
 51
46.452425
  0
ARC
  5
4B3
330
18
100
AcDbEntity
  8
0
100
AcDbCircle
 10
4.128458445158668
 20
5.442322624652584
 30
0.0
 40
0.029162
100
AcDbArc
 50
9.298347999999999
 51
27.875387
  0
ARC
  5
4B4
330
18
100
AcDbEntity
  8
0
100
AcDbCircle
 10
4.133510445158668
 20
5.443150624652584
 30
0.0
 40
0.024043
100
AcDbArc
 50
348.81966
 51
9.298347999999999
  0
ARC
  5
4B5
330
18
100
AcDbEntity
  8
0
100
AcDbCircle
 10
4.137409445158668
 20
5.442379624652584
 30
0.0
 40
0.020069
100
AcDbArc
 50
324.919477
 51
348.81966
  0
ARC
  5
4B6
330
18
100
AcDbEntity
  8
0
100
AcDbCircle
 10
4.140953445158668
 20
5.439890624652583
 30
0.0
 40
0.015738
100
AcDbArc
 50
297.875387
 51
324.919477
  0
ARC
  5
4B7
330
18
100
AcDbEntity
  8
0
100
AcDbCircle
 10
4.140953445158668
 20
5.439890624652583
 30
0.0
 40
0.015738
100
AcDbArc
 50
270.831296
 51
297.875387
  0
ARC
  5
4B8
330
18
100
AcDbEntity
  8
0
100
AcDbCircle
 10
4.140890445158669
 20
5.444220624652584
 30
0.0
 40
0.020069
100
AcDbArc
 50
246.931113
 51
270.831296
  0
ARC
  5
4B9
330
18
100
AcDbEntity
  8
0
  6
Continuous
100
AcDbCircle
 10
4.142447445158667
 20
5.447877624652583
 30
0.0
 40
0.024043
100
AcDbArc
 50
226.452425
 51
246.931113
  0
ARC
  5
4BA
330
18
100
AcDbEntity
  8
0
100
AcDbCircle
 10
4.145974445158669
 20
5.451587624652583
 30
0.0
 40
0.029162
100
AcDbArc
 50
189.298348
 51
207.875387
  0
ARC
  5
4BB
330
18
100
AcDbEntity
  8
0
100
AcDbCircle
 10
4.140922445158668
 20
5.450760624652584
 30
0.0
 40
0.024043
100
AcDbArc
 50
168.81966
 51
189.298348
  0
ARC
  5
4BC
330
18
100
AcDbEntity
  8
0
100
AcDbCircle
 10
4.137023445158669
 20
5.451530624652583
 30
0.0
 40
0.020069
100
AcDbArc
 50
144.919477
 51
168.81966
  0
ARC
  5
4BD
330
18
100
AcDbEntity
  8
0
100
AcDbCircle
 10
4.133479445158668
 20
5.454019624652584
 30
0.0
 40
0.015738
100
AcDbArc
 50
117.875387
 51
144.919477
  0
LWPOLYLINE
  5
4BE
330
18
100
AcDbEntity
  8
0
  6
HIDDEN
100
AcDbPolyline
 90
        2
 70
     0
 43
0.0
 10
3.784841465537542
 20
5.683617081719259
 10
3.69942446553754
 20
5.620961275052265
  0
LWPOLYLINE
  5
4C3
330
18
100
AcDbEntity
  8
0
  6
HIDDEN
100
AcDbPolyline
 90
        2
 70
     0
 43
0.0
 10
3.711303465537541
 20
5.974318447239307
 10
3.751183465537542
 20
6.014517447239308
  0
LINE
  5
4C8
330
18
100
AcDbEntity
  8
0
100
AcDbLine
 10
3.90926408491421
 20
5.937811122366323
 30
0.0
 11
3.91929408491421
 21
5.932846122366324
 31
0.0
  0
LWPOLYLINE
  5
4C9
330
18
100
AcDbEntity
  8
0
100
AcDbPolyline
 90
        2
 70
     0
 43
0.0
 10
4.00931908491421
 20
5.949223122366324
 10
4.00931908491421
 20
5.704975122366323
  0
LWPOLYLINE
  5
4CE
330
18
100
AcDbEntity
  8
0
100
AcDbPolyline
 90
        4
 70
     0
 43
0.0
 10
4.05236908491421
 20
5.947393122366323
 10
4.04444508491421
 20
5.926341122366323
 10
4.112901084914209
 20
5.829518122366324
 10
4.136921084914211
 20
5.830615122366324
  0
ARC
  5
4D5
330
18
100
AcDbEntity
  8
0
100
AcDbCircle
 10
3.96720308491421
 20
5.830402012021052
 30
0.0
 40
0.007634
100
AcDbArc
 50
207.145486
 51
241.031925
  0
ARC
  5
4D6
330
18
100
AcDbEntity
  8
0
100
AcDbCircle
 10
3.966618084914211
 20
5.837202012021052
 30
0.0
 40
0.014458
100
AcDbArc
 50
274.918365
 51
299.3685430000001
  0
ARC
  5
4D7
330
18
100
AcDbEntity
  8
0
100
AcDbCircle
 10
3.96720308491421
 20
5.830402012021052
 30
0.0
 40
0.007634
100
AcDbArc
 50
241.031925
 51
274.918365
  0
LWPOLYLINE
  5
4D8
330
18
100
AcDbEntity
  8
0
100
AcDbPolyline
 90
        4
 70
     0
 43
0.0
 10
4.05236908491421
 20
5.811223122366324
 10
4.04444508491421
 20
5.790171122366324
 10
4.112901084914209
 20
5.693348122366324
 10
4.136921084914211
 20
5.694445122366324
  0
ARC
  5
4DF
330
18
100
AcDbEntity
  8
0
100
AcDbCircle
 10
3.97927608491421
 20
5.764437605124205
 30
0.0
 40
0.014458
100
AcDbArc
 50
94.91836500000001
 51
119.368543
  0
ARC
  5
4E0
330
18
100
AcDbEntity
  8
0
100
AcDbCircle
 10
3.97869108491421
 20
5.771237605124205
 30
0.0
 40
0.007634
100
AcDbArc
 50
61.031925
 51
94.91836500000001
  0
ARC
  5
4E1
330
18
100
AcDbEntity
  8
0
100
AcDbCircle
 10
3.96720308491421
 20
5.750484605124206
 30
0.0
 40
0.007634
100
AcDbArc
 50
207.145486
 51
241.031925
  0
ARC
  5
4E2
330
18
100
AcDbEntity
  8
0
100
AcDbCircle
 10
3.97327608491421
 20
5.753598605124206
 30
0.0
 40
0.014458
100
AcDbArc
 50
182.695308
 51
207.145486
  0
ARC
  5
4E3
330
18
100
AcDbEntity
  8
0
100
AcDbCircle
 10
3.98039308491421
 20
5.753933605124206
 30
0.0
 40
0.021583
100
AcDbArc
 50
165.362111
 51
182.695308
  0
ARC
  5
4E4
330
18
100
AcDbEntity
  8
0
100
AcDbCircle
 10
3.989988084914211
 20
5.751427605124206
 30
0.0
 40
0.0315
100
AcDbArc
 50
151.031925
 51
165.362111
  0
ARC
  5
4E5
330
18
100
AcDbEntity
  8
0
100
AcDbCircle
 10
3.989988084914211
 20
5.751427605124206
 30
0.0
 40
0.0315
100
AcDbArc
 50
136.701739
 51
151.031925
  0
ARC
  5
4E6
330
18
100
AcDbEntity
  8
0
100
AcDbCircle
 10
3.982770084914209
 20
5.758228605124206
 30
0.0
 40
0.021583
100
AcDbArc
 50
119.368543
 51
136.701739
  0
ARC
  5
4E7
330
18
100
AcDbEntity
  8
0
100
AcDbCircle
 10
3.97869108491421
 20
5.771237605124205
 30
0.0
 40
0.007634
100
AcDbArc
 50
27.145486
 51
61.031925
  0
ARC
  5
4E8
330
18
100
AcDbEntity
  8
0
100
AcDbCircle
 10
3.972618084914211
 20
5.768123605124205
 30
0.0
 40
0.014458
100
AcDbArc
 50
2.695308
 51
27.145486
  0
ARC
  5
4E9
330
18
100
AcDbEntity
  8
0
100
AcDbCircle
 10
3.96550208491421
 20
5.767788605124205
 30
0.0
 40
0.021583
100
AcDbArc
 50
345.362111
 51
2.695308
  0
ARC
  5
4EA
330
18
100
AcDbEntity
  8
0
100
AcDbCircle
 10
3.95590608491421
 20
5.770294605124206
 30
0.0
 40
0.0315
100
AcDbArc
 50
331.031925
 51
345.362111
  0
ARC
  5
4EB
330
18
100
AcDbEntity
  8
0
100
AcDbCircle
 10
3.95590608491421
 20
5.770294605124206
 30
0.0
 40
0.0315
100
AcDbArc
 50
316.701739
 51
331.031925
  0
ARC
  5
4EC
330
18
100
AcDbEntity
  8
0
100
AcDbCircle
 10
3.963124084914211
 20
5.763493605124205
 30
0.0
 40
0.021583
100
AcDbArc
 50
299.3685430000001
 51
316.701739
  0
ARC
  5
4ED
330
18
100
AcDbEntity
  8
0
100
AcDbCircle
 10
3.966618084914211
 20
5.757284605124206
 30
0.0
 40
0.014458
100
AcDbArc
 50
274.918365
 51
299.3685430000001
  0
ARC
  5
4EE
330
18
100
AcDbEntity
  8
0
100
AcDbCircle
 10
3.96720308491421
 20
5.750484605124206
 30
0.0
 40
0.007634
100
AcDbArc
 50
241.031925
 51
274.918365
  0
ARC
  5
4EF
330
18
100
AcDbEntity
  8
0
100
AcDbCircle
 10
3.96720308491421
 20
5.667608198227359
 30
0.0
 40
0.007634
100
AcDbArc
 50
207.145486
 51
241.031925
  0
ARC
  5
4F0
330
18
100
AcDbEntity
  8
0
100
AcDbCircle
 10
3.97327608491421
 20
5.670722198227359
 30
0.0
 40
0.014458
100
AcDbArc
 50
182.695308
 51
207.145486
  0
ARC
  5
4F1
330
18
100
AcDbEntity
  8
0
100
AcDbCircle
 10
3.98039308491421
 20
5.671057198227358
 30
0.0
 40
0.021583
100
AcDbArc
 50
165.362111
 51
182.695308
  0
ARC
  5
4F2
330
18
100
AcDbEntity
  8
0
100
AcDbCircle
 10
3.989988084914211
 20
5.668551198227358
 30
0.0
 40
0.0315
100
AcDbArc
 50
151.031925
 51
165.362111
  0
ARC
  5
4F3
330
18
100
AcDbEntity
  8
0
100
AcDbCircle
 10
3.989988084914211
 20
5.668551198227358
 30
0.0
 40
0.0315
100
AcDbArc
 50
136.701739
 51
151.031925
  0
ARC
  5
4F4
330
18
100
AcDbEntity
  8
0
100
AcDbCircle
 10
3.982770084914209
 20
5.675352198227358
 30
0.0
 40
0.021583
100
AcDbArc
 50
119.368543
 51
136.701739
  0
ARC
  5
4F5
330
18
100
AcDbEntity
  8
0
100
AcDbCircle
 10
3.97927608491421
 20
5.681561198227358
 30
0.0
 40
0.014458
100
AcDbArc
 50
94.91836500000001
 51
119.368543
  0
ARC
  5
4F6
330
18
100
AcDbEntity
  8
0
100
AcDbCircle
 10
3.97869108491421
 20
5.688361198227358
 30
0.0
 40
0.007634
100
AcDbArc
 50
61.031925
 51
94.91836500000001
  0
ARC
  5
4F7
330
18
100
AcDbEntity
  8
0
100
AcDbCircle
 10
3.97869108491421
 20
5.688361198227358
 30
0.0
 40
0.007634
100
AcDbArc
 50
27.145486
 51
61.031925
  0
ARC
  5
4F8
330
18
100
AcDbEntity
  8
0
100
AcDbCircle
 10
3.972618084914211
 20
5.685247198227358
 30
0.0
 40
0.014458
100
AcDbArc
 50
2.695308
 51
27.145486
  0
ARC
  5
4F9
330
18
100
AcDbEntity
  8
0
100
AcDbCircle
 10
3.96550208491421
 20
5.684912198227358
 30
0.0
 40
0.021583
100
AcDbArc
 50
345.362111
 51
2.695308
  0
ARC
  5
4FA
330
18
100
AcDbEntity
  8
0
100
AcDbCircle
 10
3.95590608491421
 20
5.687418198227358
 30
0.0
 40
0.0315
100
AcDbArc
 50
331.031925
 51
345.362111
  0
ARC
  5
4FB
330
18
100
AcDbEntity
  8
0
100
AcDbCircle
 10
3.95590608491421
 20
5.687418198227358
 30
0.0
 40
0.0315
100
AcDbArc
 50
316.701739
 51
331.031925
  0
ARC
  5
4FC
330
18
100
AcDbEntity
  8
0
100
AcDbCircle
 10
3.963124084914211
 20
5.680617198227359
 30
0.0
 40
0.021583
100
AcDbArc
 50
299.3685430000001
 51
316.701739
  0
ARC
  5
4FD
330
18
100
AcDbEntity
  8
0
100
AcDbCircle
 10
3.966618084914211
 20
5.674408198227359
 30
0.0
 40
0.014458
100
AcDbArc
 50
274.918365
 51
299.3685430000001
  0
ARC
  5
4FE
330
18
100
AcDbEntity
  8
0
100
AcDbCircle
 10
3.96720308491421
 20
5.667608198227359
 30
0.0
 40
0.007634
100
AcDbArc
 50
241.031925
 51
274.918365
  0
LWPOLYLINE
  5
4FF
330
18
100
AcDbEntity
  8
0
100
AcDbPolyline
 90
        2
 70
     0
 43
0.0
 10
3.960409963327434
 20
5.907186098520974
 42
0.1489444681150024
 10
3.963505769162366
 20
5.903990214354443
 42
0.1489444681150024
  0
ARC
  5
504
330
18
100
AcDbEntity
  8
0
100
AcDbCircle
 10
3.98039308491421
 20
5.833851012021053
 30
0.0
 40
0.021583
100
AcDbArc
 50
165.362111
 51
182.695308
  0
ARC
  5
505
330
18
100
AcDbEntity
  8
0
100
AcDbCircle
 10
3.95590608491421
 20
5.850212012021053
 30
0.0
 40
0.0315
100
AcDbArc
 50
331.031925
 51
345.362111
  0
ARC
  5
506
330
18
100
AcDbEntity
  8
0
100
AcDbCircle
 10
3.97327608491421
 20
5.833516012021052
 30
0.0
 40
0.014458
100
AcDbArc
 50
182.695308
 51
207.145486
  0
ARC
  5
507
330
18
100
AcDbEntity
  8
0
100
AcDbCircle
 10
3.95590608491421
 20
5.850212012021053
 30
0.0
 40
0.0315
100
AcDbArc
 50
316.701739
 51
331.031925
  0
ARC
  5
508
330
18
100
AcDbEntity
  8
0
100
AcDbCircle
 10
3.963124084914211
 20
5.843410012021052
 30
0.0
 40
0.021583
100
AcDbArc
 50
299.3685430000001
 51
316.701739
  0
ARC
  5
509
330
18
100
AcDbEntity
  8
0
100
AcDbCircle
 10
3.97327608491421
 20
5.913783122366323
 30
0.0
 40
0.014458
100
AcDbArc
 50
182.695308
 51
207.145486
  0
ARC
  5
50A
330
18
100
AcDbEntity
  8
0
100
AcDbCircle
 10
3.98039308491421
 20
5.914118122366324
 30
0.0
 40
0.021583
100
AcDbArc
 50
165.362111
 51
182.695308
  0
ARC
  5
50B
330
18
100
AcDbEntity
  8
0
100
AcDbCircle
 10
3.989988084914211
 20
5.911611122366323
 30
0.0
 40
0.0315
100
AcDbArc
 50
151.031925
 51
165.362111
  0
ARC
  5
50C
330
18
100
AcDbEntity
  8
0
100
AcDbCircle
 10
3.989988084914211
 20
5.911611122366323
 30
0.0
 40
0.0315
100
AcDbArc
 50
136.701739
 51
151.031925
  0
ARC
  5
50D
330
18
100
AcDbEntity
  8
0
100
AcDbCircle
 10
3.982770084914209
 20
5.918413122366323
 30
0.0
 40
0.021583
100
AcDbArc
 50
119.368543
 51
136.701739
  0
ARC
  5
50E
330
18
100
AcDbEntity
  8
0
100
AcDbCircle
 10
3.97927608491421
 20
5.924622122366324
 30
0.0
 40
0.014458
100
AcDbArc
 50
94.91836500000001
 51
119.368543
  0
ARC
  5
50F
330
18
100
AcDbEntity
  8
0
100
AcDbCircle
 10
3.97869108491421
 20
5.931421122366325
 30
0.0
 40
0.007634
100
AcDbArc
 50
61.031925
 51
94.91836500000001
  0
ARC
  5
510
330
18
100
AcDbEntity
  8
0
100
AcDbCircle
 10
3.97869108491421
 20
5.931421122366325
 30
0.0
 40
0.007634
100
AcDbArc
 50
27.145486
 51
61.031925
  0
ARC
  5
511
330
18
100
AcDbEntity
  8
0
100
AcDbCircle
 10
3.972618084914211
 20
5.928307122366324
 30
0.0
 40
0.014458
100
AcDbArc
 50
2.695308
 51
27.145486
  0
ARC
  5
512
330
18
100
AcDbEntity
  8
0
100
AcDbCircle
 10
3.96550208491421
 20
5.927972122366323
 30
0.0
 40
0.021583
100
AcDbArc
 50
345.362111
 51
2.695308
  0
ARC
  5
513
330
18
100
AcDbEntity
  8
0
100
AcDbCircle
 10
3.95590608491421
 20
5.930479122366323
 30
0.0
 40
0.0315
100
AcDbArc
 50
331.031925
 51
345.362111
  0
ARC
  5
514
330
18
100
AcDbEntity
  8
0
100
AcDbCircle
 10
3.95590608491421
 20
5.930479122366323
 30
0.0
 40
0.0315
100
AcDbArc
 50
316.701739
 51
331.031925
  0
ARC
  5
515
330
18
100
AcDbEntity
  8
0
100
AcDbCircle
 10
3.963124084914211
 20
5.923677122366324
 30
0.0
 40
0.021583
100
AcDbArc
 50
299.3685430000001
 51
316.701739
  0
ARC
  5
516
330
18
100
AcDbEntity
  8
0
100
AcDbCircle
 10
3.966618084914211
 20
5.917468122366324
 30
0.0
 40
0.014458
100
AcDbArc
 50
274.918365
 51
299.3685430000001
  0
ARC
  5
517
330
18
100
AcDbEntity
  8
0
100
AcDbCircle
 10
3.96720308491421
 20
5.910669122366324
 30
0.0
 40
0.007634
100
AcDbArc
 50
241.031925
 51
274.918365
  0
ARC
  5
518
330
18
100
AcDbEntity
  8
0
100
AcDbCircle
 10
3.989988084914211
 20
5.831345012021052
 30
0.0
 40
0.0315
100
AcDbArc
 50
151.031925
 51
165.362111
  0
ARC
  5
519
330
18
100
AcDbEntity
  8
0
100
AcDbCircle
 10
3.989988084914211
 20
5.831345012021052
 30
0.0
 40
0.0315
100
AcDbArc
 50
136.701739
 51
151.031925
  0
ARC
  5
51A
330
18
100
AcDbEntity
  8
0
100
AcDbCircle
 10
3.982770084914209
 20
5.838146012021053
 30
0.0
 40
0.021583
100
AcDbArc
 50
119.368543
 51
136.701739
  0
ARC
  5
51B
330
18
100
AcDbEntity
  8
0
100
AcDbCircle
 10
3.97927608491421
 20
5.844355012021053
 30
0.0
 40
0.014458
100
AcDbArc
 50
94.91836500000001
 51
119.368543
  0
ARC
  5
51C
330
18
100
AcDbEntity
  8
0
100
AcDbCircle
 10
3.97869108491421
 20
5.851154012021052
 30
0.0
 40
0.007634
100
AcDbArc
 50
61.031925
 51
94.91836500000001
  0
ARC
  5
51D
330
18
100
AcDbEntity
  8
0
100
AcDbCircle
 10
3.97869108491421
 20
5.851154012021052
 30
0.0
 40
0.007634
100
AcDbArc
 50
27.145486
 51
61.031925
  0
ARC
  5
51E
330
18
100
AcDbEntity
  8
0
100
AcDbCircle
 10
3.972618084914211
 20
5.848041012021053
 30
0.0
 40
0.014458
100
AcDbArc
 50
2.695308
 51
27.145486
  0
ARC
  5
51F
330
18
100
AcDbEntity
  8
0
100
AcDbCircle
 10
3.96550208491421
 20
5.847706012021052
 30
0.0
 40
0.021583
100
AcDbArc
 50
345.362111
 51
2.695308
  0
LWPOLYLINE
  5
520
330
18
100
AcDbEntity
  8
0
100
AcDbPolyline
 90
        2
 70
     0
 43
0.0
 10
4.11729308491421
 20
5.982688122366324
 10
4.106318084914212
 20
5.973635122366324
  0
LINE
  5
525
330
18
100
AcDbEntity
  8
0
 62
     0
100
AcDbLine
 10
4.21247530283004
 20
5.679691261175065
 30
0.0
 11
4.21247530283004
 21
5.679691261175065
 31
0.0
  0
LINE
  5
526
330
18
100
AcDbEntity
  8
0
  6
HIDDEN
100
AcDbLine
 10
3.754583749607748
 20
5.329710118322891
 30
0.0
 11
3.68400246553754
 21
5.349794497807612
 31
0.0
  0
LINE
  5
527
330
18
100
AcDbEntity
  8
0
  6
HIDDEN
100
AcDbLine
 10
3.68400246553754
 20
5.349794497807612
 30
0.0
 11
3.583411465537541
 21
5.472514497807612
 31
0.0
  0
LINE
  5
528
330
18
100
AcDbEntity
  8
0
  6
HIDDEN
100
AcDbLine
 10
3.583411465537542
 20
5.472514497807612
 30
0.0
 11
3.583411465537541
 21
5.952461944912903
 31
0.0
  0
LINE
  5
529
330
18
100
AcDbEntity
  8
0
  6
Continuous
100
AcDbLine
 10
3.583411465537541
 20
6.037884447239308
 30
0.0
 11
3.656721465537541
 21
6.106231447239308
 31
0.0
  0
LINE
  5
52A
330
18
100
AcDbEntity
  8
0
  6
HIDDEN
100
AcDbLine
 10
3.656721465537541
 20
6.106231447239308
 30
0.0
 11
3.686404612824351
 21
6.094044621853392
 31
0.0
  0
LINE
  5
52B
330
18
100
AcDbEntity
  8
0
  6
HIDDEN
100
AcDbLine
 10
3.784841465537542
 20
6.053630014737663
 30
0.0
 11
3.784841465537542
 21
5.68361708171926
 31
0.0
  0
LINE
  5
52C
330
18
100
AcDbEntity
  8
0
  6
HIDDEN
100
AcDbLine
 10
3.815010278318006
 20
5.651971315907487
 30
0.0
 11
3.895720278318005
 21
5.626184315907486
 31
0.0
  0
LINE
  5
52D
330
18
100
AcDbEntity
  8
0
100
AcDbLine
 10
4.003788488395816
 20
5.611839346489876
 30
0.0
 11
3.91929408491421
 21
5.573060756846274
 31
0.0
  0
LINE
  5
52E
330
18
100
AcDbEntity
  8
0
100
AcDbLine
 10
3.91929408491421
 20
5.573060756846274
 30
0.0
 11
3.90926408491421
 21
5.578025756846274
 31
0.0
  0
LINE
  5
52F
330
18
100
AcDbEntity
  8
0
100
AcDbLine
 10
3.90926408491421
 20
5.578025756846273
 30
0.0
 11
3.90926408491421
 21
5.937811122366323
 31
0.0
  0
LINE
  5
530
330
18
100
AcDbEntity
  8
0
100
AcDbLine
 10
3.90926408491421
 20
5.937811122366323
 30
0.0
 11
4.002041084914211
 21
6.015757122366323
 31
0.0
  0
LINE
  5
531
330
18
100
AcDbEntity
  8
0
100
AcDbLine
 10
4.002041084914211
 20
6.015757122366323
 30
0.0
 11
4.11729308491421
 21
5.982688122366324
 31
0.0
  0
LINE
  5
532
330
18
100
AcDbEntity
  8
0
100
AcDbLine
 10
4.11729308491421
 20
5.982688122366324
 30
0.0
 11
4.18377108491421
 21
5.894787122366323
 31
0.0
  0
LINE
  5
533
330
18
100
AcDbEntity
  8
0
100
AcDbLine
 10
4.18377108491421
 20
5.894787122366323
 30
0.0
 11
4.18377108491421
 21
5.304496172934629
 31
0.0
  0
LINE
  5
534
330
18
100
AcDbEntity
  8
0
100
AcDbLine
 10
4.18377108491421
 20
5.304496172934629
 30
0.0
 11
4.087442084914209
 21
5.234331172934628
 31
0.0
  0
LINE
  5
535
330
18
100
AcDbEntity
  8
0
100
AcDbLine
 10
4.087442084914209
 20
5.234331172934628
 30
0.0
 11
3.87860287138827
 21
5.293758079749768
 31
0.0
  0
LINE
  5
536
330
18
100
AcDbEntity
  8
0
100
AcDbLine
 10
4.06929252965498
 20
5.846090846785319
 30
0.0
 11
4.055202493597565
 21
5.850518668462072
 31
0.0
  0
LINE
  5
537
330
18
100
AcDbEntity
  8
0
100
AcDbLine
 10
4.06929252965498
 20
5.830098846785318
 30
0.0
 11
4.050120955711594
 21
5.835845778561365
 31
0.0
  0
LWPOLYLINE
  5
538
330
18
100
AcDbEntity
  8
0
100
AcDbPolyline
 90
        6
 70
     0
 43
0.0
 10
4.06929252965498
 20
5.846090846785319
 10
4.070779196686985
 20
5.843038962151274
 10
4.071011687610891
 20
5.838667484526647
 10
4.069882463962614
 20
5.834717089881506
 10
4.068188628490199
 20
5.83245971252179
 10
4.066386527654453
 20
5.83096995915655
  0
LINE
  5
541
330
18
100
AcDbEntity
  8
0
100
AcDbLine
 10
4.06929252965498
 20
5.701018677448396
 30
0.0
 11
4.050120955711594
 21
5.706765609224442
 31
0.0
  0
LINE
  5
542
330
18
100
AcDbEntity
  8
0
100
AcDbLine
 10
4.06929252965498
 20
5.717010677448396
 30
0.0
 11
4.055202493597565
 21
5.721438499125149
 31
0.0
  0
ARC
  5
543
330
18
100
AcDbEntity
  8
0
  6
HIDDEN
100
AcDbCircle
 10
4.06929252965498
 20
5.709014677448396
 30
0.0
 40
0.007996
100
AcDbArc
 50
269.9999999999745
 51
90.0
  0
LWPOLYLINE
  5
544
330
18
100
AcDbEntity
  8
0
100
AcDbPolyline
 90
        6
 70
     0
 43
0.0
 10
4.06929252965498
 20
5.717010677448396
 10
4.070779196686985
 20
5.713958792814352
 10
4.071011687610891
 20
5.709587315189725
 10
4.069882463962614
 20
5.705636920544584
 10
4.068188628490199
 20
5.703379543184868
 10
4.066386527654453
 20
5.701889789819628
  0
LWPOLYLINE
  5
54D
330
18
100
AcDbEntity
  8
0
100
AcDbPolyline
 90
        8
 70
     0
 43
0.0
 10
3.868451622117572
 20
5.296646700781622
 10
3.868451622117572
 20
5.304376074933637
 10
3.870755170833963
 20
5.307047580685103
 10
3.872759791412565
 20
5.307715472857332
 10
3.875432587381978
 20
5.307047580685103
 10
3.877437176491858
 20
5.305043967105865
 10
3.878105383351392
 20
5.303040322057903
 10
3.878602871388271
 20
5.293758079749766
  0
LINE
  5
558
330
18
100
AcDbEntity
  8
0
100
AcDbLine
 10
3.883741468944048
 20
5.292295849774122
 30
0.0
 11
3.87860287138827
 21
5.293758079749767
 31
0.0
  0
LINE
  5
559
330
18
100
AcDbEntity
  8
0
100
AcDbLine
 10
4.023531940985141
 20
5.603928856974911
 30
0.0
 11
4.004868072921738
 21
5.609794014398671
 31
0.0
  0
ARC
  5
55A
330
18
100
AcDbEntity
  8
0
  6
HIDDEN
100
AcDbCircle
 10
4.018958108979153
 20
5.597370192721917
 30
0.0
 40
0.007996
100
AcDbArc
 50
269.9999999999745
 51
55.1091417331218
  0
LINE
  5
55B
330
18
100
AcDbEntity
  8
0
100
AcDbLine
 10
4.018958108979153
 20
5.589374192721917
 30
0.0
 11
4.001179745814953
 21
5.594703491218543
 31
0.0
  0
LINE
  5
55C
330
18
100
AcDbEntity
  8
0
100
AcDbLine
 10
4.106545005095808
 20
5.557869532663078
 30
0.0
 11
4.088766641931608
 21
5.563198831159705
 31
0.0
  0
ARC
  5
55D
330
18
100
AcDbEntity
  8
0
  6
HIDDEN
100
AcDbCircle
 10
4.106545005095808
 20
5.565865532663079
 30
0.0
 40
0.007996
100
AcDbArc
 50
269.9999999999745
 51
55.1091417331218
  0
ARC
  5
55E
330
18
100
AcDbEntity
  8
0
  6
HIDDEN
100
AcDbCircle
 10
4.092454969038393
 20
5.570293354339832
 30
0.0
 40
0.007996
100
AcDbArc
 50
89.99999999999363
 51
242.5308128918415
  0
LINE
  5
55F
330
18
100
AcDbEntity
  8
0
100
AcDbLine
 10
4.111118837101795
 20
5.572424196916073
 30
0.0
 11
4.092454969038393
 21
5.578289354339832
 31
0.0
  0
LINE
  5
560
330
18
100
AcDbEntity
  8
0
100
AcDbLine
 10
3.997484084914209
 20
5.618131979375568
 30
0.0
 11
3.91929408491421
 21
5.582057979375567
 31
0.0
  0
LINE
  5
561
330
18
100
AcDbEntity
  8
0
100
AcDbLine
 10
3.91929408491421
 20
5.582057979375567
 30
0.0
 11
3.91929408491421
 21
5.932846122366324
 31
0.0
  0
LINE
  5
562
330
18
100
AcDbEntity
  8
0
100
AcDbLine
 10
3.91929408491421
 20
5.932846122366324
 30
0.0
 11
4.00309608491421
 21
6.003252122366324
 31
0.0
  0
LINE
  5
563
330
18
100
AcDbEntity
  8
0
100
AcDbLine
 10
4.00309608491421
 20
6.003252122366324
 30
0.0
 11
4.106318084914212
 21
5.973635122366324
 31
0.0
  0
LINE
  5
564
330
18
100
AcDbEntity
  8
0
100
AcDbLine
 10
4.106318084914212
 20
5.973635122366324
 30
0.0
 11
4.17279608491421
 21
5.885734122366324
 31
0.0
  0
LINE
  5
565
330
18
100
AcDbEntity
  8
0
100
AcDbLine
 10
4.17279608491421
 20
5.885734122366324
 30
0.0
 11
4.172796084914209
 21
5.296502101834544
 31
0.0
  0
LWPOLYLINE
  5
566
330
18
100
AcDbEntity
  8
0
  6
HIDDEN
100
AcDbPolyline
 90
        2
 70
     0
 43
0.0
 10
3.69942446553754
 20
5.962343447239308
 10
3.69942446553754
 20
5.620961275052265
  0
POLYLINE
  5
56B
330
18
100
AcDbEntity
  8
0
100
AcDb2dPolyline
 66
     1
 10
0.0
 20
0.0
 30
0.0
 70
     5
 75
     6
  0
VERTEX
  5
56C
330
56B
100
AcDbEntity
  8
0
100
AcDbVertex
100
AcDb2dVertex
 10
3.865583973600938
 20
5.388606686366769
 30
0.0
 70
    16
  0
VERTEX
  5
56D
330
56B
100
AcDbEntity
  8
0
100
AcDbVertex
100
AcDb2dVertex
 10
3.870471076287946
 20
5.388526293846356
 30
0.0
 70
     8
  0
VERTEX
  5
56E
330
56B
100
AcDbEntity
  8
0
100
AcDbVertex
100
AcDb2dVertex
 10
3.871099718750282
 20
5.388456384056004
 30
0.0
 70
     8
  0
VERTEX
  5
56F
330
56B
100
AcDbEntity
  8
0
100
AcDbVertex
100
AcDb2dVertex
 10
3.871733074853629
 20
5.388366455245795
 30
0.0
 70
     8
  0
VERTEX
  5
570
330
56B
100
AcDbEntity
  8
0
100
AcDbVertex
100
AcDb2dVertex
 10
3.872370201899122
 20
5.388255329803203
 30
0.0
 70
     8
  0
VERTEX
  5
571
330
56B
100
AcDbEntity
  8
0
100
AcDbVertex
100
AcDb2dVertex
 10
3.873010157187898
 20
5.388121830115701
 30
0.0
 70
     8
  0
VERTEX
  5
572
330
56B
100
AcDbEntity
  8
0
100
AcDbVertex
100
AcDb2dVertex
 10
3.873651998021091
 20
5.387964778570763
 30
0.0
 70
     8
  0
VERTEX
  5
573
330
56B
100
AcDbEntity
  8
0
100
AcDbVertex
100
AcDb2dVertex
 10
3.874294781699839
 20
5.387782997555862
 30
0.0
 70
     8
  0
VERTEX
  5
574
330
56B
100
AcDbEntity
  8
0
100
AcDbVertex
100
AcDb2dVertex
 10
3.874937565525274
 20
5.38757530945847
 30
0.0
 70
     8
  0
VERTEX
  5
575
330
56B
100
AcDbEntity
  8
0
100
AcDbVertex
100
AcDb2dVertex
 10
3.875579406798536
 20
5.387340536666065
 30
0.0
 70
     8
  0
VERTEX
  5
576
330
56B
100
AcDbEntity
  8
0
100
AcDbVertex
100
AcDb2dVertex
 10
3.876219402084597
 20
5.387077894095434
 30
0.0
 70
     8
  0
VERTEX
  5
577
330
56B
100
AcDbEntity
  8
0
100
AcDbVertex
100
AcDb2dVertex
 10
3.87685680500379
 20
5.386788166780652
 30
0.0
 70
     8
  0
VERTEX
  5
578
330
56B
100
AcDbEntity
  8
0
100
AcDbVertex
100
AcDb2dVertex
 10
3.877490908440285
 20
5.386472532285105
 30
0.0
 70
     8
  0
VERTEX
  5
579
330
56B
100
AcDbEntity
  8
0
100
AcDbVertex
100
AcDb2dVertex
 10
3.878121005278255
 20
5.386132168172186
 30
0.0
 70
     8
  0
VERTEX
  5
57A
330
56B
100
AcDbEntity
  8
0
100
AcDbVertex
100
AcDb2dVertex
 10
3.878746388401869
 20
5.385768252005283
 30
0.0
 70
     8
  0
VERTEX
  5
57B
330
56B
100
AcDbEntity
  8
0
100
AcDbVertex
100
AcDb2dVertex
 10
3.879366350695298
 20
5.385381961347786
 30
0.0
 70
     8
  0
VERTEX
  5
57C
330
56B
100
AcDbEntity
  8
0
100
AcDbVertex
100
AcDb2dVertex
 10
3.879980185042714
 20
5.384974473763085
 30
0.0
 70
     8
  0
VERTEX
  5
57D
330
56B
100
AcDbEntity
  8
0
100
AcDbVertex
100
AcDb2dVertex
 10
3.880587184328288
 20
5.38454696681457
 30
0.0
 70
     8
  0
VERTEX
  5
57E
330
56B
100
AcDbEntity
  8
0
100
AcDbVertex
100
AcDb2dVertex
 10
3.881186562896288
 20
5.384100618082009
 30
0.0
 70
     8
  0
VERTEX
  5
57F
330
56B
100
AcDbEntity
  8
0
100
AcDbVertex
100
AcDb2dVertex
 10
3.881777220931371
 20
5.383636605210686
 30
0.0
 70
     8
  0
VERTEX
  5
580
330
56B
100
AcDbEntity
  8
0
100
AcDbVertex
100
AcDb2dVertex
 10
3.882357980078295
 20
5.383156105862266
 30
0.0
 70
     8
  0
VERTEX
  5
581
330
56B
100
AcDbEntity
  8
0
100
AcDbVertex
100
AcDb2dVertex
 10
3.882927661981814
 20
5.382660297698411
 30
0.0
 70
     8
  0
VERTEX
  5
582
330
56B
100
AcDbEntity
  8
0
100
AcDbVertex
100
AcDb2dVertex
 10
3.883485088286685
 20
5.382150358380786
 30
0.0
 70
     8
  0
VERTEX
  5
583
330
56B
100
AcDbEntity
  8
0
100
AcDbVertex
100
AcDb2dVertex
 10
3.884029080637664
 20
5.381627465571051
 30
0.0
 70
     8
  0
VERTEX
  5
584
330
56B
100
AcDbEntity
  8
0
100
AcDbVertex
100
AcDb2dVertex
 10
3.884558460679506
 20
5.381092796930872
 30
0.0
 70
     8
  0
VERTEX
  5
585
330
56B
100
AcDbEntity
  8
0
100
AcDbVertex
100
AcDb2dVertex
 10
3.885072050056967
 20
5.380547530121913
 30
0.0
 70
     8
  0
VERTEX
  5
586
330
56B
100
AcDbEntity
  8
0
100
AcDbVertex
100
AcDb2dVertex
 10
3.885568945371694
 20
5.379992371755911
 30
0.0
 70
     8
  0
VERTEX
  5
587
330
56B
100
AcDbEntity
  8
0
100
AcDbVertex
100
AcDb2dVertex
 10
3.886049343052901
 20
5.379426144244908
 30
0.0
 70
     8
  0
VERTEX
  5
588
330
56B
100
AcDbEntity
  8
0
100
AcDbVertex
100
AcDb2dVertex
 10
3.886513714486692
 20
5.378847198951022
 30
0.0
 70
     8
  0
VERTEX
  5
589
330
56B
100
AcDbEntity
  8
0
100
AcDbVertex
100
AcDb2dVertex
 10
3.886962531059171
 20
5.378253887236372
 30
0.0
 70
     8
  0
VERTEX
  5
58A
330
56B
100
AcDbEntity
  8
0
100
AcDbVertex
100
AcDb2dVertex
 10
3.887396264156442
 20
5.377644560463073
 30
0.0
 70
     8
  0
VERTEX
  5
58B
330
56B
100
AcDbEntity
  8
0
100
AcDbVertex
100
AcDb2dVertex
 10
3.887815385164612
 20
5.377017569993245
 30
0.0
 70
     8
  0
VERTEX
  5
58C
330
56B
100
AcDbEntity
  8
0
100
AcDbVertex
100
AcDb2dVertex
 10
3.888220365469782
 20
5.376371267189004
 30
0.0
 70
     8
  0
VERTEX
  5
58D
330
56B
100
AcDbEntity
  8
0
100
AcDbVertex
100
AcDb2dVertex
 10
3.888611676458059
 20
5.375704003412468
 30
0.0
 70
     8
  0
VERTEX
  5
58E
330
56B
100
AcDbEntity
  8
0
100
AcDbVertex
100
AcDb2dVertex
 10
3.888989475258143
 20
5.375014954328317
 30
0.0
 70
     8
  0
VERTEX
  5
58F
330
56B
100
AcDbEntity
  8
0
100
AcDbVertex
100
AcDb2dVertex
 10
3.889352661969126
 20
5.37430659281148
 30
0.0
 70
     8
  0
VERTEX
  5
590
330
56B
100
AcDbEntity
  8
0
100
AcDbVertex
100
AcDb2dVertex
 10
3.889699822432692
 20
5.373582216039448
 30
0.0
 70
     8
  0
VERTEX
  5
591
330
56B
100
AcDbEntity
  8
0
100
AcDbVertex
100
AcDb2dVertex
 10
3.890029542490527
 20
5.372845121189712
 30
0.0
 70
     8
  0
VERTEX
  5
592
330
56B
100
AcDbEntity
  8
0
100
AcDbVertex
100
AcDb2dVertex
 10
3.890340407984321
 20
5.372098605439764
 30
0.0
 70
     8
  0
VERTEX
  5
593
330
56B
100
AcDbEntity
  8
0
100
AcDbVertex
100
AcDb2dVertex
 10
3.890631004755756
 20
5.371345965967095
 30
0.0
 70
     8
  0
VERTEX
  5
594
330
56B
100
AcDbEntity
  8
0
100
AcDbVertex
100
AcDb2dVertex
 10
3.890899918646524
 20
5.370590499949196
 30
0.0
 70
     8
  0
VERTEX
  5
595
330
56B
100
AcDbEntity
  8
0
100
AcDbVertex
100
AcDb2dVertex
 10
3.891145735498308
 20
5.369835504563558
 30
0.0
 70
     8
  0
VERTEX
  5
596
330
56B
100
AcDbEntity
  8
0
100
AcDbVertex
100
AcDb2dVertex
 10
3.891367316134134
 20
5.36908345270149
 30
0.0
 70
     8
  0
VERTEX
  5
597
330
56B
100
AcDbEntity
  8
0
100
AcDbVertex
100
AcDb2dVertex
 10
3.891564621302388
 20
5.368333520109566
 30
0.0
 70
     8
  0
VERTEX
  5
598
330
56B
100
AcDbEntity
  8
0
100
AcDbVertex
100
AcDb2dVertex
 10
3.891737886732795
 20
5.367584058248177
 30
0.0
 70
     8
  0
VERTEX
  5
599
330
56B
100
AcDbEntity
  8
0
100
AcDbVertex
100
AcDb2dVertex
 10
3.891887348155079
 20
5.366833418577715
 30
0.0
 70
     8
  0
VERTEX
  5
59A
330
56B
100
AcDbEntity
  8
0
100
AcDbVertex
100
AcDb2dVertex
 10
3.892013241298966
 20
5.366079952558569
 30
0.0
 70
     8
  0
VERTEX
  5
59B
330
56B
100
AcDbEntity
  8
0
100
AcDbVertex
100
AcDb2dVertex
 10
3.892115801894177
 20
5.365322011651132
 30
0.0
 70
     8
  0
VERTEX
  5
59C
330
56B
100
AcDbEntity
  8
0
100
AcDbVertex
100
AcDb2dVertex
 10
3.89219526567044
 20
5.364557947315796
 30
0.0
 70
     8
  0
VERTEX
  5
59D
330
56B
100
AcDbEntity
  8
0
100
AcDbVertex
100
AcDb2dVertex
 10
3.892251868357477
 20
5.363786111012949
 30
0.0
 70
     8
  0
VERTEX
  5
59E
330
56B
100
AcDbEntity
  8
0
100
AcDbVertex
100
AcDb2dVertex
 10
3.892285609991963
 20
5.363005325220152
 30
0.0
 70
     8
  0
VERTEX
  5
59F
330
56B
100
AcDbEntity
  8
0
100
AcDbVertex
100
AcDb2dVertex
 10
3.892295547838359
 20
5.362216296483626
 30
0.0
 70
     8
  0
VERTEX
  5
5A0
330
56B
100
AcDbEntity
  8
0
100
AcDbVertex
100
AcDb2dVertex
 10
3.892280503468078
 20
5.361420202366762
 30
0.0
 70
     8
  0
VERTEX
  5
5A1
330
56B
100
AcDbEntity
  8
0
100
AcDbVertex
100
AcDb2dVertex
 10
3.892239298452529
 20
5.36061822043295
 30
0.0
 70
     8
  0
VERTEX
  5
5A2
330
56B
100
AcDbEntity
  8
0
100
AcDbVertex
100
AcDb2dVertex
 10
3.892170754363125
 20
5.359811528245578
 30
0.0
 70
     8
  0
VERTEX
  5
5A3
330
56B
100
AcDbEntity
  8
0
100
AcDbVertex
100
AcDb2dVertex
 10
3.892073692771277
 20
5.359001303368037
 30
0.0
 70
     8
  0
VERTEX
  5
5A4
330
56B
100
AcDbEntity
  8
0
100
AcDbVertex
100
AcDb2dVertex
 10
3.891946935248396
 20
5.358188723363716
 30
0.0
 70
     8
  0
VERTEX
  5
5A5
330
56B
100
AcDbEntity
  8
0
100
AcDbVertex
100
AcDb2dVertex
 10
3.891789303365893
 20
5.357374965796006
 30
0.0
 70
     8
  0
VERTEX
  5
5A6
330
56B
100
AcDbEntity
  8
0
100
AcDbVertex
100
AcDb2dVertex
 10
3.891599815099943
 20
5.356561600765804
 30
0.0
 70
     8
  0
VERTEX
  5
5A7
330
56B
100
AcDbEntity
  8
0
100
AcDbVertex
100
AcDb2dVertex
 10
3.891378274045783
 20
5.355751768524046
 30
0.0
 70
     8
  0
VERTEX
  5
5A8
330
56B
100
AcDbEntity
  8
0
100
AcDbVertex
100
AcDb2dVertex
 10
3.891124680203412
 20
5.354949001859173
 30
0.0
 70
     8
  0
VERTEX
  5
5A9
330
56B
100
AcDbEntity
  8
0
100
AcDbVertex
100
AcDb2dVertex
 10
3.890839033572828
 20
5.354156833559628
 30
0.0
 70
     8
  0
VERTEX
  5
5AA
330
56B
100
AcDbEntity
  8
0
100
AcDbVertex
100
AcDb2dVertex
 10
3.890521334154035
 20
5.353378796413855
 30
0.0
 70
     8
  0
VERTEX
  5
5AB
330
56B
100
AcDbEntity
  8
0
100
AcDbVertex
100
AcDb2dVertex
 10
3.890171581947031
 20
5.352618423210296
 30
0.0
 70
     8
  0
VERTEX
  5
5AC
330
56B
100
AcDbEntity
  8
0
100
AcDbVertex
100
AcDb2dVertex
 10
3.889789776951816
 20
5.351879246737394
 30
0.0
 70
     8
  0
VERTEX
  5
5AD
330
56B
100
AcDbEntity
  8
0
100
AcDbVertex
100
AcDb2dVertex
 10
3.889375919168389
 20
5.351164799783591
 30
0.0
 70
     8
  0
VERTEX
  5
5AE
330
56B
100
AcDbEntity
  8
0
100
AcDbVertex
100
AcDb2dVertex
 10
3.888930715639237
 20
5.350478301112237
 30
0.0
 70
     8
  0
VERTEX
  5
5AF
330
56B
100
AcDbEntity
  8
0
100
AcDbVertex
100
AcDb2dVertex
 10
3.888457701576779
 20
5.34982171338631
 30
0.0
 70
     8
  0
VERTEX
  5
5B0
330
56B
100
AcDbEntity
  8
0
100
AcDbVertex
100
AcDb2dVertex
 10
3.887961119235924
 20
5.349196685243689
 30
0.0
 70
     8
  0
VERTEX
  5
5B1
330
56B
100
AcDbEntity
  8
0
100
AcDbVertex
100
AcDb2dVertex
 10
3.887445210871575
 20
5.348604865322257
 30
0.0
 70
     8
  0
VERTEX
  5
5B2
330
56B
100
AcDbEntity
  8
0
100
AcDbVertex
100
AcDb2dVertex
 10
3.886914218738641
 20
5.348047902259899
 30
0.0
 70
     8
  0
VERTEX
  5
5B3
330
56B
100
AcDbEntity
  8
0
100
AcDbVertex
100
AcDb2dVertex
 10
3.886372385092028
 20
5.347527444694496
 30
0.0
 70
     8
  0
VERTEX
  5
5B4
330
56B
100
AcDbEntity
  8
0
100
AcDbVertex
100
AcDb2dVertex
 10
3.885823952186641
 20
5.347045141263929
 30
0.0
 70
     8
  0
VERTEX
  5
5B5
330
56B
100
AcDbEntity
  8
0
100
AcDbVertex
100
AcDb2dVertex
 10
3.885273162277387
 20
5.346602640606082
 30
0.0
 70
     8
  0
VERTEX
  5
5B6
330
56B
100
AcDbEntity
  8
0
100
AcDbVertex
100
AcDb2dVertex
 10
3.88472351131285
 20
5.346200845544121
 30
0.0
 70
     8
  0
VERTEX
  5
5B7
330
56B
100
AcDbEntity
  8
0
100
AcDbVertex
100
AcDb2dVertex
 10
3.884175510016315
 20
5.345837675642355
 30
0.0
 70
     8
  0
VERTEX
  5
5B8
330
56B
100
AcDbEntity
  8
0
100
AcDbVertex
100
AcDb2dVertex
 10
3.88362892280475
 20
5.345510304650372
 30
0.0
 70
     8
  0
VERTEX
  5
5B9
330
56B
100
AcDbEntity
  8
0
100
AcDbVertex
100
AcDb2dVertex
 10
3.883083514095118
 20
5.345215906317764
 30
0.0
 70
     8
  0
VERTEX
  5
5BA
330
56B
100
AcDbEntity
  8
0
100
AcDbVertex
100
AcDb2dVertex
 10
3.882539048304385
 20
5.344951654394123
 30
0.0
 70
     8
  0
VERTEX
  5
5BB
330
56B
100
AcDbEntity
  8
0
100
AcDbVertex
100
AcDb2dVertex
 10
3.881995289849514
 20
5.344714722629038
 30
0.0
 70
     8
  0
VERTEX
  5
5BC
330
56B
100
AcDbEntity
  8
0
100
AcDbVertex
100
AcDb2dVertex
 10
3.881452003147472
 20
5.344502284772102
 30
0.0
 70
     8
  0
VERTEX
  5
5BD
330
56B
100
AcDbEntity
  8
0
100
AcDbVertex
100
AcDb2dVertex
 10
3.880908952615221
 20
5.344311514572905
 30
0.0
 70
     8
  0
VERTEX
  5
5BE
330
56B
100
AcDbEntity
  8
0
100
AcDbVertex
100
AcDb2dVertex
 10
3.880365627676163
 20
5.344140096074887
 30
0.0
 70
     8
  0
VERTEX
  5
5BF
330
56B
100
AcDbEntity
  8
0
100
AcDbVertex
100
AcDb2dVertex
 10
3.879820417779446
 20
5.343987754496876
 30
0.0
 70
     8
  0
VERTEX
  5
5C0
330
56B
100
AcDbEntity
  8
0
100
AcDbVertex
100
AcDb2dVertex
 10
3.879271437380651
 20
5.343854725351552
 30
0.0
 70
     8
  0
VERTEX
  5
5C1
330
56B
100
AcDbEntity
  8
0
100
AcDbVertex
100
AcDb2dVertex
 10
3.878716800935357
 20
5.343741244151591
 30
0.0
 70
     8
  0
VERTEX
  5
5C2
330
56B
100
AcDbEntity
  8
0
100
AcDbVertex
100
AcDb2dVertex
 10
3.878154622899151
 20
5.343647546409673
 30
0.0
 70
     8
  0
VERTEX
  5
5C3
330
56B
100
AcDbEntity
  8
0
100
AcDbVertex
100
AcDb2dVertex
 10
3.877583017727611
 20
5.343573867638474
 30
0.0
 70
     8
  0
VERTEX
  5
5C4
330
56B
100
AcDbEntity
  8
0
100
AcDbVertex
100
AcDb2dVertex
 10
3.877000099876323
 20
5.343520443350674
 30
0.0
 70
     8
  0
VERTEX
  5
5C5
330
56B
100
AcDbEntity
  8
0
100
AcDbVertex
100
AcDb2dVertex
 10
3.876403983800867
 20
5.343487509058949
 30
0.0
 70
     8
  0
VERTEX
  5
5C6
330
56B
100
AcDbEntity
  8
0
100
AcDbVertex
100
AcDb2dVertex
 10
3.875793608851946
 20
5.343475261032055
 30
0.0
 70
     8
  0
VERTEX
  5
5C7
330
56B
100
AcDbEntity
  8
0
100
AcDbVertex
100
AcDb2dVertex
 10
3.875171213960757
 20
5.343483738563052
 30
0.0
 70
     8
  0
VERTEX
  5
5C8
330
56B
100
AcDbEntity
  8
0
100
AcDbVertex
100
AcDb2dVertex
 10
3.874539862953618
 20
5.343512941701076
 30
0.0
 70
     8
  0
VERTEX
  5
5C9
330
56B
100
AcDbEntity
  8
0
100
AcDbVertex
100
AcDb2dVertex
 10
3.873902619656845
 20
5.343562870495264
 30
0.0
 70
     8
  0
VERTEX
  5
5CA
330
56B
100
AcDbEntity
  8
0
100
AcDbVertex
100
AcDb2dVertex
 10
3.873262547896756
 20
5.343633524994753
 30
0.0
 70
     8
  0
VERTEX
  5
5CB
330
56B
100
AcDbEntity
  8
0
100
AcDbVertex
100
AcDb2dVertex
 10
3.872622711499667
 20
5.34372490524868
 30
0.0
 70
     8
  0
VERTEX
  5
5CC
330
56B
100
AcDbEntity
  8
0
100
AcDbVertex
100
AcDb2dVertex
 10
3.871986174291898
 20
5.343837011306182
 30
0.0
 70
     8
  0
VERTEX
  5
5CD
330
56B
100
AcDbEntity
  8
0
100
AcDbVertex
100
AcDb2dVertex
 10
3.871356000099765
 20
5.343969843216395
 30
0.0
 70
     8
  0
VERTEX
  5
5CE
330
56B
100
AcDbEntity
  8
0
100
AcDbVertex
100
AcDb2dVertex
 10
3.870734467167198
 20
5.344123479524493
 30
0.0
 70
     8
  0
VERTEX
  5
5CF
330
56B
100
AcDbEntity
  8
0
100
AcDbVertex
100
AcDb2dVertex
 10
3.870120711408581
 20
5.344298312759794
 30
0.0
 70
     8
  0
VERTEX
  5
5D0
330
56B
100
AcDbEntity
  8
0
100
AcDbVertex
100
AcDb2dVertex
 10
3.86951308315591
 20
5.344494813947657
 30
0.0
 70
     8
  0
VERTEX
  5
5D1
330
56B
100
AcDbEntity
  8
0
100
AcDbVertex
100
AcDb2dVertex
 10
3.868909932741179
 20
5.344713454113435
 30
0.0
 70
     8
  0
VERTEX
  5
5D2
330
56B
100
AcDbEntity
  8
0
100
AcDbVertex
100
AcDb2dVertex
 10
3.868309610496387
 20
5.344954704282484
 30
0.0
 70
     8
  0
VERTEX
  5
5D3
330
56B
100
AcDbEntity
  8
0
100
AcDbVertex
100
AcDb2dVertex
 10
3.867710466753529
 20
5.345219035480161
 30
0.0
 70
     8
  0
VERTEX
  5
5D4
330
56B
100
AcDbEntity
  8
0
100
AcDbVertex
100
AcDb2dVertex
 10
3.867110851844599
 20
5.345506918731823
 30
0.0
 70
     8
  0
VERTEX
  5
5D5
330
56B
100
AcDbEntity
  8
0
100
AcDbVertex
100
AcDb2dVertex
 10
3.866509116101595
 20
5.345818825062823
 30
0.0
 70
     8
  0
VERTEX
  5
5D6
330
56B
100
AcDbEntity
  8
0
100
AcDbVertex
100
AcDb2dVertex
 10
3.865904395426675
 20
5.346154754456784
 30
0.0
 70
     8
  0
VERTEX
  5
5D7
330
56B
100
AcDbEntity
  8
0
100
AcDbVertex
100
AcDb2dVertex
 10
3.86529896800265
 20
5.346512822730388
 30
0.0
 70
     8
  0
VERTEX
  5
5D8
330
56B
100
AcDbEntity
  8
0
100
AcDbVertex
100
AcDb2dVertex
 10
3.864695897582492
 20
5.34689067465858
 30
0.0
 70
     8
  0
VERTEX
  5
5D9
330
56B
100
AcDbEntity
  8
0
100
AcDbVertex
100
AcDb2dVertex
 10
3.864098247919174
 20
5.347285955016309
 30
0.0
 70
     8
  0
VERTEX
  5
5DA
330
56B
100
AcDbEntity
  8
0
100
AcDbVertex
100
AcDb2dVertex
 10
3.863509082765667
 20
5.34769630857852
 30
0.0
 70
     8
  0
VERTEX
  5
5DB
330
56B
100
AcDbEntity
  8
0
100
AcDbVertex
100
AcDb2dVertex
 10
3.862931465874946
 20
5.348119380120163
 30
0.0
 70
     8
  0
VERTEX
  5
5DC
330
56B
100
AcDbEntity
  8
0
100
AcDbVertex
100
AcDb2dVertex
 10
3.862368460999984
 20
5.348552814416181
 30
0.0
 70
     8
  0
VERTEX
  5
5DD
330
56B
100
AcDbEntity
  8
0
100
AcDbVertex
100
AcDb2dVertex
 10
3.861823131893752
 20
5.348994256241524
 30
0.0
 70
     8
  0
VERTEX
  5
5DE
330
56B
100
AcDbEntity
  8
0
100
AcDbVertex
100
AcDb2dVertex
 10
3.861297835303411
 20
5.349441821421062
 30
0.0
 70
     8
  0
VERTEX
  5
5DF
330
56B
100
AcDbEntity
  8
0
100
AcDbVertex
100
AcDb2dVertex
 10
3.860792099952875
 20
5.349895509979363
 30
0.0
 70
     8
  0
VERTEX
  5
5E0
330
56B
100
AcDbEntity
  8
0
100
AcDbVertex
100
AcDb2dVertex
 10
3.860304747560244
 20
5.350355792990921
 30
0.0
 70
     8
  0
VERTEX
  5
5E1
330
56B
100
AcDbEntity
  8
0
100
AcDbVertex
100
AcDb2dVertex
 10
3.859834599843617
 20
5.350823141530227
 30
0.0
 70
     8
  0
VERTEX
  5
5E2
330
56B
100
AcDbEntity
  8
0
100
AcDbVertex
100
AcDb2dVertex
 10
3.859380478521097
 20
5.351298026671775
 30
0.0
 70
     8
  0
VERTEX
  5
5E3
330
56B
100
AcDbEntity
  8
0
100
AcDbVertex
100
AcDb2dVertex
 10
3.858941205310781
 20
5.351780919490056
 30
0.0
 70
     8
  0
VERTEX
  5
5E4
330
56B
100
AcDbEntity
  8
0
100
AcDbVertex
100
AcDb2dVertex
 10
3.858515601930773
 20
5.352272291059566
 30
0.0
 70
     8
  0
VERTEX
  5
5E5
330
56B
100
AcDbEntity
  8
0
100
AcDbVertex
100
AcDb2dVertex
 10
3.858102490099171
 20
5.352772612454794
 30
0.0
 70
     8
  0
VERTEX
  5
5E6
330
56B
100
AcDbEntity
  8
0
100
AcDbVertex
100
AcDb2dVertex
 10
3.857700887902169
 20
5.353282472498385
 30
0.0
 70
     8
  0
VERTEX
  5
5E7
330
56B
100
AcDbEntity
  8
0
100
AcDbVertex
100
AcDb2dVertex
 10
3.857310598898329
 20
5.353802931005577
 30
0.0
 70
     8
  0
VERTEX
  5
5E8
330
56B
100
AcDbEntity
  8
0
100
AcDbVertex
100
AcDb2dVertex
 10
3.856931623014309
 20
5.354335165539761
 30
0.0
 70
     8
  0
VERTEX
  5
5E9
330
56B
100
AcDbEntity
  8
0
100
AcDbVertex
100
AcDb2dVertex
 10
3.856563960176759
 20
5.354880353664327
 30
0.0
 70
     8
  0
VERTEX
  5
5EA
330
56B
100
AcDbEntity
  8
0
100
AcDbVertex
100
AcDb2dVertex
 10
3.856207610312341
 20
5.355439672942664
 30
0.0
 70
     8
  0
VERTEX
  5
5EB
330
56B
100
AcDbEntity
  8
0
100
AcDbVertex
100
AcDb2dVertex
 10
3.855862573347706
 20
5.356014300938162
 30
0.0
 70
     8
  0
VERTEX
  5
5EC
330
56B
100
AcDbEntity
  8
0
100
AcDbVertex
100
AcDb2dVertex
 10
3.85552884920951
 20
5.356605415214211
 30
0.0
 70
     8
  0
VERTEX
  5
5ED
330
56B
100
AcDbEntity
  8
0
100
AcDbVertex
100
AcDb2dVertex
 10
3.855206437824409
 20
5.357214193334199
 30
0.0
 70
     8
  0
VERTEX
  5
5EE
330
56B
100
AcDbEntity
  8
0
100
AcDbVertex
100
AcDb2dVertex
 10
3.854895417683408
 20
5.357841381080087
 30
0.0
 70
     8
  0
VERTEX
  5
5EF
330
56B
100
AcDbEntity
  8
0
100
AcDbVertex
100
AcDb2dVertex
 10
3.854596181534918
 20
5.3584859971081
 30
0.0
 70
     8
  0
VERTEX
  5
5F0
330
56B
100
AcDbEntity
  8
0
100
AcDbVertex
100
AcDb2dVertex
 10
3.854309200691697
 20
5.359146628293035
 30
0.0
 70
     8
  0
VERTEX
  5
5F1
330
56B
100
AcDbEntity
  8
0
100
AcDbVertex
100
AcDb2dVertex
 10
3.854034946466506
 20
5.359821861509685
 30
0.0
 70
     8
  0
VERTEX
  5
5F2
330
56B
100
AcDbEntity
  8
0
100
AcDbVertex
100
AcDb2dVertex
 10
3.853773890172104
 20
5.360510283632848
 30
0.0
 70
     8
  0
VERTEX
  5
5F3
330
56B
100
AcDbEntity
  8
0
100
AcDbVertex
100
AcDb2dVertex
 10
3.853526503121251
 20
5.36121048153732
 30
0.0
 70
     8
  0
VERTEX
  5
5F4
330
56B
100
AcDbEntity
  8
0
100
AcDbVertex
100
AcDb2dVertex
 10
3.853293256626707
 20
5.361921042097895
 30
0.0
 70
     8
  0
VERTEX
  5
5F5
330
56B
100
AcDbEntity
  8
0
100
AcDbVertex
100
AcDb2dVertex
 10
3.853074622001233
 20
5.362640552189368
 30
0.0
 70
     8
  0
VERTEX
  5
5F6
330
56B
100
AcDbEntity
  8
0
100
AcDbVertex
100
AcDb2dVertex
 10
3.852871227710736
 20
5.363367637955028
 30
0.0
 70
     8
  0
VERTEX
  5
5F7
330
56B
100
AcDbEntity
  8
0
100
AcDbVertex
100
AcDb2dVertex
 10
3.852684330833725
 20
5.364101082612129
 30
0.0
 70
     8
  0
VERTEX
  5
5F8
330
56B
100
AcDbEntity
  8
0
100
AcDbVertex
100
AcDb2dVertex
 10
3.852515345601861
 20
5.364839708646418
 30
0.0
 70
     8
  0
VERTEX
  5
5F9
330
56B
100
AcDbEntity
  8
0
100
AcDbVertex
100
AcDb2dVertex
 10
3.852365686246797
 20
5.365582338543643
 30
0.0
 70
     8
  0
VERTEX
  5
5FA
330
56B
100
AcDbEntity
  8
0
100
AcDbVertex
100
AcDb2dVertex
 10
3.852236767000197
 20
5.366327794789551
 30
0.0
 70
     8
  0
VERTEX
  5
5FB
330
56B
100
AcDbEntity
  8
0
100
AcDbVertex
100
AcDb2dVertex
 10
3.852130002093713
 20
5.367074899869888
 30
0.0
 70
     8
  0
VERTEX
  5
5FC
330
56B
100
AcDbEntity
  8
0
100
AcDbVertex
100
AcDb2dVertex
 10
3.852046805759008
 20
5.367822476270402
 30
0.0
 70
     8
  0
VERTEX
  5
5FD
330
56B
100
AcDbEntity
  8
0
100
AcDbVertex
100
AcDb2dVertex
 10
3.851988592227738
 20
5.368569346476839
 30
0.0
 70
     8
  0
VERTEX
  5
5FE
330
56B
100
AcDbEntity
  8
0
100
AcDbVertex
100
AcDb2dVertex
 10
3.851956304321007
 20
5.36931405816921
 30
0.0
 70
     8
  0
VERTEX
  5
5FF
330
56B
100
AcDbEntity
  8
0
100
AcDbVertex
100
AcDb2dVertex
 10
3.851948999217712
 20
5.370054059804568
 30
0.0
 70
     8
  0
VERTEX
  5
600
330
56B
100
AcDbEntity
  8
0
100
AcDbVertex
100
AcDb2dVertex
 10
3.851965262686195
 20
5.370786525034232
 30
0.0
 70
     8
  0
VERTEX
  5
601
330
56B
100
AcDbEntity
  8
0
100
AcDbVertex
100
AcDb2dVertex
 10
3.852003680494795
 20
5.371508627509519
 30
0.0
 70
     8
  0
VERTEX
  5
602
330
56B
100
AcDbEntity
  8
0
100
AcDbVertex
100
AcDb2dVertex
 10
3.852062838411858
 20
5.372217540881747
 30
0.0
 70
     8
  0
VERTEX
  5
603
330
56B
100
AcDbEntity
  8
0
100
AcDbVertex
100
AcDb2dVertex
 10
3.852141322205722
 20
5.372910438802233
 30
0.0
 70
     8
  0
VERTEX
  5
604
330
56B
100
AcDbEntity
  8
0
100
AcDbVertex
100
AcDb2dVertex
 10
3.852237717644731
 20
5.373584494922294
 30
0.0
 70
     8
  0
VERTEX
  5
605
330
56B
100
AcDbEntity
  8
0
100
AcDbVertex
100
AcDb2dVertex
 10
3.852350610497228
 20
5.374236882893247
 30
0.0
 70
     8
  0
VERTEX
  5
606
330
56B
100
AcDbEntity
  8
0
100
AcDbVertex
100
AcDb2dVertex
 10
3.852478940089467
 20
5.374865796986865
 30
0.0
 70
     8
  0
VERTEX
  5
607
330
56B
100
AcDbEntity
  8
0
100
AcDbVertex
100
AcDb2dVertex
 10
3.852623059979364
 20
5.375473513956731
 30
0.0
 70
     8
  0
VERTEX
  5
608
330
56B
100
AcDbEntity
  8
0
100
AcDbVertex
100
AcDb2dVertex
 10
3.852783677282746
 20
5.376063331176884
 30
0.0
 70
     8
  0
VERTEX
  5
609
330
56B
100
AcDbEntity
  8
0
100
AcDbVertex
100
AcDb2dVertex
 10
3.852961499115447
 20
5.376638546021363
 30
0.0
 70
     8
  0
VERTEX
  5
60A
330
56B
100
AcDbEntity
  8
0
100
AcDbVertex
100
AcDb2dVertex
 10
3.85315723259329
 20
5.377202455864206
 30
0.0
 70
     8
  0
VERTEX
  5
60B
330
56B
100
AcDbEntity
  8
0
100
AcDbVertex
100
AcDb2dVertex
 10
3.853371584832108
 20
5.377758358079452
 30
0.0
 70
     8
  0
VERTEX
  5
60C
330
56B
100
AcDbEntity
  8
0
100
AcDbVertex
100
AcDb2dVertex
 10
3.853605262947728
 20
5.378309550041138
 30
0.0
 70
     8
  0
VERTEX
  5
60D
330
56B
100
AcDbEntity
  8
0
100
AcDbVertex
100
AcDb2dVertex
 10
3.853858974055981
 20
5.378859329123304
 30
0.0
 70
     8
  0
VERTEX
  5
60E
330
56B
100
AcDbEntity
  8
0
100
AcDbVertex
100
AcDb2dVertex
 10
3.854132953898814
 20
5.379409893591688
 30
0.0
 70
     8
  0
VERTEX
  5
60F
330
56B
100
AcDbEntity
  8
0
100
AcDbVertex
100
AcDb2dVertex
 10
3.854425552722655
 20
5.379959045278824
 30
0.0
 70
     8
  0
VERTEX
  5
610
330
56B
100
AcDbEntity
  8
0
100
AcDbVertex
100
AcDb2dVertex
 10
3.854734649400049
 20
5.380503486908949
 30
0.0
 70
     8
  0
VERTEX
  5
611
330
56B
100
AcDbEntity
  8
0
100
AcDbVertex
100
AcDb2dVertex
 10
3.855058122803547
 20
5.381039921206297
 30
0.0
 70
     8
  0
VERTEX
  5
612
330
56B
100
AcDbEntity
  8
0
100
AcDbVertex
100
AcDb2dVertex
 10
3.855393851805692
 20
5.381565050895103
 30
0.0
 70
     8
  0
VERTEX
  5
613
330
56B
100
AcDbEntity
  8
0
100
AcDbVertex
100
AcDb2dVertex
 10
3.855739715279032
 20
5.382075578699604
 30
0.0
 70
     8
  0
VERTEX
  5
614
330
56B
100
AcDbEntity
  8
0
100
AcDbVertex
100
AcDb2dVertex
 10
3.856093592096114
 20
5.382568207344033
 30
0.0
 70
     8
  0
VERTEX
  5
615
330
56B
100
AcDbEntity
  8
0
100
AcDbVertex
100
AcDb2dVertex
 10
3.856453361129486
 20
5.383039639552626
 30
0.0
 70
     8
  0
VERTEX
  5
616
330
56B
100
AcDbEntity
  8
0
100
AcDbVertex
100
AcDb2dVertex
 10
3.856817490441539
 20
5.383487284595841
 30
0.0
 70
     8
  0
VERTEX
  5
617
330
56B
100
AcDbEntity
  8
0
100
AcDbVertex
100
AcDb2dVertex
 10
3.857186804854052
 20
5.38391137792903
 30
0.0
 70
     8
  0
VERTEX
  5
618
330
56B
100
AcDbEntity
  8
0
100
AcDbVertex
100
AcDb2dVertex
 10
3.857562718378649
 20
5.384312861553768
 30
0.0
 70
     8
  0
VERTEX
  5
619
330
56B
100
AcDbEntity
  8
0
100
AcDbVertex
100
AcDb2dVertex
 10
3.857946645026954
 20
5.38469267747163
 30
0.0
 70
     8
  0
VERTEX
  5
61A
330
56B
100
AcDbEntity
  8
0
100
AcDbVertex
100
AcDb2dVertex
 10
3.858339998810591
 20
5.385051767684192
 30
0.0
 70
     8
  0
VERTEX
  5
61B
330
56B
100
AcDbEntity
  8
0
100
AcDbVertex
100
AcDb2dVertex
 10
3.858744193741185
 20
5.385391074193026
 30
0.0
 70
     8
  0
VERTEX
  5
61C
330
56B
100
AcDbEntity
  8
0
100
AcDbVertex
100
AcDb2dVertex
 10
3.859160643830359
 20
5.38571153899971
 30
0.0
 70
     8
  0
VERTEX
  5
61D
330
56B
100
AcDbEntity
  8
0
100
AcDbVertex
100
AcDb2dVertex
 10
3.859590763089738
 20
5.386014104105818
 30
0.0
 70
     8
  0
VERTEX
  5
61E
330
56B
100
AcDbEntity
  8
0
100
AcDbVertex
100
AcDb2dVertex
 10
3.860034826427316
 20
5.386299515260549
 30
0.0
 70
     8
  0
VERTEX
  5
61F
330
56B
100
AcDbEntity
  8
0
100
AcDbVertex
100
AcDb2dVertex
 10
3.860488552336572
 20
5.386567733203601
 30
0.0
 70
     8
  0
VERTEX
  5
620
330
56B
100
AcDbEntity
  8
0
100
AcDbVertex
100
AcDb2dVertex
 10
3.860946520207355
 20
5.386818522422296
 30
0.0
 70
     8
  0
VERTEX
  5
621
330
56B
100
AcDbEntity
  8
0
100
AcDbVertex
100
AcDb2dVertex
 10
3.861403309429516
 20
5.387051647403957
 30
0.0
 70
     8
  0
VERTEX
  5
622
330
56B
100
AcDbEntity
  8
0
100
AcDbVertex
100
AcDb2dVertex
 10
3.861853499392904
 20
5.387266872635904
 30
0.0
 70
     8
  0
VERTEX
  5
623
330
56B
100
AcDbEntity
  8
0
100
AcDbVertex
100
AcDb2dVertex
 10
3.862291669487368
 20
5.387463962605462
 30
0.0
 70
     8
  0
VERTEX
  5
624
330
56B
100
AcDbEntity
  8
0
100
AcDbVertex
100
AcDb2dVertex
 10
3.862712399102759
 20
5.387642681799949
 30
0.0
 70
     8
  0
VERTEX
  5
625
330
56B
100
AcDbEntity
  8
0
100
AcDbVertex
100
AcDb2dVertex
 10
3.863110267628923
 20
5.387802794706691
 30
0.0
 70
     8
  0
VERTEX
  5
626
330
56B
100
AcDbEntity
  8
0
100
AcDbVertex
100
AcDb2dVertex
 10
3.863482211263993
 20
5.387944340594178
 30
0.0
 70
     8
  0
VERTEX
  5
627
330
56B
100
AcDbEntity
  8
0
100
AcDbVertex
100
AcDb2dVertex
 10
3.863834593439226
 20
5.388068457855582
 30
0.0
 70
     8
  0
VERTEX
  5
628
330
56B
100
AcDbEntity
  8
0
100
AcDbVertex
100
AcDb2dVertex
 10
3.864176134394159
 20
5.388176559665243
 30
0.0
 70
     8
  0
VERTEX
  5
629
330
56B
100
AcDbEntity
  8
0
100
AcDbVertex
100
AcDb2dVertex
 10
3.864515554368327
 20
5.388270059197503
 30
0.0
 70
     8
  0
VERTEX
  5
62A
330
56B
100
AcDbEntity
  8
0
100
AcDbVertex
100
AcDb2dVertex
 10
3.864861573601268
 20
5.388350369626703
 30
0.0
 70
     8
  0
VERTEX
  5
62B
330
56B
100
AcDbEntity
  8
0
100
AcDbVertex
100
AcDb2dVertex
 10
3.86522291233252
 20
5.388418904127186
 30
0.0
 70
     8
  0
VERTEX
  5
62C
330
56B
100
AcDbEntity
  8
0
100
AcDbVertex
100
AcDb2dVertex
 10
3.86560829080162
 20
5.388477075873293
 30
0.0
 70
     8
  0
VERTEX
  5
62D
330
56B
100
AcDbEntity
  8
0
100
AcDbVertex
100
AcDb2dVertex
 10
3.866026429248104
 20
5.388526298039363
 30
0.0
 70
     8
  0
VERTEX
  5
62E
330
56B
100
AcDbEntity
  8
0
100
AcDbVertex
100
AcDb2dVertex
 10
3.866483848207482
 20
5.388567512749814
 30
0.0
 70
     8
  0
VERTEX
  5
62F
330
56B
100
AcDbEntity
  8
0
100
AcDbVertex
100
AcDb2dVertex
 10
3.86697826939915
 20
5.388599777929366
 30
0.0
 70
     8
  0
VERTEX
  5
630
330
56B
100
AcDbEntity
  8
0
100
AcDbVertex
100
AcDb2dVertex
 10
3.867505214838479
 20
5.388621680452816
 30
0.0
 70
     8
  0
VERTEX
  5
631
330
56B
100
AcDbEntity
  8
0
100
AcDbVertex
100
AcDb2dVertex
 10
3.868060206540838
 20
5.388631807194957
 30
0.0
 70
     8
  0
VERTEX
  5
632
330
56B
100
AcDbEntity
  8
0
100
AcDbVertex
100
AcDb2dVertex
 10
3.868638766521594
 20
5.388628745030586
 30
0.0
 70
     8
  0
VERTEX
  5
633
330
56B
100
AcDbEntity
  8
0
100
AcDbVertex
100
AcDb2dVertex
 10
3.869236416796119
 20
5.388611080834499
 30
0.0
 70
     8
  0
VERTEX
  5
634
330
56B
100
AcDbEntity
  8
0
100
AcDbVertex
100
AcDb2dVertex
 10
3.869848679379779
 20
5.38857740148149
 30
0.0
 70
     8
  0
VERTEX
  5
635
330
56B
100
AcDbEntity
  8
0
100
AcDbVertex
100
AcDb2dVertex
 10
3.870410741995946
 20
5.388727268857878
 30
0.0
 70
    16
  0
VERTEX
  5
636
330
56B
100
AcDbEntity
  8
0
100
AcDbVertex
100
AcDb2dVertex
 10
3.875599516142955
 20
5.387642001279851
 30
0.0
 70
    16
  0
VERTEX
  5
637
330
56B
100
AcDbEntity
  8
0
100
AcDbVertex
100
AcDb2dVertex
 10
3.880667634223451
 20
5.3847479460191
 30
0.0
 70
    16
  0
VERTEX
  5
638
330
56B
100
AcDbEntity
  8
0
100
AcDbVertex
100
AcDb2dVertex
 10
3.885253052932968
 20
5.380648015531171
 30
0.0
 70
    16
  0
VERTEX
  5
639
330
56B
100
AcDbEntity
  8
0
100
AcDbVertex
100
AcDb2dVertex
 10
3.888752454386479
 20
5.375945172587694
 30
0.0
 70
    16
  0
VERTEX
  5
63A
330
56B
100
AcDbEntity
  8
0
100
AcDbVertex
100
AcDb2dVertex
 10
3.891407188269472
 20
5.369795314592862
 30
0.0
 70
    16
  0
VERTEX
  5
63B
330
56B
100
AcDbEntity
  8
0
100
AcDbVertex
100
AcDb2dVertex
 10
3.892493205525478
 20
5.363886596422208
 30
0.0
 70
    16
  0
VERTEX
  5
63C
330
56B
100
AcDbEntity
  8
0
100
AcDbVertex
100
AcDb2dVertex
 10
3.892131199773476
 20
5.357374965796006
 30
0.0
 70
    16
  0
VERTEX
  5
63D
330
56B
100
AcDbEntity
  8
0
100
AcDbVertex
100
AcDb2dVertex
 10
3.889717815575973
 20
5.350863335169803
 30
0.0
 70
    16
  0
VERTEX
  5
63E
330
56B
100
AcDbEntity
  8
0
100
AcDbVertex
100
AcDb2dVertex
 10
3.885253052932968
 20
5.346160492226327
 30
0.0
 70
    16
  0
VERTEX
  5
63F
330
56B
100
AcDbEntity
  8
0
100
AcDbVertex
100
AcDb2dVertex
 10
3.880908946356476
 20
5.344110539561383
 30
0.0
 70
    16
  0
VERTEX
  5
640
330
56B
100
AcDbEntity
  8
0
100
AcDbVertex
100
AcDb2dVertex
 10
3.876564877332449
 20
5.343266436965576
 30
0.0
 70
    16
  0
VERTEX
  5
641
330
56B
100
AcDbEntity
  8
0
100
AcDbVertex
100
AcDb2dVertex
 10
3.871255447118927
 20
5.343748766930013
 30
0.0
 70
    16
  0
VERTEX
  5
642
330
56B
100
AcDbEntity
  8
0
100
AcDbVertex
100
AcDb2dVertex
 10
3.866549334790433
 20
5.345557554612738
 30
0.0
 70
    16
  0
VERTEX
  5
643
330
56B
100
AcDbEntity
  8
0
100
AcDbVertex
100
AcDb2dVertex
 10
3.861601910328913
 20
5.348933964995969
 30
0.0
 70
    16
  0
VERTEX
  5
644
330
56B
100
AcDbEntity
  8
0
100
AcDbVertex
100
AcDb2dVertex
 10
3.857981815256426
 20
5.352672122852529
 30
0.0
 70
    16
  0
VERTEX
  5
645
330
56B
100
AcDbEntity
  8
0
100
AcDbVertex
100
AcDb2dVertex
 10
3.855085769240408
 20
5.357013218322677
 30
0.0
 70
    16
  0
VERTEX
  5
646
330
56B
100
AcDbEntity
  8
0
100
AcDbVertex
100
AcDb2dVertex
 10
3.852913734728393
 20
5.362560163861962
 30
0.0
 70
    16
  0
VERTEX
  5
647
330
56B
100
AcDbEntity
  8
0
100
AcDbVertex
100
AcDb2dVertex
 10
3.85170702385341
 20
5.368589439365684
 30
0.0
 70
    16
  0
VERTEX
  5
648
330
56B
100
AcDbEntity
  8
0
100
AcDbVertex
100
AcDb2dVertex
 10
3.852189723224389
 20
5.374498157536339
 30
0.0
 70
    16
  0
VERTEX
  5
649
330
56B
100
AcDbEntity
  8
0
100
AcDbVertex
100
AcDb2dVertex
 10
3.853637746232398
 20
5.378839227848445
 30
0.0
 70
    16
  0
VERTEX
  5
64A
330
56B
100
AcDbEntity
  8
0
100
AcDbVertex
100
AcDb2dVertex
 10
3.856413136181903
 20
5.383300905809703
 30
0.0
 70
    16
  0
VERTEX
  5
64B
330
56B
100
AcDbEntity
  8
0
100
AcDbVertex
100
AcDb2dVertex
 10
3.859429875816899
 20
5.386194986228496
 30
0.0
 70
    16
  0
VERTEX
  5
64C
330
56B
100
AcDbEntity
  8
0
100
AcDbVertex
100
AcDb2dVertex
 10
3.863411939088925
 20
5.388003773911221
 30
0.0
 70
    16
  0
SEQEND
  5
64E
330
56B
100
AcDbEntity
  8
0
  0
LINE
  5
64F
330
18
100
AcDbEntity
  8
0
100
AcDbLine
 10
3.868451622117573
 20
5.296646700781622
 30
0.0
 11
3.754182485785477
 21
5.329162918411461
 31
0.0
  0
LINE
  5
650
330
18
100
AcDbEntity
  8
0
100
AcDbLine
 10
3.31901927140328
 20
6.191091343267557
 30
0.0
 11
3.641403209695159
 21
6.091950219138649
 31
0.0
  0
LINE
  5
651
330
18
100
AcDbEntity
  8
0
100
AcDbLine
 10
4.627986621606208
 20
6.212376160502378
 30
0.0
 11
4.578254966789576
 21
6.183416432757881
 31
0.0
  0
LINE
  5
652
330
18
100
AcDbEntity
  8
0
100
AcDbLine
 10
4.578254966789577
 20
6.224326347827437
 30
0.0
 11
4.528523311972944
 21
6.19536662008294
 31
0.0
  0
LINE
  5
653
330
18
100
AcDbEntity
  8
0
100
AcDbLine
 10
4.37932834752305
 20
6.214853208597043
 30
0.0
 11
4.329596692706418
 21
6.185893480852546
 31
0.0
  0
LINE
  5
654
330
18
100
AcDbEntity
  8
0
100
AcDbLine
 10
4.265132543559407
 20
6.32631284364815
 30
0.0
 11
4.265132543559407
 21
5.986350859893213
 31
0.0
  0
LINE
  5
655
330
18
100
AcDbEntity
  8
0
100
AcDbLine
 10
4.68399477523768
 20
6.230262634729193
 30
0.0
 11
4.265132543559407
 21
5.986350859893213
 31
0.0
  0
LINE
  5
656
330
18
100
AcDbEntity
  8
0
100
AcDbLine
 10
4.528523311972944
 20
6.154456705013384
 30
0.0
 11
4.478791657156314
 21
6.125496977268889
 31
0.0
  0
LINE
  5
657
330
18
100
AcDbEntity
  8
0
100
AcDbLine
 10
4.329596692706418
 20
6.0386177940354
 30
0.0
 11
4.286620593275077
 21
6.01359196001397
 31
0.0
  0
LINE
  5
658
330
18
100
AcDbEntity
  8
0
100
AcDbLine
 10
4.329596692706418
 20
6.129642370860825
 30
0.0
 11
4.286620593275077
 21
6.104616536839396
 31
0.0
  0
LINE
  5
659
330
18
100
AcDbEntity
  8
0
100
AcDbLine
 10
4.286620593275077
 20
6.054501875083526
 30
0.0
 11
4.265132543559407
 21
6.041988958072811
 31
0.0
  0
LINE
  5
65A
330
18
100
AcDbEntity
  8
0
100
AcDbLine
 10
4.286620593275077
 20
6.160867646831117
 30
0.0
 11
4.265132543559407
 21
6.148354729820404
 31
0.0
  0
LINE
  5
65B
330
18
100
AcDbEntity
  8
0
100
AcDbLine
 10
4.429060002339681
 20
6.096537249524392
 30
0.0
 11
4.37932834752305
 21
6.067577521779896
 31
0.0
  0
LINE
  5
65C
330
18
100
AcDbEntity
  8
0
100
AcDbLine
 10
4.429060002339681
 20
6.187561826349818
 30
0.0
 11
4.37932834752305
 21
6.158602098605321
 31
0.0
  0
LINE
  5
65D
330
18
100
AcDbEntity
  8
0
100
AcDbLine
 10
4.37932834752305
 20
6.108487436849451
 30
0.0
 11
4.329596692706418
 21
6.079527709104955
 31
0.0
  0
LINE
  5
65E
330
18
100
AcDbEntity
  8
0
100
AcDbLine
 10
4.478791657156313
 20
6.166406892338443
 30
0.0
 11
4.429060002339681
 21
6.137447164593947
 31
0.0
  0
LINE
  5
65F
330
18
100
AcDbEntity
  8
0
100
AcDbLine
 10
4.528523311972944
 20
6.24548128183881
 30
0.0
 11
4.478791657156314
 21
6.216521554094315
 31
0.0
  0
LINE
  5
660
330
18
100
AcDbEntity
  8
0
100
AcDbLine
 10
4.528523311972944
 20
6.36207450447909
 30
0.0
 11
4.478791657156314
 21
6.333114776734594
 31
0.0
  0
LINE
  5
661
330
18
100
AcDbEntity
  8
0
100
AcDbLine
 10
4.528523311972944
 20
6.460258308079277
 30
0.0
 11
4.478791657156314
 21
6.431298580334781
 31
0.0
  0
LINE
  5
662
330
18
100
AcDbEntity
  8
0
100
AcDbLine
 10
4.68399477523768
 20
6.57022461848413
 30
0.0
 11
4.265132543559407
 21
6.32631284364815
 31
0.0
  0
LINE
  5
663
330
18
100
AcDbEntity
  8
0
100
AcDbLine
 10
4.329596692706418
 20
6.246235593501105
 30
0.0
 11
4.286620593275077
 21
6.221209759479676
 31
0.0
  0
LINE
  5
664
330
18
100
AcDbEntity
  8
0
100
AcDbLine
 10
4.329596692706418
 20
6.344419397101292
 30
0.0
 11
4.286620593275077
 21
6.319393563079863
 31
0.0
  0
LINE
  5
665
330
18
100
AcDbEntity
  8
0
100
AcDbLine
 10
4.286620593275077
 20
6.274392645353471
 30
0.0
 11
4.265132543559407
 21
6.261879728342756
 31
0.0
  0
LINE
  5
666
330
18
100
AcDbEntity
  8
0
100
AcDbLine
 10
4.429060002339681
 20
6.304155048990097
 30
0.0
 11
4.37932834752305
 21
6.275195321245601
 31
0.0
  0
LINE
  5
667
330
18
100
AcDbEntity
  8
0
100
AcDbLine
 10
4.429060002339681
 20
6.402338852590284
 30
0.0
 11
4.37932834752305
 21
6.373379124845788
 31
0.0
  0
LINE
  5
668
330
18
100
AcDbEntity
  8
0
100
AcDbLine
 10
4.37932834752305
 20
6.328378207119396
 30
0.0
 11
4.329596692706418
 21
6.2994184793749
 31
0.0
  0
LINE
  5
669
330
18
100
AcDbEntity
  8
0
100
AcDbLine
 10
4.478791657156313
 20
6.272772664086036
 30
0.0
 11
4.429060002339681
 21
6.24381293634154
 31
0.0
  0
LINE
  5
66A
330
18
100
AcDbEntity
  8
0
100
AcDbLine
 10
4.478791657156314
 20
6.386297662608389
 30
0.0
 11
4.429060002339681
 21
6.357337934863891
 31
0.0
  0
LINE
  5
66B
330
18
100
AcDbEntity
  8
0
100
AcDbLine
 10
4.68399477523768
 20
6.285900732908791
 30
0.0
 11
4.627986621606207
 21
6.253286075571933
 31
0.0
  0
LINE
  5
66C
330
18
100
AcDbEntity
  8
0
100
AcDbLine
 10
4.68399477523768
 20
6.392266504656384
 30
0.0
 11
4.627986621606207
 21
6.359651847319525
 31
0.0
  0
LINE
  5
66D
330
18
100
AcDbEntity
  8
0
100
AcDbLine
 10
4.68399477523768
 20
6.505791503178736
 30
0.0
 11
4.627986621606207
 21
6.473176845841878
 31
0.0
  0
LINE
  5
66E
330
18
100
AcDbEntity
  8
0
100
AcDbLine
 10
4.627986621606208
 20
6.419993959968084
 30
0.0
 11
4.578254966789576
 21
6.391034232223587
 31
0.0
  0
LINE
  5
66F
330
18
100
AcDbEntity
  8
0
100
AcDbLine
 10
4.578254966789577
 20
6.444217118097382
 30
0.0
 11
4.528523311972944
 21
6.415257390352886
 31
0.0
  0
LINE
  5
670
330
18
100
AcDbEntity
  8
0
100
AcDbLine
 10
4.578254966789577
 20
6.330692119575029
 30
0.0
 11
4.528523311972944
 21
6.301732391830533
 31
0.0
  0
LINE
  5
671
330
18
100
AcDbEntity
  8
0
100
AcDbLine
 10
4.627986621606208
 20
6.303400737327804
 30
0.0
 11
4.578254966789576
 21
6.274441009583307
 31
0.0
  0
LINE
  5
672
330
18
100
AcDbEntity
  8
0
100
AcDbLine
 10
4.627986621606208
 20
6.518177763568271
 30
0.0
 11
4.578254966789576
 21
6.489218035823773
 31
0.0
  0
LINE
  5
673
330
18
100
AcDbEntity
  8
0
100
AcDbLine
 10
4.683994775237679
 20
6.57022461848413
 30
0.0
 11
4.68399477523768
 21
6.230262634729193
 31
0.0
  0
LINE
  5
674
330
18
100
AcDbEntity
  8
0
100
AcDbLine
 10
6.502729123708369
 20
5.871246434588544
 30
0.0
 11
6.458240556518211
 21
5.834740671876299
 31
0.0
  0
LINE
  5
675
330
18
100
AcDbEntity
  8
0
100
AcDbLine
 10
6.492783197034726
 20
5.793584550167152
 30
0.0
 11
6.448294629844567
 21
5.757078787454907
 31
0.0
  0
LINE
  5
676
330
18
100
AcDbEntity
  8
0
100
AcDbLine
 10
6.512041130548019
 20
5.986595524443639
 30
0.0
 11
6.467552563357861
 21
5.950089761731394
 31
0.0
  0
LINE
  5
677
330
18
100
AcDbEntity
  8
0
100
AcDbLine
 10
6.509712137653555
 20
5.688574606023823
 30
0.0
 11
6.465223570463397
 21
5.652068843311578
 31
0.0
  0
LINE
  5
678
330
18
100
AcDbEntity
  8
0
100
AcDbLine
 10
6.702136425658782
 20
5.78427606313013
 30
0.0
 11
6.32743382213298
 21
5.47680820799544
 31
0.0
  0
LINE
  5
679
330
18
100
AcDbEntity
  8
0
100
AcDbLine
 10
6.413751989328053
 20
5.798234909164054
 30
0.0
 11
6.375306755720369
 21
5.766688094686976
 31
0.0
  0
LINE
  5
67A
330
18
100
AcDbEntity
  8
0
100
AcDbLine
 10
6.32743382213298
 20
5.47680820799544
 30
0.0
 11
6.32743382213298
 21
5.85683555197828
 31
0.0
  0
LINE
  5
67B
330
18
100
AcDbEntity
  8
0
100
AcDbLine
 10
6.382757567545346
 20
5.538668875009461
 30
0.0
 11
6.344312333937661
 21
5.507122060532383
 31
0.0
  0
LINE
  5
67C
330
18
100
AcDbEntity
  8
0
100
AcDbLine
 10
6.420735003273238
 20
5.615563080599333
 30
0.0
 11
6.376246436083081
 21
5.579057317887088
 31
0.0
  0
LINE
  5
67D
330
18
100
AcDbEntity
  8
0
100
AcDbLine
 10
6.403806062654409
 20
5.720573024742662
 30
0.0
 11
6.359317495464252
 21
5.684067262030416
 31
0.0
  0
LINE
  5
67E
330
18
100
AcDbEntity
  8
0
100
AcDbLine
 10
6.368270297527803
 20
5.628533176006501
 30
0.0
 11
6.329825063920119
 21
5.596986361529423
 31
0.0
  0
LINE
  5
67F
330
18
100
AcDbEntity
  8
0
100
AcDbLine
 10
6.457247431908119
 20
5.701544701430991
 30
0.0
 11
6.412758864717961
 21
5.665038938718746
 31
0.0
  0
LINE
  5
680
330
18
100
AcDbEntity
  8
0
100
AcDbLine
 10
6.471734701925661
 20
5.611680400433951
 30
0.0
 11
6.427246134735503
 21
5.575174637721706
 31
0.0
  0
LINE
  5
681
330
18
100
AcDbEntity
  8
0
100
AcDbLine
 10
6.423063996167703
 20
5.913583999019147
 30
0.0
 11
6.378575428977545
 21
5.877078236306903
 31
0.0
  0
LINE
  5
682
330
18
100
AcDbEntity
  8
0
100
AcDbLine
 10
6.385737675360627
 20
5.832650938133758
 30
0.0
 11
6.341249108170469
 21
5.796145175421513
 31
0.0
  0
LINE
  5
683
330
18
100
AcDbEntity
  8
0
100
AcDbLine
 10
6.474714809740943
 20
5.905662463558248
 30
0.0
 11
6.430226242550785
 21
5.869156700846002
 31
0.0
  0
LINE
  5
684
330
18
100
AcDbEntity
  8
0
100
AcDbLine
 10
6.546224566288434
 20
5.774556226855481
 30
0.0
 11
6.501735999098277
 21
5.738050464143237
 31
0.0
  0
LINE
  5
685
330
18
100
AcDbEntity
  8
0
100
AcDbLine
 10
6.649688970686293
 20
5.757703451282933
 30
0.0
 11
6.605200403496135
 21
5.721197688570687
 31
0.0
  0
LINE
  5
686
330
18
100
AcDbEntity
  8
0
100
AcDbLine
 10
6.598689272033871
 20
5.761586131448314
 30
0.0
 11
6.554200704843712
 21
5.725080368736068
 31
0.0
  0
LINE
  5
687
330
18
100
AcDbEntity
  8
0
100
AcDbLine
 10
6.560711836305977
 20
5.684691925858441
 30
0.0
 11
6.51622326911582
 21
5.648186163146197
 31
0.0
  0
LINE
  5
688
330
18
100
AcDbEntity
  8
0
100
AcDbLine
 10
6.680683392469001
 20
6.017269485437526
 30
0.0
 11
6.636194825278842
 21
5.980763722725279
 31
0.0
  0
LINE
  5
689
330
18
100
AcDbEntity
  8
0
100
AcDbLine
 10
6.680647576690265
 20
6.11731112425292
 30
0.0
 11
6.64220234308258
 21
6.085764309775842
 31
0.0
  0
LINE
  5
68A
330
18
100
AcDbEntity
  8
0
100
AcDbLine
 10
6.658283861284745
 20
6.056292808840586
 30
0.0
 11
6.608180511311416
 21
6.015179751694984
 31
0.0
  0
LINE
  5
68B
330
18
100
AcDbEntity
  8
0
100
AcDbLine
 10
6.676352248578527
 20
5.944214895449489
 30
0.0
 11
6.626248898605199
 21
5.903101838303888
 31
0.0
  0
LINE
  5
68C
330
18
100
AcDbEntity
  8
0
100
AcDbLine
 10
6.693281189197356
 20
5.839204951306161
 30
0.0
 11
6.643177839224028
 21
5.798091894160558
 31
0.0
  0
LINE
  5
68D
330
18
100
AcDbEntity
  8
0
100
AcDbLine
 10
6.591706258088685
 20
5.944257960013035
 30
0.0
 11
6.547217690898528
 21
5.907752197300789
 31
0.0
  0
LINE
  5
68E
330
18
100
AcDbEntity
  8
0
100
AcDbLine
 10
6.581760331415042
 20
5.866596075591643
 30
0.0
 11
6.537271764224883
 21
5.830090312879398
 31
0.0
  0
LINE
  5
68F
330
18
100
AcDbEntity
  8
0
100
AcDbLine
 10
6.563691944121259
 20
5.978673988982739
 30
0.0
 11
6.519203376931101
 21
5.942168226270494
 31
0.0
  0
LINE
  5
690
330
18
100
AcDbEntity
  8
0
100
AcDbLine
 10
6.635201700668751
 20
5.847567752279973
 30
0.0
 11
6.590713133478593
 21
5.811061989567727
 31
0.0
  0
LINE
  5
691
330
18
100
AcDbEntity
  8
0
100
AcDbLine
 10
6.601018264928335
 20
6.05960704986813
 30
0.0
 11
6.556529697738177
 21
6.023101287155884
 31
0.0
  0
LINE
  5
692
330
18
100
AcDbEntity
  8
0
100
AcDbLine
 10
6.702136425658782
 20
6.164303407112969
 30
0.0
 11
6.32743382213298
 21
5.85683555197828
 31
0.0
  0
LINE
  5
693
330
18
100
AcDbEntity
  8
0
100
AcDbLine
 10
6.702136425658782
 20
5.78427606313013
 30
0.0
 11
6.702136425658782
 21
6.164303407112969
 31
0.0
  0
LINE
  5
694
330
18
100
AcDbEntity
  8
0
100
AcDbLine
 10
4.683994775237679
 20
6.546440322774289
 30
0.0
 11
5.461583999999999
 21
7.606832000000001
 31
0.0
  0
LINE
  5
695
330
18
100
AcDbEntity
  8
0
100
AcDbLine
 10
6.702136425658782
 20
6.116251573732665
 30
0.0
 11
7.484458
 21
7.450435000000001
 31
0.0
  0
LINE
  5
696
330
18
100
AcDbEntity
  8
0
100
AcDbLine
 10
3.45065644940439
 20
4.864547116693762
 30
0.0
 11
3.45065644940439
 21
3.120305245368686
 31
0.0
  0
LINE
  5
697
330
18
100
AcDbEntity
  8
0
100
AcDbLine
 10
3.592841943806861
 20
5.05844421288251
 30
0.0
 11
3.592841943806861
 21
3.07226561398729
 31
0.0
  0
LINE
  5
698
330
18
100
AcDbEntity
  8
0
100
AcDbLine
 10
3.990961342750706
 20
5.200700487097009
 30
0.0
 11
3.990961342750707
 21
3.084947867262965
 31
0.0
  0
LINE
  5
699
330
18
100
AcDbEntity
  8
0
100
AcDbLine
 10
6.635611640955155
 20
4.307162414852754
 30
0.0
 11
6.635611640955155
 21
2.522336306463111
 31
0.0
  0
LINE
  5
69A
330
18
100
AcDbEntity
  8
0
100
AcDbLine
 10
6.237492242011309
 20
4.441673308727602
 30
0.0
 11
6.23749224201131
 21
2.453701958028124
 31
0.0
  0
LINE
  5
69B
330
18
100
AcDbEntity
  8
0
100
AcDbLine
 10
6.095306747608838
 20
4.489712911919136
 30
0.0
 11
6.095306747608837
 21
2.501741561219657
 31
0.0
  0
LINE
  5
69C
330
18
100
AcDbEntity
  8
0
100
AcDbLine
 10
3.450656449404389
 20
3.120305245368686
 30
0.0
 11
3.592841943806861
 21
3.07226561398729
 31
0.0
  0
LINE
  5
69D
330
18
100
AcDbEntity
  8
0
100
AcDbLine
 10
6.095306747608837
 20
2.501741561219657
 30
0.0
 11
6.237492242011309
 21
2.453701958028124
 31
0.0
  0
LINE
  5
69E
330
18
100
AcDbEntity
  8
0
100
AcDbLine
 10
6.23749224201131
 20
2.453701958028125
 30
0.0
 11
6.413136611932814
 21
2.483982413885882
 31
0.0
  0
LINE
  5
69F
330
18
100
AcDbEntity
  8
0
100
AcDbLine
 10
6.413136611932813
 20
2.483982413885882
 30
0.0
 11
6.454032579635974
 21
2.554978104687103
 31
0.0
  0
LINE
  5
6A0
330
18
100
AcDbEntity
  8
0
100
AcDbLine
 10
6.454032579635974
 20
2.554978104687103
 30
0.0
 11
6.494928583881451
 21
2.438803357853641
 31
0.0
  0
LINE
  5
6A1
330
18
100
AcDbEntity
  8
0
100
AcDbLine
 10
6.494928583881451
 20
2.438803357853641
 30
0.0
 11
6.511342751489911
 21
2.50091279813417
 31
0.0
  0
LINE
  5
6A2
330
18
100
AcDbEntity
  8
0
100
AcDbLine
 10
6.511342751489911
 20
2.50091279813417
 30
0.0
 11
6.635611640955156
 21
2.522336306463111
 31
0.0
  0
LINE
  5
6A3
330
18
100
AcDbEntity
  8
0
100
AcDbLine
 10
6.378753589744406
 20
2.478054904873793
 30
0.0
 11
6.49492858388145
 21
2.438803357853641
 31
0.0
  0
LINE
  5
6A4
330
18
100
AcDbEntity
  8
0
100
AcDbLine
 10
3.888215535880494
 20
3.081674858338511
 30
0.0
 11
3.990961342750706
 21
3.084947867262965
 31
0.0
  0
LINE
  5
6A5
330
18
100
AcDbEntity
  8
0
100
AcDbLine
 10
3.7855186507465
 20
3.078403407835603
 30
0.0
 11
3.829297807194393
 21
3.19717539978957
 31
0.0
  0
LINE
  5
6A6
330
18
100
AcDbEntity
  8
0
100
AcDbLine
 10
3.829297807194393
 20
3.19717539978957
 30
0.0
 11
3.87933114451012
 21
3.028394188454387
 31
0.0
  0
LINE
  5
6A7
330
18
100
AcDbEntity
  8
0
100
AcDbLine
 10
3.87933114451012
 20
3.028394188454387
 30
0.0
 11
3.888215535880494
 21
3.081674858338511
 31
0.0
  0
LINE
  5
6A8
330
18
100
AcDbEntity
  8
0
100
AcDbLine
 10
3.7855186507465
 20
3.078403407835603
 30
0.0
 11
3.592841943806861
 21
3.07226561398729
 31
0.0
  0
LINE
  5
6A9
330
18
100
AcDbEntity
  8
0
100
AcDbLine
 10
3.737145650107649
 20
3.076433819835783
 30
0.0
 11
3.87933114451012
 21
3.028394188454387
 31
0.0
  0
LINE
  5
6AA
330
18
100
AcDbEntity
  8
0
100
AcDbLine
 10
3.177048
 20
7.548277000000001
 30
0.0
 11
4.249770239222694
 21
8.674402439462698
 31
0.0
  0
LINE
  5
6AB
330
18
100
AcDbEntity
  8
0
  6
HIDDEN
100
AcDbLine
 10
3.691900863935059
 20
6.091788060178306
 30
0.0
 11
3.784841465537542
 21
6.053630014737663
 31
0.0
  0
LINE
  5
6AC
330
18
100
AcDbEntity
  8
0
  6
Continuous
100
AcDbLine
 10
3.583411465537541
 20
5.961821016756495
 30
0.0
 11
3.583411465537541
 21
6.037884447239308
 31
0.0
  0
ARC
  5
6AD
330
18
100
AcDbEntity
  8
0
100
AcDbCircle
 10
6.067747019432734
 20
4.767339004771252
 30
0.0
 40
0.009575
100
AcDbArc
 50
264.425384
 51
293.503032
  0
ARC
  5
6AE
330
18
100
AcDbEntity
  8
0
100
AcDbCircle
 10
6.068146019432734
 20
4.771432004771252
 30
0.0
 40
0.013687
100
AcDbArc
 50
240.184669
 51
264.425384
  0
ARC
  5
6AF
330
18
100
AcDbEntity
  8
0
100
AcDbCircle
 10
6.135367019432734
 20
4.791811255451959
 30
0.0
 40
0.022808
100
AcDbArc
 50
23.503032
 51
40.650057
  0
ARC
  5
6B0
330
18
100
AcDbEntity
  8
0
100
AcDbCircle
 10
6.148748019432734
 20
4.799301255451959
 30
0.0
 40
0.017612
100
AcDbArc
 50
166.821396
 51
186.356007
  0
LINE
  5
6B1
330
18
100
AcDbEntity
  8
0
100
AcDbLine
 10
6.008834019432734
 20
4.999172093070185
 30
0.0
 11
6.008834019432735
 21
4.720577091698842
 31
0.0
  0
LINE
  5
6B2
330
18
100
AcDbEntity
  8
0
100
AcDbLine
 10
6.034345019432734
 20
4.615688557204359
 30
0.0
 11
6.209804019432735
 21
4.556407557204359
 31
0.0
  0
LINE
  5
6B3
330
18
100
AcDbEntity
  8
0
100
AcDbLine
 10
6.008834019432734
 20
4.720577091698842
 30
0.0
 11
6.034345019432734
 21
4.615688557204359
 31
0.0
  0
ARC
  5
6B4
330
18
100
AcDbEntity
  8
0
100
AcDbCircle
 10
6.078783019432734
 20
4.657427557204358
 30
0.0
 40
0.009575
100
AcDbArc
 50
84.42538399999999
 51
113.503032
  0
ARC
  5
6B5
330
18
100
AcDbEntity
  8
0
100
AcDbCircle
 10
6.078383019432734
 20
4.653334557204358
 30
0.0
 40
0.013687
100
AcDbArc
 50
60.184669
 51
84.42538399999999
  0
ARC
  5
6B6
330
18
100
AcDbEntity
  8
0
100
AcDbCircle
 10
6.076431019432734
 20
4.649928557204359
 30
0.0
 40
0.017612
100
AcDbArc
 50
40.650057
 51
60.184669
  0
ARC
  5
6B7
330
18
100
AcDbEntity
  8
0
100
AcDbCircle
 10
6.072490019432735
 20
4.64654455720436
 30
0.0
 40
0.022808
100
AcDbArc
 50
23.503032
 51
40.650057
  0
ARC
  5
6B8
330
18
100
AcDbEntity
  8
0
100
AcDbCircle
 10
6.072490019432735
 20
4.64654455720436
 30
0.0
 40
0.022808
100
AcDbArc
 50
6.356007
 51
23.503032
  0
ARC
  5
6B9
330
18
100
AcDbEntity
  8
0
100
AcDbCircle
 10
6.077653019432734
 20
4.647119557204359
 30
0.0
 40
0.017612
100
AcDbArc
 50
346.821396
 51
6.356007
  0
ARC
  5
6BA
330
18
100
AcDbEntity
  8
0
100
AcDbCircle
 10
6.081475019432734
 20
4.646224557204358
 30
0.0
 40
0.013687
100
AcDbArc
 50
322.58068
 51
346.821396
  0
ARC
  5
6BB
330
18
100
AcDbEntity
  8
0
100
AcDbCircle
 10
6.084741019432734
 20
4.643725557204359
 30
0.0
 40
0.009575
100
AcDbArc
 50
293.503032
 51
322.58068
  0
ARC
  5
6BC
330
18
100
AcDbEntity
  8
0
100
AcDbCircle
 10
6.084741019432734
 20
4.643725557204359
 30
0.0
 40
0.009575
100
AcDbArc
 50
264.425384
 51
293.503032
  0
ARC
  5
6BD
330
18
100
AcDbEntity
  8
0
100
AcDbCircle
 10
6.085141019432734
 20
4.647818557204359
 30
0.0
 40
0.013687
100
AcDbArc
 50
240.184669
 51
264.425384
  0
ARC
  5
6BE
330
18
100
AcDbEntity
  8
0
100
AcDbCircle
 10
6.087092019432734
 20
4.651224557204359
 30
0.0
 40
0.017612
100
AcDbArc
 50
220.650057
 51
240.184669
  0
ARC
  5
6BF
330
18
100
AcDbEntity
  8
0
100
AcDbCircle
 10
6.091034019432734
 20
4.654608557204359
 30
0.0
 40
0.022808
100
AcDbArc
 50
203.503032
 51
220.650057
  0
ARC
  5
6C0
330
18
100
AcDbEntity
  8
0
100
AcDbCircle
 10
6.091034019432734
 20
4.654608557204359
 30
0.0
 40
0.022808
100
AcDbArc
 50
186.356007
 51
203.503032
  0
ARC
  5
6C1
330
18
100
AcDbEntity
  8
0
100
AcDbCircle
 10
6.085871019432735
 20
4.654033557204359
 30
0.0
 40
0.017612
100
AcDbArc
 50
166.821396
 51
186.356007
  0
ARC
  5
6C2
330
18
100
AcDbEntity
  8
0
100
AcDbCircle
 10
6.082048019432734
 20
4.654928557204359
 30
0.0
 40
0.013687
100
AcDbArc
 50
142.58068
 51
166.821396
  0
ARC
  5
6C3
330
18
100
AcDbEntity
  8
0
100
AcDbCircle
 10
6.078783019432734
 20
4.657427557204358
 30
0.0
 40
0.009575
100
AcDbArc
 50
113.503032
 51
142.58068
  0
ARC
  5
6C4
330
18
100
AcDbEntity
  8
0
100
AcDbCircle
 10
6.158654019432734
 20
4.633642557204359
 30
0.0
 40
0.009575
100
AcDbArc
 50
84.42538399999999
 51
113.503032
  0
ARC
  5
6C5
330
18
100
AcDbEntity
  8
0
100
AcDbCircle
 10
6.158254019432734
 20
4.629550557204359
 30
0.0
 40
0.013687
100
AcDbArc
 50
60.184669
 51
84.42538399999999
  0
ARC
  5
6C6
330
18
100
AcDbEntity
  8
0
100
AcDbCircle
 10
6.156302019432734
 20
4.626144557204359
 30
0.0
 40
0.017612
100
AcDbArc
 50
40.650057
 51
60.184669
  0
ARC
  5
6C7
330
18
100
AcDbEntity
  8
0
100
AcDbCircle
 10
6.152361019432735
 20
4.622759557204359
 30
0.0
 40
0.022808
100
AcDbArc
 50
23.503032
 51
40.650057
  0
ARC
  5
6C8
330
18
100
AcDbEntity
  8
0
100
AcDbCircle
 10
6.152361019432735
 20
4.622759557204359
 30
0.0
 40
0.022808
100
AcDbArc
 50
6.356007
 51
23.503032
  0
ARC
  5
6C9
330
18
100
AcDbEntity
  8
0
100
AcDbCircle
 10
6.157524019432734
 20
4.623334557204359
 30
0.0
 40
0.017612
100
AcDbArc
 50
346.821396
 51
6.356007
  0
ARC
  5
6CA
330
18
100
AcDbEntity
  8
0
100
AcDbCircle
 10
6.161346019432735
 20
4.622439557204359
 30
0.0
 40
0.013687
100
AcDbArc
 50
322.58068
 51
346.821396
  0
ARC
  5
6CB
330
18
100
AcDbEntity
  8
0
100
AcDbCircle
 10
6.164612019432734
 20
4.619941557204359
 30
0.0
 40
0.009575
100
AcDbArc
 50
293.503032
 51
322.58068
  0
ARC
  5
6CC
330
18
100
AcDbEntity
  8
0
100
AcDbCircle
 10
6.164612019432734
 20
4.619941557204359
 30
0.0
 40
0.009575
100
AcDbArc
 50
264.425384
 51
293.503032
  0
ARC
  5
6CD
330
18
100
AcDbEntity
  8
0
100
AcDbCircle
 10
6.165012019432734
 20
4.624033557204359
 30
0.0
 40
0.013687
100
AcDbArc
 50
240.184669
 51
264.425384
  0
ARC
  5
6CE
330
18
100
AcDbEntity
  8
0
100
AcDbCircle
 10
6.166964019432734
 20
4.627439557204359
 30
0.0
 40
0.017612
100
AcDbArc
 50
220.650057
 51
240.184669
  0
ARC
  5
6CF
330
18
100
AcDbEntity
  8
0
100
AcDbCircle
 10
6.170905019432734
 20
4.630824557204359
 30
0.0
 40
0.022808
100
AcDbArc
 50
203.503032
 51
220.650057
  0
ARC
  5
6D0
330
18
100
AcDbEntity
  8
0
100
AcDbCircle
 10
6.170905019432734
 20
4.630824557204359
 30
0.0
 40
0.022808
100
AcDbArc
 50
186.356007
 51
203.503032
  0
ARC
  5
6D1
330
18
100
AcDbEntity
  8
0
100
AcDbCircle
 10
6.165742019432734
 20
4.630249557204359
 30
0.0
 40
0.017612
100
AcDbArc
 50
166.821396
 51
186.356007
  0
ARC
  5
6D2
330
18
100
AcDbEntity
  8
0
100
AcDbCircle
 10
6.161920019432734
 20
4.631144557204359
 30
0.0
 40
0.013687
100
AcDbArc
 50
142.58068
 51
166.821396
  0
ARC
  5
6D3
330
18
100
AcDbEntity
  8
0
100
AcDbCircle
 10
6.158654019432734
 20
4.633642557204359
 30
0.0
 40
0.009575
100
AcDbArc
 50
113.503032
 51
142.58068
  0
ARC
  5
6D4
330
18
100
AcDbEntity
  8
0
100
AcDbCircle
 10
6.135367019432734
 20
4.791811255451959
 30
0.0
 40
0.022808
100
AcDbArc
 50
6.356007
 51
23.503032
  0
ARC
  5
6D5
330
18
100
AcDbEntity
  8
0
100
AcDbCircle
 10
6.140530019432734
 20
4.792386255451959
 30
0.0
 40
0.017612
100
AcDbArc
 50
346.821396
 51
6.356007
  0
ARC
  5
6D6
330
18
100
AcDbEntity
  8
0
100
AcDbCircle
 10
6.144352019432734
 20
4.791491255451959
 30
0.0
 40
0.013687
100
AcDbArc
 50
322.58068
 51
346.821396
  0
ARC
  5
6D7
330
18
100
AcDbEntity
  8
0
100
AcDbCircle
 10
6.147618019432734
 20
4.788993255451959
 30
0.0
 40
0.009575
100
AcDbArc
 50
293.503032
 51
322.58068
  0
ARC
  5
6D8
330
18
100
AcDbEntity
  8
0
100
AcDbCircle
 10
6.147618019432734
 20
4.788993255451959
 30
0.0
 40
0.009575
100
AcDbArc
 50
264.425384
 51
293.503032
  0
ARC
  5
6D9
330
18
100
AcDbEntity
  8
0
100
AcDbCircle
 10
6.148018019432734
 20
4.793085255451959
 30
0.0
 40
0.013687
100
AcDbArc
 50
240.184669
 51
264.425384
  0
ARC
  5
6DA
330
18
100
AcDbEntity
  8
0
100
AcDbCircle
 10
6.149970019432734
 20
4.796491255451959
 30
0.0
 40
0.017612
100
AcDbArc
 50
220.650057
 51
240.184669
  0
ARC
  5
6DB
330
18
100
AcDbEntity
  8
0
100
AcDbCircle
 10
6.153911019432734
 20
4.799876255451959
 30
0.0
 40
0.022808
100
AcDbArc
 50
203.503032
 51
220.650057
  0
ARC
  5
6DC
330
18
100
AcDbEntity
  8
0
100
AcDbCircle
 10
6.153911019432734
 20
4.799876255451959
 30
0.0
 40
0.022808
100
AcDbArc
 50
186.356007
 51
203.503032
  0
ARC
  5
6DD
330
18
100
AcDbEntity
  8
0
100
AcDbCircle
 10
6.199923019432734
 20
4.664191557204359
 30
0.0
 40
0.009881
100
AcDbArc
 50
0.0
 51
21.599903
  0
LINE
  5
6DE
330
18
100
AcDbEntity
  8
0
100
AcDbLine
 10
6.209804019432735
 20
4.556407557204359
 30
0.0
 11
6.209804019432735
 21
4.664191557204359
 31
0.0
  0
ARC
  5
6DF
330
18
100
AcDbEntity
  8
0
100
AcDbCircle
 10
5.941668019432735
 20
5.151535093070185
 30
0.0
 40
0.011302
100
AcDbArc
 50
215.324476
 51
239.694346
  0
ARC
  5
6E0
330
18
100
AcDbEntity
  8
0
100
AcDbCircle
 10
5.941668019432735
 20
5.158888093070186
 30
0.0
 40
0.011302
100
AcDbArc
 50
120.305654
 51
144.675524
  0
LINE
  5
6E1
330
18
100
AcDbEntity
  8
0
100
AcDbLine
 10
5.890868019432734
 20
5.121706093070185
 30
0.0
 11
5.953983019432735
 21
4.994600093070186
 31
0.0
  0
LINE
  5
6E2
330
18
100
AcDbEntity
  8
0
100
AcDbLine
 10
6.015946019432734
 20
5.246884093070185
 30
0.0
 11
5.897852019432734
 21
5.178767093070185
 31
0.0
  0
ARC
  5
6E3
330
18
100
AcDbEntity
  8
0
100
AcDbCircle
 10
5.944804019432734
 20
5.153758093070185
 30
0.0
 40
0.015146
100
AcDbArc
 50
196.359353
 51
215.324476
  0
ARC
  5
6E4
330
18
100
AcDbEntity
  8
0
100
AcDbCircle
 10
5.949757019432735
 20
5.155211093070186
 30
0.0
 40
0.020308
100
AcDbArc
 50
180.0
 51
196.359353
  0
ARC
  5
6E5
330
18
100
AcDbEntity
  8
0
100
AcDbCircle
 10
5.949757019432735
 20
5.155211093070186
 30
0.0
 40
0.020308
100
AcDbArc
 50
163.640647
 51
180.0
  0
ARC
  5
6E6
330
18
100
AcDbEntity
  8
0
100
AcDbCircle
 10
5.944804019432734
 20
5.156665093070185
 30
0.0
 40
0.015146
100
AcDbArc
 50
144.675524
 51
163.640647
  0
LINE
  5
6E7
330
18
100
AcDbEntity
  8
0
100
AcDbLine
 10
5.897852019432734
 20
5.178767093070185
 30
0.0
 11
5.890868019432734
 21
5.121706093070185
 31
0.0
  0
ARC
  5
6E8
330
18
100
AcDbEntity
  8
0
100
AcDbCircle
 10
5.961488019432734
 20
5.109622093070185
 30
0.0
 40
0.011302
100
AcDbArc
 50
35.324476
 51
59.694346
  0
ARC
  5
6E9
330
18
100
AcDbEntity
  8
0
100
AcDbCircle
 10
5.965458019432735
 20
5.109622093070185
 30
0.0
 40
0.011302
100
AcDbArc
 50
120.305654
 51
144.675524
  0
LINE
  5
6EA
330
18
100
AcDbEntity
  8
0
100
AcDbLine
 10
6.015946019432734
 20
5.246884093070185
 30
0.0
 11
6.015946019432734
 21
5.040673093070185
 31
0.0
  0
ARC
  5
6EB
330
18
100
AcDbEntity
  8
0
100
AcDbCircle
 10
5.992373019432733
 20
5.058655093070185
 30
0.0
 40
0.007369
100
AcDbArc
 50
59.694346
 51
90.0
  0
ARC
  5
6EC
330
18
100
AcDbEntity
  8
0
100
AcDbCircle
 10
5.990388019432734
 20
5.055259093070185
 30
0.0
 40
0.011302
100
AcDbArc
 50
35.324476
 51
59.694346
  0
ARC
  5
6ED
330
18
100
AcDbEntity
  8
0
100
AcDbCircle
 10
5.987252019432734
 20
5.053036093070186
 30
0.0
 40
0.015146
100
AcDbArc
 50
16.359353
 51
35.324476
  0
ARC
  5
6EE
330
18
100
AcDbEntity
  8
0
100
AcDbCircle
 10
5.982299019432734
 20
5.051582093070185
 30
0.0
 40
0.020308
100
AcDbArc
 50
0.0
 51
16.359353
  0
ARC
  5
6EF
330
18
100
AcDbEntity
  8
0
100
AcDbCircle
 10
5.982299019432734
 20
5.051582093070185
 30
0.0
 40
0.020308
100
AcDbArc
 50
343.640647
 51
0.0
  0
ARC
  5
6F0
330
18
100
AcDbEntity
  8
0
100
AcDbCircle
 10
5.987252019432734
 20
5.050129093070185
 30
0.0
 40
0.015146
100
AcDbArc
 50
324.675524
 51
343.640647
  0
ARC
  5
6F1
330
18
100
AcDbEntity
  8
0
100
AcDbCircle
 10
5.990388019432734
 20
5.047906093070186
 30
0.0
 40
0.011302
100
AcDbArc
 50
300.305654
 51
324.675524
  0
ARC
  5
6F2
330
18
100
AcDbEntity
  8
0
100
AcDbCircle
 10
5.992373019432733
 20
5.044510093070185
 30
0.0
 40
0.007369
100
AcDbArc
 50
270.0
 51
300.305654
  0
ARC
  5
6F3
330
18
100
AcDbEntity
  8
0
100
AcDbCircle
 10
5.992373019432733
 20
5.044510093070185
 30
0.0
 40
0.007369
100
AcDbArc
 50
239.694346
 51
270.0
  0
ARC
  5
6F4
330
18
100
AcDbEntity
  8
0
100
AcDbCircle
 10
5.994357019432734
 20
5.047906093070186
 30
0.0
 40
0.011302
100
AcDbArc
 50
215.324476
 51
239.694346
  0
ARC
  5
6F5
330
18
100
AcDbEntity
  8
0
100
AcDbCircle
 10
5.997494019432734
 20
5.050129093070185
 30
0.0
 40
0.015146
100
AcDbArc
 50
196.359353
 51
215.324476
  0
ARC
  5
6F6
330
18
100
AcDbEntity
  8
0
100
AcDbCircle
 10
6.002446019432734
 20
5.051582093070185
 30
0.0
 40
0.020308
100
AcDbArc
 50
180.0
 51
196.359353
  0
ARC
  5
6F7
330
18
100
AcDbEntity
  8
0
100
AcDbCircle
 10
6.002446019432734
 20
5.051582093070185
 30
0.0
 40
0.020308
100
AcDbArc
 50
163.640647
 51
180.0
  0
ARC
  5
6F8
330
18
100
AcDbEntity
  8
0
100
AcDbCircle
 10
5.997494019432734
 20
5.053036093070186
 30
0.0
 40
0.015146
100
AcDbArc
 50
144.675524
 51
163.640647
  0
ARC
  5
6F9
330
18
100
AcDbEntity
  8
0
100
AcDbCircle
 10
5.994357019432734
 20
5.055259093070185
 30
0.0
 40
0.011302
100
AcDbArc
 50
120.305654
 51
144.675524
  0
ARC
  5
6FA
330
18
100
AcDbEntity
  8
0
100
AcDbCircle
 10
5.992373019432733
 20
5.058655093070185
 30
0.0
 40
0.007369
100
AcDbArc
 50
90.0
 51
120.305654
  0
ARC
  5
6FB
330
18
100
AcDbEntity
  8
0
100
AcDbCircle
 10
5.958352019432734
 20
5.107400093070186
 30
0.0
 40
0.015146
100
AcDbArc
 50
16.359353
 51
35.324476
  0
ARC
  5
6FC
330
18
100
AcDbEntity
  8
0
100
AcDbCircle
 10
5.953399019432734
 20
5.105946093070186
 30
0.0
 40
0.020308
100
AcDbArc
 50
0.0
 51
16.359353
  0
ARC
  5
6FD
330
18
100
AcDbEntity
  8
0
100
AcDbCircle
 10
5.953399019432734
 20
5.105946093070186
 30
0.0
 40
0.020308
100
AcDbArc
 50
343.640647
 51
0.0
  0
ARC
  5
6FE
330
18
100
AcDbEntity
  8
0
100
AcDbCircle
 10
5.958352019432734
 20
5.104492093070185
 30
0.0
 40
0.015146
100
AcDbArc
 50
324.675524
 51
343.640647
  0
ARC
  5
6FF
330
18
100
AcDbEntity
  8
0
100
AcDbCircle
 10
5.961488019432734
 20
5.102269093070185
 30
0.0
 40
0.011302
100
AcDbArc
 50
300.305654
 51
324.675524
  0
ARC
  5
700
330
18
100
AcDbEntity
  8
0
100
AcDbCircle
 10
5.963473019432733
 20
5.098874093070185
 30
0.0
 40
0.007369
100
AcDbArc
 50
270.0
 51
300.305654
  0
ARC
  5
701
330
18
100
AcDbEntity
  8
0
100
AcDbCircle
 10
5.963473019432733
 20
5.098874093070185
 30
0.0
 40
0.007369
100
AcDbArc
 50
239.694346
 51
270.0
  0
ARC
  5
702
330
18
100
AcDbEntity
  8
0
100
AcDbCircle
 10
5.965458019432735
 20
5.102269093070185
 30
0.0
 40
0.011302
100
AcDbArc
 50
215.324476
 51
239.694346
  0
ARC
  5
703
330
18
100
AcDbEntity
  8
0
100
AcDbCircle
 10
5.968594019432734
 20
5.104492093070185
 30
0.0
 40
0.015146
100
AcDbArc
 50
196.359353
 51
215.324476
  0
ARC
  5
704
330
18
100
AcDbEntity
  8
0
100
AcDbCircle
 10
5.973547019432735
 20
5.105946093070186
 30
0.0
 40
0.020308
100
AcDbArc
 50
180.0
 51
196.359353
  0
ARC
  5
705
330
18
100
AcDbEntity
  8
0
100
AcDbCircle
 10
5.973547019432735
 20
5.105946093070186
 30
0.0
 40
0.020308
100
AcDbArc
 50
163.640647
 51
180.0
  0
ARC
  5
706
330
18
100
AcDbEntity
  8
0
100
AcDbCircle
 10
5.968594019432734
 20
5.107400093070186
 30
0.0
 40
0.015146
100
AcDbArc
 50
144.675524
 51
163.640647
  0
LINE
  5
707
330
18
100
AcDbEntity
  8
0
100
AcDbLine
 10
5.953983019432735
 20
4.994600093070186
 30
0.0
 11
6.008834019432734
 21
4.999172093070185
 31
0.0
  0
LINE
  5
708
330
18
100
AcDbEntity
  8
0
100
AcDbLine
 10
6.003964019432734
 20
5.000784093070185
 30
0.0
 11
6.008834019432734
 21
4.999172093070185
 31
0.0
  0
ARC
  5
709
330
18
100
AcDbEntity
  8
0
100
AcDbCircle
 10
6.061789019432734
 20
4.781041004771252
 30
0.0
 40
0.009575
100
AcDbArc
 50
84.42538399999999
 51
113.503032
  0
ARC
  5
70A
330
18
100
AcDbEntity
  8
0
100
AcDbCircle
 10
6.061389019432734
 20
4.776948004771252
 30
0.0
 40
0.013687
100
AcDbArc
 50
60.184669
 51
84.42538399999999
  0
ARC
  5
70B
330
18
100
AcDbEntity
  8
0
100
AcDbCircle
 10
6.059437019432734
 20
4.773542004771252
 30
0.0
 40
0.017612
100
AcDbArc
 50
40.650057
 51
60.184669
  0
ARC
  5
70C
330
18
100
AcDbEntity
  8
0
100
AcDbCircle
 10
6.055495019432734
 20
4.770158004771252
 30
0.0
 40
0.022808
100
AcDbArc
 50
23.503032
 51
40.650057
  0
ARC
  5
70D
330
18
100
AcDbEntity
  8
0
100
AcDbCircle
 10
6.055495019432734
 20
4.770158004771252
 30
0.0
 40
0.022808
100
AcDbArc
 50
6.356007
 51
23.503032
  0
ARC
  5
70E
330
18
100
AcDbEntity
  8
0
100
AcDbCircle
 10
6.060659019432734
 20
4.770733004771252
 30
0.0
 40
0.017612
100
AcDbArc
 50
346.821396
 51
6.356007
  0
ARC
  5
70F
330
18
100
AcDbEntity
  8
0
100
AcDbCircle
 10
6.064481019432734
 20
4.769838004771252
 30
0.0
 40
0.013687
100
AcDbArc
 50
322.58068
 51
346.821396
  0
ARC
  5
710
330
18
100
AcDbEntity
  8
0
100
AcDbCircle
 10
6.067747019432734
 20
4.767339004771252
 30
0.0
 40
0.009575
100
AcDbArc
 50
293.503032
 51
322.58068
  0
ARC
  5
711
330
18
100
AcDbEntity
  8
0
100
AcDbCircle
 10
6.070098019432733
 20
4.774838004771252
 30
0.0
 40
0.017612
100
AcDbArc
 50
220.650057
 51
240.184669
  0
ARC
  5
712
330
18
100
AcDbEntity
  8
0
100
AcDbCircle
 10
6.074040019432735
 20
4.778222004771251
 30
0.0
 40
0.022808
100
AcDbArc
 50
203.503032
 51
220.650057
  0
ARC
  5
713
330
18
100
AcDbEntity
  8
0
100
AcDbCircle
 10
6.074040019432735
 20
4.778222004771251
 30
0.0
 40
0.022808
100
AcDbArc
 50
186.356007
 51
203.503032
  0
ARC
  5
714
330
18
100
AcDbEntity
  8
0
100
AcDbCircle
 10
6.068877019432734
 20
4.777647004771252
 30
0.0
 40
0.017612
100
AcDbArc
 50
166.821396
 51
186.356007
  0
ARC
  5
715
330
18
100
AcDbEntity
  8
0
100
AcDbCircle
 10
6.065054019432735
 20
4.778542004771253
 30
0.0
 40
0.013687
100
AcDbArc
 50
142.58068
 51
166.821396
  0
ARC
  5
716
330
18
100
AcDbEntity
  8
0
100
AcDbCircle
 10
6.061789019432734
 20
4.781041004771252
 30
0.0
 40
0.009575
100
AcDbArc
 50
113.503032
 51
142.58068
  0
LINE
  5
717
330
18
100
AcDbEntity
  8
0
100
AcDbLine
 10
6.079036019432734
 20
5.184845093070186
 30
0.0
 11
6.015946019432734
 21
5.246884093070185
 31
0.0
  0
ARC
  5
718
330
18
100
AcDbEntity
  8
0
100
AcDbCircle
 10
5.992373019432733
 20
5.194567093070186
 30
0.0
 40
0.007369
100
AcDbArc
 50
59.694346
 51
90.0
  0
ARC
  5
719
330
18
100
AcDbEntity
  8
0
100
AcDbCircle
 10
5.990388019432734
 20
5.191172093070185
 30
0.0
 40
0.011302
100
AcDbArc
 50
35.324476
 51
59.694346
  0
ARC
  5
71A
330
18
100
AcDbEntity
  8
0
100
AcDbCircle
 10
5.987252019432734
 20
5.188949093070185
 30
0.0
 40
0.015146
100
AcDbArc
 50
16.359353
 51
35.324476
  0
ARC
  5
71B
330
18
100
AcDbEntity
  8
0
100
AcDbCircle
 10
5.982299019432734
 20
5.187495093070186
 30
0.0
 40
0.020308
100
AcDbArc
 50
0.0
 51
16.359353
  0
ARC
  5
71C
330
18
100
AcDbEntity
  8
0
100
AcDbCircle
 10
5.982299019432734
 20
5.187495093070186
 30
0.0
 40
0.020308
100
AcDbArc
 50
343.640647
 51
0.0
  0
ARC
  5
71D
330
18
100
AcDbEntity
  8
0
100
AcDbCircle
 10
5.987252019432734
 20
5.186041093070185
 30
0.0
 40
0.015146
100
AcDbArc
 50
324.675524
 51
343.640647
  0
ARC
  5
71E
330
18
100
AcDbEntity
  8
0
100
AcDbCircle
 10
5.990388019432734
 20
5.183819093070185
 30
0.0
 40
0.011302
100
AcDbArc
 50
300.305654
 51
324.675524
  0
ARC
  5
71F
330
18
100
AcDbEntity
  8
0
100
AcDbCircle
 10
5.992373019432733
 20
5.180423093070185
 30
0.0
 40
0.007369
100
AcDbArc
 50
270.0
 51
300.305654
  0
ARC
  5
720
330
18
100
AcDbEntity
  8
0
100
AcDbCircle
 10
5.992373019432733
 20
5.180423093070185
 30
0.0
 40
0.007369
100
AcDbArc
 50
239.694346
 51
270.0
  0
ARC
  5
721
330
18
100
AcDbEntity
  8
0
100
AcDbCircle
 10
5.994357019432734
 20
5.183819093070185
 30
0.0
 40
0.011302
100
AcDbArc
 50
215.324476
 51
239.694346
  0
ARC
  5
722
330
18
100
AcDbEntity
  8
0
100
AcDbCircle
 10
5.997494019432734
 20
5.186041093070185
 30
0.0
 40
0.015146
100
AcDbArc
 50
196.359353
 51
215.324476
  0
ARC
  5
723
330
18
100
AcDbEntity
  8
0
100
AcDbCircle
 10
6.002446019432734
 20
5.187495093070186
 30
0.0
 40
0.020308
100
AcDbArc
 50
180.0
 51
196.359353
  0
ARC
  5
724
330
18
100
AcDbEntity
  8
0
100
AcDbCircle
 10
6.002446019432734
 20
5.187495093070186
 30
0.0
 40
0.020308
100
AcDbArc
 50
163.640647
 51
180.0
  0
ARC
  5
725
330
18
100
AcDbEntity
  8
0
100
AcDbCircle
 10
5.997494019432734
 20
5.188949093070185
 30
0.0
 40
0.015146
100
AcDbArc
 50
144.675524
 51
163.640647
  0
ARC
  5
726
330
18
100
AcDbEntity
  8
0
100
AcDbCircle
 10
5.994357019432734
 20
5.191172093070185
 30
0.0
 40
0.011302
100
AcDbArc
 50
120.305654
 51
144.675524
  0
ARC
  5
727
330
18
100
AcDbEntity
  8
0
100
AcDbCircle
 10
5.992373019432733
 20
5.194567093070186
 30
0.0
 40
0.007369
100
AcDbArc
 50
90.0
 51
120.305654
  0
ARC
  5
728
330
18
100
AcDbEntity
  8
0
100
AcDbCircle
 10
5.939683019432735
 20
5.162284093070185
 30
0.0
 40
0.007369
100
AcDbArc
 50
59.694346
 51
90.0
  0
ARC
  5
729
330
18
100
AcDbEntity
  8
0
100
AcDbCircle
 10
5.937699019432734
 20
5.158888093070186
 30
0.0
 40
0.011302
100
AcDbArc
 50
35.324476
 51
59.694346
  0
ARC
  5
72A
330
18
100
AcDbEntity
  8
0
100
AcDbCircle
 10
5.934562019432734
 20
5.156665093070185
 30
0.0
 40
0.015146
100
AcDbArc
 50
16.359353
 51
35.324476
  0
ARC
  5
72B
330
18
100
AcDbEntity
  8
0
100
AcDbCircle
 10
5.929610019432734
 20
5.155211093070186
 30
0.0
 40
0.020308
100
AcDbArc
 50
0.0
 51
16.359353
  0
ARC
  5
72C
330
18
100
AcDbEntity
  8
0
100
AcDbCircle
 10
5.929610019432734
 20
5.155211093070186
 30
0.0
 40
0.020308
100
AcDbArc
 50
343.640647
 51
0.0
  0
ARC
  5
72D
330
18
100
AcDbEntity
  8
0
100
AcDbCircle
 10
5.934562019432734
 20
5.153758093070185
 30
0.0
 40
0.015146
100
AcDbArc
 50
324.675524
 51
343.640647
  0
ARC
  5
72E
330
18
100
AcDbEntity
  8
0
100
AcDbCircle
 10
5.937699019432734
 20
5.151535093070185
 30
0.0
 40
0.011302
100
AcDbArc
 50
300.305654
 51
324.675524
  0
ARC
  5
72F
330
18
100
AcDbEntity
  8
0
100
AcDbCircle
 10
5.939683019432735
 20
5.148139093070185
 30
0.0
 40
0.007369
100
AcDbArc
 50
270.0
 51
300.305654
  0
ARC
  5
730
330
18
100
AcDbEntity
  8
0
100
AcDbCircle
 10
5.939683019432735
 20
5.148139093070185
 30
0.0
 40
0.007369
100
AcDbArc
 50
239.694346
 51
270.0
  0
ARC
  5
731
330
18
100
AcDbEntity
  8
0
100
AcDbCircle
 10
5.939683019432735
 20
5.162284093070185
 30
0.0
 40
0.007369
100
AcDbArc
 50
90.0
 51
120.305654
  0
ARC
  5
732
330
18
100
AcDbEntity
  8
0
100
AcDbCircle
 10
5.963473019432733
 20
5.113018093070186
 30
0.0
 40
0.007369
100
AcDbArc
 50
59.694346
 51
90.0
  0
ARC
  5
733
330
18
100
AcDbEntity
  8
0
100
AcDbCircle
 10
5.963473019432733
 20
5.113018093070186
 30
0.0
 40
0.007369
100
AcDbArc
 50
90.0
 51
120.305654
  0
ARC
  5
734
330
18
100
AcDbEntity
  8
0
100
AcDbCircle
 10
6.141660019432734
 20
4.802694255451959
 30
0.0
 40
0.009575
100
AcDbArc
 50
84.42538399999999
 51
113.503032
  0
ARC
  5
735
330
18
100
AcDbEntity
  8
0
100
AcDbCircle
 10
6.141260019432735
 20
4.798602255451959
 30
0.0
 40
0.013687
100
AcDbArc
 50
60.184669
 51
84.42538399999999
  0
ARC
  5
736
330
18
100
AcDbEntity
  8
0
100
AcDbCircle
 10
6.139308019432734
 20
4.795196255451959
 30
0.0
 40
0.017612
100
AcDbArc
 50
40.650057
 51
60.184669
  0
ARC
  5
737
330
18
100
AcDbEntity
  8
0
100
AcDbCircle
 10
6.144926019432734
 20
4.800196255451959
 30
0.0
 40
0.013687
100
AcDbArc
 50
142.58068
 51
166.821396
  0
ARC
  5
738
330
18
100
AcDbEntity
  8
0
100
AcDbCircle
 10
6.141660019432734
 20
4.802694255451959
 30
0.0
 40
0.009575
100
AcDbArc
 50
113.503032
 51
142.58068
  0
LINE
  5
739
330
18
100
AcDbEntity
  8
0
100
AcDbLine
 10
6.079036019432734
 20
5.184845093070186
 30
0.0
 11
6.209110147047855
 21
4.667828980355916
 31
0.0
  0
LINE
  5
73A
330
18
100
AcDbEntity
  8
0
100
AcDbLine
 10
5.790762
 20
8.431284913639789
 30
0.0
 11
5.766404149881415
 21
8.379178599170833
 31
0.0
  0
LINE
  5
73B
330
18
100
AcDbEntity
  8
0
100
AcDbLine
 10
5.766404149881415
 20
8.379178599170833
 30
0.0
 11
5.828992388090822
 21
8.412220539131182
 31
0.0
  0
LINE
  5
73C
330
18
100
AcDbEntity
  8
0
100
AcDbLine
 10
5.828992388090822
 20
8.412220539131182
 30
0.0
 11
5.816601827421535
 21
8.369407255517643
 31
0.0
  0
LINE
  5
73D
330
18
100
AcDbEntity
  8
0
100
AcDbLine
 10
7.607603999999999
 20
8.050834630405154
 30
0.0
 11
7.598109043544509
 21
8.023752105127471
 31
0.0
  0
LINE
  5
73E
330
18
100
AcDbEntity
  8
0
100
AcDbLine
 10
7.598109043544509
 20
8.023752105127471
 30
0.0
 11
7.626630687234301
 21
8.045133053341388
 31
0.0
  0
LINE
  5
73F
330
18
100
AcDbEntity
  8
0
100
AcDbLine
 10
7.626630687234301
 20
8.045133053341388
 30
0.0
 11
7.616561680461553
 21
8.019031956342868
 31
0.0
  0
ENDSEC
  0
SECTION
  2
OBJECTS
  0
DICTIONARY
  5
C
330
0
100
AcDbDictionary
281
     1
  3
ACAD_COLOR
350
745
  3
ACAD_GROUP
350
D
  3
ACAD_LAYOUT
350
15
  3
ACAD_MATERIAL
350
747
  3
ACAD_MLINESTYLE
350
12
  3
ACAD_PLOTSETTINGS
350
14
  3
ACAD_PLOTSTYLENAME
350
E
  3
ACDBHEADERROUNDTRIPXREC
350
744
  0
DICTIONARY
  5
745
102
{ACAD_REACTORS
330
C
102
}
330
C
100
AcDbDictionary
281
     1
  0
DICTIONARY
  5
D
102
{ACAD_REACTORS
330
C
102
}
330
C
100
AcDbDictionary
281
     1
  0
DICTIONARY
  5
15
102
{ACAD_REACTORS
330
C
102
}
330
C
100
AcDbDictionary
281
     1
  3
Layout1
350
17
  3
Model
350
19
  0
DICTIONARY
  5
747
102
{ACAD_REACTORS
330
C
102
}
330
C
100
AcDbDictionary
281
     1
  0
DICTIONARY
  5
12
102
{ACAD_REACTORS
330
C
102
}
330
C
100
AcDbDictionary
281
     1
  3
Standard
350
13
  0
DICTIONARY
  5
14
102
{ACAD_REACTORS
330
C
102
}
330
C
100
AcDbDictionary
281
     1
  0
ACDBDICTIONARYWDFLT
  5
E
102
{ACAD_REACTORS
330
C
102
}
330
C
100
AcDbDictionary
281
     1
  3
Normal
350
F
100
AcDbDictionaryWithDefault
340
F
  0
DICTIONARY
  5
744
102
{ACAD_REACTORS
330
C
102
}
330
C
100
AcDbDictionary
281
     1
  3
COLORDICT
350
746
  3
MATERIALDICT
350
748
  0
LAYOUT
  5
17
102
{ACAD_REACTORS
330
15
102
}
102
{ACAD_XDICTIONARY
360
749
102
}
330
15
100
AcDbPlotSettings
  1

  2

  4

  6

 40
0.0
 41
0.0
 42
0.0
 43
0.0
 44
0.0
 45
0.0
 46
0.0
 47
0.0
 48
0.0
 49
0.0
140
0.0
141
0.0
142
1.0
143
1.0
 70
   688
 72
     0
 73
     0
 74
     5
  7

 75
    16
147
1.0
148
0.0
149
0.0
100
AcDbLayout
  1
Layout1
 70
     1
 71
     1
 10
0.0
 20
0.0
 11
12.0
 21
9.0
 12
0.0
 22
0.0
 32
0.0
 14
1.000000000000000E+20
 24
1.000000000000000E+20
 34
1.000000000000000E+20
 15
-1.000000000000000E+20
 25
-1.000000000000000E+20
 35
-1.000000000000000E+20
146
0.0
 13
0.0
 23
0.0
 33
0.0
 16
1.0
 26
0.0
 36
0.0
 17
0.0
 27
1.0
 37
0.0
 76
     0
330
16
  0
LAYOUT
  5
19
102
{ACAD_REACTORS
330
15
102
}
102
{ACAD_XDICTIONARY
360
74B
102
}
330
15
100
AcDbPlotSettings
  1

  2

  4

  6

 40
0.0
 41
0.0
 42
0.0
 43
0.0
 44
0.0
 45
0.0
 46
0.0
 47
0.0
 48
0.0
 49
0.0
140
0.0
141
0.0
142
1.0
143
1.0
 70
  1712
 72
     0
 73
     0
 74
     0
  7

 75
     0
147
1.0
148
0.0
149
0.0
100
AcDbLayout
  1
Model
 70
     1
 71
     0
 10
0.0
 20
0.0
 11
0.0
 21
0.0
 12
0.0
 22
0.0
 32
0.0
 14
0.0
 24
0.0
 34
0.0
 15
0.0
 25
0.0
 35
0.0
146
0.0
 13
0.0
 23
0.0
 33
0.0
 16
1.0
 26
0.0
 36
0.0
 17
0.0
 27
1.0
 37
0.0
 76
     0
330
18
  0
MLINESTYLE
  5
13
102
{ACAD_REACTORS
330
12
102
}
330
12
100
AcDbMlineStyle
  2
Standard
 70
     0
  3

 62
   256
 51
90.0
 52
90.0
 71
     2
 49
0.5
 62
   256
  6
BYLAYER
 49
-0.5
 62
   256
  6
BYLAYER
  0
ACDBPLACEHOLDER
  5
F
102
{ACAD_REACTORS
330
E
102
}
330
E
  0
XRECORD
  5
746
102
{ACAD_REACTORS
330
744
102
}
330
744
100
AcDbXrecord
340
745
  0
XRECORD
  5
748
102
{ACAD_REACTORS
330
744
102
}
330
744
100
AcDbXrecord
340
747
  0
DICTIONARY
  5
749
330
17
100
AcDbDictionary
280
     1
281
     1
  3
ACAD_XREC_ROUNDTRIP
360
74A
  0
DICTIONARY
  5
74B
330
19
100
AcDbDictionary
280
     1
281
     1
  3
ACAD_XREC_ROUNDTRIP
360
74C
  0
XRECORD
  5
74A
102
{ACAD_REACTORS
330
749
102
}
330
749
100
AcDbXrecord
102
SHADEPLOT
 70
     0
102
SHADEPLOTRESLEVEL
 70
     0
102
SHADEPLOTCUSTOMDPI
 70
     0
  0
XRECORD
  5
74C
102
{ACAD_REACTORS
330
74B
102
}
330
74B
100
AcDbXrecord
102
SHADEPLOT
 70
     0
102
SHADEPLOTRESLEVEL
 70
     0
102
SHADEPLOTCUSTOMDPI
 70
     0
  0
ENDSEC
  0
EOF
