  0
SECTION
  2
HEADER
  9
$ACADVER
  1
AC1015
  9
$ACADMAINTVER
 70
     6
  9
$DWGCODEPAGE
  3
ANSI_1252
  9
$INSBASE
 10
0.0
 20
0.0
 30
0.0
  9
$EXTMIN
 10
0.764
 20
0.383
 30
0.0
  9
$EXTMAX
 10
9.353
 20
6.332999999999999
 30
0.0
  9
$LIMMIN
 10
0.0
 20
0.0
  9
$LIMMAX
 10
12.0
 20
9.0
  9
$ORTHOMODE
 70
     0
  9
$REGENMODE
 70
     0
  9
$FILLMODE
 70
     1
  9
$QTEXTMODE
 70
     0
  9
$MIRRTEXT
 70
     1
  9
$LTSCALE
 40
1.0
  9
$ATTMODE
 70
     1
  9
$TEXTSIZE
 40
0.18
  9
$TRACEWID
 40
0.05
  9
$TEXTSTYLE
  7
STANDARD
  9
$CLAYER
  8
0
  9
$CELTYPE
  6
ByLayer
  9
$CECOLOR
 62
   256
  9
$CELTSCALE
 40
1.0
  9
$DISPSILH
 70
     0
  9
$DIMSCALE
 40
1.0
  9
$DIMASZ
 40
0.125
  9
$DIMEXO
 40
0.063
  9
$DIMDLI
 40
0.38
  9
$DIMRND
 40
0.0
  9
$DIMDLE
 40
0.0
  9
$DIMEXE
 40
0.18
  9
$DIMTP
 40
0.0
  9
$DIMTM
 40
0.0
  9
$DIMTXT
 40
0.125
  9
$DIMCEN
 40
0.09
  9
$DIMTSZ
 40
0.0
  9
$DIMTOL
 70
     0
  9
$DIMLIM
 70
     0
  9
$DIMTIH
 70
     1
  9
$DIMTOH
 70
     1
  9
$DIMSE1
 70
     0
  9
$DIMSE2
 70
     0
  9
$DIMTAD
 70
     0
  9
$DIMZIN
 70
     0
  9
$DIMBLK
  1

  9
$DIMASO
 70
     0
  9
$DIMSHO
 70
     0
  9
$DIMPOST
  1

  9
$DIMAPOST
  1

  9
$DIMALT
 70
     0
  9
$DIMALTD
 70
     2
  9
$DIMALTF
 40
25.4
  9
$DIMLFAC
 40
1.0
  9
$DIMTOFL
 70
     0
  9
$DIMTVP
 40
0.0
  9
$DIMTIX
 70
     0
  9
$DIMSOXD
 70
     0
  9
$DIMSAH
 70
     0
  9
$DIMBLK1
  1

  9
$DIMBLK2
  1

  9
$DIMSTYLE
  2
Standard
  9
$DIMCLRD
 70
     0
  9
$DIMCLRE
 70
     0
  9
$DIMCLRT
 70
     0
  9
$DIMTFAC
 40
1.0
  9
$DIMGAP
 40
0.09
  9
$DIMJUST
 70
     0
  9
$DIMSD1
 70
     0
  9
$DIMSD2
 70
     0
  9
$DIMTOLJ
 70
     1
  9
$DIMTZIN
 70
     0
  9
$DIMALTZ
 70
     0
  9
$DIMALTTZ
 70
     0
  9
$DIMUPT
 70
     0
  9
$DIMDEC
 70
     4
  9
$DIMTDEC
 70
     4
  9
$DIMALTU
 70
     2
  9
$DIMALTTD
 70
     2
  9
$DIMTXSTY
  7
STANDARD
  9
$DIMAUNIT
 70
     0
  9
$DIMADEC
 70
     0
  9
$DIMALTRND
 40
0.0
  9
$DIMAZIN
 70
     0
  9
$DIMDSEP
 70
    46
  9
$DIMATFIT
 70
     3
  9
$DIMFRAC
 70
     0
  9
$DIMLDRBLK
  1

  9
$DIMLUNIT
 70
     2
  9
$DIMLWD
 70
    -2
  9
$DIMLWE
 70
    -2
  9
$DIMTMOVE
 70
     0
  9
$LUNITS
 70
     2
  9
$LUPREC
 70
     4
  9
$SKETCHINC
 40
0.05
  9
$FILLETRAD
 40
0.01
  9
$AUNITS
 70
     0
  9
$AUPREC
 70
     0
  9
$MENU
  1
acad
  9
$ELEVATION
 40
0.0
  9
$PELEVATION
 40
0.0
  9
$THICKNESS
 40
0.0
  9
$LIMCHECK
 70
     0
  9
$CHAMFERA
 40
0.0
  9
$CHAMFERB
 40
0.0
  9
$CHAMFERC
 40
1.0
  9
$CHAMFERD
 40
0.0
  9
$SKPOLY
 70
     0
  9
$TDCREATE
 40
2453955.560339942
  9
$TDUCREATE
 40
2453955.893673276
  9
$TDUPDATE
 40
2453955.60200662
  9
$TDUUPDATE
 40
2453955.893673287
  9
$TDINDWG
 40
0.0000000116
  9
$TDUSRTIMER
 40
0.0000000116
  9
$USRTIMER
 70
     1
  9
$ANGBASE
 50
0.0
  9
$ANGDIR
 70
     0
  9
$PDMODE
 70
     0
  9
$PDSIZE
 40
0.0
  9
$PLINEWID
 40
0.0
  9
$SPLFRAME
 70
     0
  9
$SPLINETYPE
 70
     6
  9
$SPLINESEGS
 70
     8
  9
$HANDSEED
  5
714
  9
$SURFTAB1
 70
     6
  9
$SURFTAB2
 70
     6
  9
$SURFTYPE
 70
     6
  9
$SURFU
 70
     6
  9
$SURFV
 70
     6
  9
$UCSBASE
  2

  9
$UCSNAME
  2

  9
$UCSORG
 10
0.0
 20
0.0
 30
0.0
  9
$UCSXDIR
 10
1.0
 20
0.0
 30
0.0
  9
$UCSYDIR
 10
0.0
 20
1.0
 30
0.0
  9
$UCSORTHOREF
  2

  9
$UCSORTHOVIEW
 70
     0
  9
$UCSORGTOP
 10
0.0
 20
0.0
 30
0.0
  9
$UCSORGBOTTOM
 10
0.0
 20
0.0
 30
0.0
  9
$UCSORGLEFT
 10
0.0
 20
0.0
 30
0.0
  9
$UCSORGRIGHT
 10
0.0
 20
0.0
 30
0.0
  9
$UCSORGFRONT
 10
0.0
 20
0.0
 30
0.0
  9
$UCSORGBACK
 10
0.0
 20
0.0
 30
0.0
  9
$PUCSBASE
  2

  9
$PUCSNAME
  2

  9
$PUCSORG
 10
0.0
 20
0.0
 30
0.0
  9
$PUCSXDIR
 10
1.0
 20
0.0
 30
0.0
  9
$PUCSYDIR
 10
0.0
 20
1.0
 30
0.0
  9
$PUCSORTHOREF
  2

  9
$PUCSORTHOVIEW
 70
     0
  9
$PUCSORGTOP
 10
0.0
 20
0.0
 30
0.0
  9
$PUCSORGBOTTOM
 10
0.0
 20
0.0
 30
0.0
  9
$PUCSORGLEFT
 10
0.0
 20
0.0
 30
0.0
  9
$PUCSORGRIGHT
 10
0.0
 20
0.0
 30
0.0
  9
$PUCSORGFRONT
 10
0.0
 20
0.0
 30
0.0
  9
$PUCSORGBACK
 10
0.0
 20
0.0
 30
0.0
  9
$USERI1
 70
     0
  9
$USERI2
 70
     0
  9
$USERI3
 70
     0
  9
$USERI4
 70
     0
  9
$USERI5
 70
     0
  9
$USERR1
 40
0.0
  9
$USERR2
 40
0.0
  9
$USERR3
 40
0.0
  9
$USERR4
 40
0.0
  9
$USERR5
 40
0.0
  9
$WORLDVIEW
 70
     1
  9
$SHADEDGE
 70
     3
  9
$SHADEDIF
 70
    70
  9
$TILEMODE
 70
     1
  9
$MAXACTVP
 70
    16
  9
$PINSBASE
 10
0.0
 20
0.0
 30
0.0
  9
$PLIMCHECK
 70
     0
  9
$PEXTMIN
 10
1.000000000000000E+20
 20
1.000000000000000E+20
 30
1.000000000000000E+20
  9
$PEXTMAX
 10
-1.000000000000000E+20
 20
-1.000000000000000E+20
 30
-1.000000000000000E+20
  9
$PLIMMIN
 10
0.0
 20
0.0
  9
$PLIMMAX
 10
12.0
 20
9.0
  9
$UNITMODE
 70
     0
  9
$VISRETAIN
 70
     0
  9
$PLINEGEN
 70
     0
  9
$PSLTSCALE
 70
     0
  9
$TREEDEPTH
 70
  3020
  9
$CMLSTYLE
  2
Standard
  9
$CMLJUST
 70
     0
  9
$CMLSCALE
 40
1.0
  9
$PROXYGRAPHICS
 70
     1
  9
$MEASUREMENT
 70
     0
  9
$CELWEIGHT
370
    -1
  9
$ENDCAPS
280
     0
  9
$JOINSTYLE
280
     0
  9
$LWDISPLAY
290
     0
  9
$INSUNITS
 70
     1
  9
$HYPERLINKBASE
  1

  9
$STYLESHEET
  1

  9
$XEDIT
290
     1
  9
$CEPSNTYPE
380
     0
  9
$PSTYLEMODE
290
     0
  9
$FINGERPRINTGUID
  2
{FAEB1C30-E019-11D5-929B-00C0DF256EC4}
  9
$VERSIONGUID
  2
{FAEB1C32-E019-11D5-929B-00C0DF256EC4}
  9
$EXTNAMES
290
     1
  9
$PSVPSCALE
 40
0.0
  9
$OLESTARTUP
290
     0
  0
ENDSEC
  0
SECTION
  2
CLASSES
  0
CLASS
  1
ACDBDICTIONARYWDFLT
  2
AcDbDictionaryWithDefault
  3
AutoCAD 2000
 90
        0
280
     0
281
     0
  0
CLASS
  1
ACDBPLACEHOLDER
  2
AcDbPlaceHolder
  3
ObjectDBX Classes
 90
        0
280
     0
281
     0
  0
CLASS
  1
LAYOUT
  2
AcDbLayout
  3
ObjectDBX Classes
 90
        0
280
     0
281
     0
  0
ENDSEC
  0
SECTION
  2
TABLES
  0
TABLE
  2
VPORT
  5
8
330
0
100
AcDbSymbolTable
 70
     2
  0
VPORT
  5
1E
330
8
100
AcDbSymbolTableRecord
100
AcDbViewportTableRecord
  2
*ACTIVE
 70
     0
 10
0.0
 20
0.0
 11
1.0
 21
1.0
 12
6.243341404358354
 22
4.5
 13
0.0
 23
0.0
 14
1.0
 24
1.0
 15
0.0
 25
0.0
 16
0.0
 26
0.0
 36
1.0
 17
0.0
 27
0.0
 37
0.0
 40
9.0
 41
0.7207678883071553
 42
50.0
 43
0.0
 44
0.0
 50
0.0
 51
0.0
 71
     0
 72
  2000
 73
     1
 74
     0
 75
     0
 76
     0
 77
     0
 78
     0
281
     0
 65
     1
110
0.0
120
0.0
130
0.0
111
1.0
121
0.0
131
0.0
112
0.0
122
1.0
132
0.0
 79
     0
146
0.0
  0
ENDTAB
  0
TABLE
  2
LTYPE
  5
5
330
0
100
AcDbSymbolTable
 70
     1
  0
LTYPE
  5
10
330
5
100
AcDbSymbolTableRecord
100
AcDbLinetypeTableRecord
  2
ByBlock
 70
     0
  3

 72
    65
 73
     0
 40
0.0
  0
LTYPE
  5
11
330
5
100
AcDbSymbolTableRecord
100
AcDbLinetypeTableRecord
  2
ByLayer
 70
     0
  3

 72
    65
 73
     0
 40
0.0
  0
LTYPE
  5
1B
330
5
100
AcDbSymbolTableRecord
100
AcDbLinetypeTableRecord
  2
CONTINUOUS
 70
     0
  3
Solid line
 72
    65
 73
     0
 40
0.0
  0
ENDTAB
  0
TABLE
  2
LAYER
  5
2
330
0
100
AcDbSymbolTable
 70
     1
  0
LAYER
  5
1C
330
2
100
AcDbSymbolTableRecord
100
AcDbLayerTableRecord
  2
0
 70
     0
 62
     7
  6
CONTINUOUS
370
    -3
390
F
  0
ENDTAB
  0
TABLE
  2
STYLE
  5
3
330
0
100
AcDbSymbolTable
 70
     1
  0
STYLE
  5
21
330
3
100
AcDbSymbolTableRecord
100
AcDbTextStyleTableRecord
  2
STANDARD
 70
     0
 40
0.0
 41
1.0
 50
0.0
 71
     0
 42
0.18
  3
ROMANS
  4

  0
ENDTAB
  0
TABLE
  2
VIEW
  5
6
330
0
100
AcDbSymbolTable
 70
     1
  0
VIEW
  5
20
330
6
100
AcDbSymbolTableRecord
100
AcDbViewTableRecord
  2
1
 70
     0
 40
9.0
 10
10.284
 20
6.915
 41
12.427
 11
0.0
 21
0.0
 31
1.0
 12
0.0
 22
0.0
 32
0.0
 42
50.0
 43
0.0
 44
0.0
 50
0.0
 71
     0
281
     0
 72
     0
  0
ENDTAB
  0
TABLE
  2
UCS
  5
7
330
0
100
AcDbSymbolTable
 70
     0
  0
ENDTAB
  0
TABLE
  2
APPID
  5
9
330
0
100
AcDbSymbolTable
 70
     1
  0
APPID
  5
1F
330
9
100
AcDbSymbolTableRecord
100
AcDbRegAppTableRecord
  2
ACAD
 70
     0
  0
ENDTAB
  0
TABLE
  2
DIMSTYLE
  5
A
330
0
100
AcDbSymbolTable
 70
     1
100
AcDbDimStyleTable
  0
DIMSTYLE
105
22
330
A
100
AcDbSymbolTableRecord
100
AcDbDimStyleTableRecord
  2
Standard
 70
     0
  3

  4

340
21
  0
ENDTAB
  0
TABLE
  2
BLOCK_RECORD
  5
1
330
0
100
AcDbSymbolTable
 70
     0
  0
BLOCK_RECORD
  5
18
330
1
100
AcDbSymbolTableRecord
100
AcDbBlockTableRecord
  2
*Model_Space
340
19
  0
BLOCK_RECORD
  5
16
330
1
100
AcDbSymbolTableRecord
100
AcDbBlockTableRecord
  2
*Paper_Space
340
17
  0
ENDTAB
  0
ENDSEC
  0
SECTION
  2
BLOCKS
  0
BLOCK
  5
709
330
18
100
AcDbEntity
  8
0
100
AcDbBlockBegin
  2
*Model_Space
 70
     0
 10
0.0
 20
0.0
 30
0.0
  3
*Model_Space
  1

  4

  0
ENDBLK
  5
70A
330
18
100
AcDbEntity
  8
0
100
AcDbBlockEnd
  0
BLOCK
  5
707
330
16
100
AcDbEntity
 67
     1
  8
0
100
AcDbBlockBegin
  2
*Paper_Space
 70
     0
 10
0.0
 20
0.0
 30
0.0
  3
*Paper_Space
  1

  4

  0
ENDBLK
  5
708
330
16
100
AcDbEntity
 67
     1
  8
0
100
AcDbBlockEnd
  0
ENDSEC
  0
SECTION
  2
ENTITIES
  0
LINE
  5
23
330
18
100
AcDbEntity
  8
0
100
AcDbLine
 10
1.318
 20
6.332999999999999
 30
0.0
 11
1.318
 21
3.612
 31
0.0
  0
LINE
  5
24
330
18
100
AcDbEntity
  8
0
100
AcDbLine
 10
8.726000000000001
 20
1.765
 30
0.0
 11
8.726000000000001
 21
0.383
 31
0.0
  0
LINE
  5
25
330
18
100
AcDbEntity
  8
0
100
AcDbLine
 10
8.726000000000001
 20
0.383
 30
0.0
 11
8.926
 21
0.491
 31
0.0
  0
LINE
  5
26
330
18
100
AcDbEntity
  8
0
100
AcDbLine
 10
9.353
 20
0.72
 30
0.0
 11
9.353
 21
2.105
 31
0.0
  0
LINE
  5
27
330
18
100
AcDbEntity
  8
0
100
AcDbLine
 10
9.353
 20
2.105
 30
0.0
 11
5.355
 21
6.332999999999999
 31
0.0
  0
POINT
  5
28
330
18
100
AcDbEntity
  8
0
100
AcDbPoint
 10
9.144
 20
1.992
 30
0.0
  0
POINT
  5
29
330
18
100
AcDbEntity
  8
0
100
AcDbPoint
 10
8.935000000000001
 20
1.879
 30
0.0
  0
LINE
  5
2A
330
18
100
AcDbEntity
  8
0
100
AcDbLine
 10
8.726000000000001
 20
1.765
 30
0.0
 11
9.353
 21
2.105
 31
0.0
  0
LINE
  5
2B
330
18
100
AcDbEntity
  8
0
100
AcDbLine
 10
5.355
 20
6.332999999999999
 30
0.0
 11
1.318
 21
6.332999999999999
 31
0.0
  0
LINE
  5
2C
330
18
100
AcDbEntity
  8
0
100
AcDbLine
 10
9.144
 20
1.992
 30
0.0
 11
5.1
 21
6.332999999999999
 31
0.0
  0
LINE
  5
2D
330
18
100
AcDbEntity
  8
0
100
AcDbLine
 10
8.935000000000001
 20
1.879
 30
0.0
 11
4.825
 21
6.332999999999999
 31
0.0
  0
LINE
  5
2E
330
18
100
AcDbEntity
  8
0
100
AcDbLine
 10
8.726000000000001
 20
1.765
 30
0.0
 11
4.524
 21
6.332999999999999
 31
0.0
  0
LINE
  5
2F
330
18
100
AcDbEntity
  8
0
100
AcDbLine
 10
8.726000000000001
 20
0.383
 30
0.0
 11
8.047000000000001
 21
1.13
 31
0.0
  0
LINE
  5
30
330
18
100
AcDbEntity
  8
0
100
AcDbLine
 10
8.206
 20
0.9540000000000001
 30
0.0
 11
6.068
 21
1.626
 31
0.0
  0
LINE
  5
31
330
18
100
AcDbEntity
  8
0
100
AcDbLine
 10
0.985
 20
2.55
 30
0.0
 11
0.985
 21
2.937
 31
0.0
  0
LINE
  5
32
330
18
100
AcDbEntity
  8
0
100
AcDbLine
 10
0.8290000000000001
 20
3.563
 30
0.0
 11
0.8290000000000001
 21
3.276
 31
0.0
  0
LINE
  5
33
330
18
100
AcDbEntity
  8
0
100
AcDbLine
 10
0.8290000000000001
 20
2.637
 30
0.0
 11
0.985
 21
2.55
 31
0.0
  0
LINE
  5
34
330
18
100
AcDbEntity
  8
0
100
AcDbLine
 10
0.985
 20
2.55
 30
0.0
 11
2.105
 21
2.743
 31
0.0
  0
LINE
  5
35
330
18
100
AcDbEntity
  8
0
100
AcDbLine
 10
2.264
 20
3.672
 30
0.0
 11
3.215
 21
3.792
 31
0.0
  0
LINE
  5
36
330
18
100
AcDbEntity
  8
0
100
AcDbLine
 10
3.215
 20
3.792
 30
0.0
 11
4.72
 21
4.785
 31
0.0
  0
LINE
  5
37
330
18
100
AcDbEntity
  8
0
100
AcDbLine
 10
3.215
 20
3.792
 30
0.0
 11
6.233
 21
3.123
 31
0.0
  0
LINE
  5
38
330
18
100
AcDbEntity
  8
0
100
AcDbLine
 10
2.366
 20
3.646
 30
0.0
 11
2.366
 21
3.467
 31
0.0
  0
LINE
  5
39
330
18
100
AcDbEntity
  8
0
100
AcDbLine
 10
2.183
 20
3.692
 30
0.0
 11
6.384
 21
2.646
 31
0.0
  0
LINE
  5
3A
330
18
100
AcDbEntity
  8
0
100
AcDbLine
 10
2.159
 20
4.235
 30
0.0
 11
2.159
 21
3.69
 31
0.0
  0
LINE
  5
3B
330
18
100
AcDbEntity
  8
0
100
AcDbLine
 10
4.415
 20
5.121
 30
0.0
 11
2.264
 21
3.672
 31
0.0
  0
LINE
  5
3C
330
18
100
AcDbEntity
  8
0
100
AcDbLine
 10
0.985
 20
3.511
 30
0.0
 11
2.366
 21
3.646
 31
0.0
  0
LINE
  5
3D
330
18
100
AcDbEntity
  8
0
100
AcDbLine
 10
0.8290000000000001
 20
3.563
 30
0.0
 11
2.183
 21
3.692
 31
0.0
  0
LINE
  5
3E
330
18
100
AcDbEntity
  8
0
100
AcDbLine
 10
2.183
 20
4.243
 30
0.0
 11
2.183
 21
3.692
 31
0.0
  0
LINE
  5
3F
330
18
100
AcDbEntity
  8
0
100
AcDbLine
 10
8.148999999999999
 20
1.099
 30
0.0
 11
8.148999999999999
 21
2.333
 31
0.0
  0
LINE
  5
40
330
18
100
AcDbEntity
  8
0
100
AcDbLine
 10
8.148999999999999
 20
2.333
 30
0.0
 11
6.384
 21
2.744
 31
0.0
  0
LINE
  5
41
330
18
100
AcDbEntity
  8
0
100
AcDbLine
 10
6.384
 20
2.744
 30
0.0
 11
6.384
 21
1.624
 31
0.0
  0
LINE
  5
42
330
18
100
AcDbEntity
  8
0
100
AcDbLine
 10
6.384
 20
1.624
 30
0.0
 11
8.148999999999999
 21
1.099
 31
0.0
  0
LINE
  5
43
330
18
100
AcDbEntity
  8
0
100
AcDbLine
 10
8.172000000000001
 20
1.122
 30
0.0
 11
8.172000000000001
 21
2.352
 31
0.0
  0
LINE
  5
44
330
18
100
AcDbEntity
  8
0
100
AcDbLine
 10
8.172000000000001
 20
2.352
 30
0.0
 11
6.417000000000001
 21
2.76
 31
0.0
  0
LINE
  5
45
330
18
100
AcDbEntity
  8
0
100
AcDbLine
 10
8.148999999999999
 20
2.333
 30
0.0
 11
8.172000000000001
 21
2.352
 31
0.0
  0
LINE
  5
46
330
18
100
AcDbEntity
  8
0
100
AcDbLine
 10
8.148999999999999
 20
1.099
 30
0.0
 11
8.172000000000001
 21
1.122
 31
0.0
  0
LINE
  5
47
330
18
100
AcDbEntity
  8
0
100
AcDbLine
 10
6.602
 20
2.718
 30
0.0
 11
4.388
 21
5.15
 31
0.0
  0
LINE
  5
48
330
18
100
AcDbEntity
  8
0
100
AcDbLine
 10
6.384
 20
2.744
 30
0.0
 11
6.417000000000001
 21
2.76
 31
0.0
  0
LINE
  5
49
330
18
100
AcDbEntity
  8
0
100
AcDbLine
 10
8.103999999999999
 20
2.271
 30
0.0
 11
8.003
 21
2.294
 31
0.0
  0
LINE
  5
4A
330
18
100
AcDbEntity
  8
0
100
AcDbLine
 10
8.103999999999999
 20
2.236
 30
0.0
 11
8.003
 21
2.26
 31
0.0
  0
LINE
  5
4B
330
18
100
AcDbEntity
  8
0
100
AcDbLine
 10
8.003
 20
2.26
 30
0.0
 11
8.003
 21
2.294
 31
0.0
  0
LINE
  5
4C
330
18
100
AcDbEntity
  8
0
100
AcDbLine
 10
8.003
 20
2.26
 30
0.0
 11
8.022
 21
2.271
 31
0.0
  0
LINE
  5
4D
330
18
100
AcDbEntity
  8
0
100
AcDbLine
 10
8.022
 20
2.271
 30
0.0
 11
8.022
 21
2.29
 31
0.0
  0
LINE
  5
4E
330
18
100
AcDbEntity
  8
0
100
AcDbLine
 10
6.445
 20
2.638
 30
0.0
 11
6.445
 21
2.657
 31
0.0
  0
LINE
  5
4F
330
18
100
AcDbEntity
  8
0
100
AcDbLine
 10
6.427000000000001
 20
2.626
 30
0.0
 11
6.445
 21
2.638
 31
0.0
  0
LINE
  5
50
330
18
100
AcDbEntity
  8
0
100
AcDbLine
 10
6.427000000000001
 20
2.626
 30
0.0
 11
6.427000000000001
 21
2.661
 31
0.0
  0
LINE
  5
51
330
18
100
AcDbEntity
  8
0
100
AcDbLine
 10
6.527
 20
2.603
 30
0.0
 11
6.427000000000001
 21
2.626
 31
0.0
  0
LINE
  5
52
330
18
100
AcDbEntity
  8
0
100
AcDbLine
 10
6.527
 20
2.638
 30
0.0
 11
6.427000000000001
 21
2.661
 31
0.0
  0
LINE
  5
53
330
18
100
AcDbEntity
  8
0
100
AcDbLine
 10
6.655
 20
2.589
 30
0.0
 11
6.655
 21
2.608
 31
0.0
  0
LINE
  5
54
330
18
100
AcDbEntity
  8
0
100
AcDbLine
 10
6.636
 20
2.578
 30
0.0
 11
6.655
 21
2.589
 31
0.0
  0
LINE
  5
55
330
18
100
AcDbEntity
  8
0
100
AcDbLine
 10
6.636
 20
2.578
 30
0.0
 11
6.636
 21
2.612
 31
0.0
  0
LINE
  5
56
330
18
100
AcDbEntity
  8
0
100
AcDbLine
 10
6.736000000000001
 20
2.554
 30
0.0
 11
6.636
 21
2.578
 31
0.0
  0
LINE
  5
57
330
18
100
AcDbEntity
  8
0
100
AcDbLine
 10
6.736000000000001
 20
2.589
 30
0.0
 11
6.636
 21
2.612
 31
0.0
  0
LINE
  5
58
330
18
100
AcDbEntity
  8
0
100
AcDbLine
 10
6.881
 20
2.537
 30
0.0
 11
6.881
 21
2.555
 31
0.0
  0
LINE
  5
59
330
18
100
AcDbEntity
  8
0
100
AcDbLine
 10
6.863
 20
2.525
 30
0.0
 11
6.881
 21
2.537
 31
0.0
  0
LINE
  5
5A
330
18
100
AcDbEntity
  8
0
100
AcDbLine
 10
6.863
 20
2.525
 30
0.0
 11
6.863
 21
2.56
 31
0.0
  0
LINE
  5
5B
330
18
100
AcDbEntity
  8
0
100
AcDbLine
 10
6.962999999999999
 20
2.502
 30
0.0
 11
6.863
 21
2.525
 31
0.0
  0
LINE
  5
5C
330
18
100
AcDbEntity
  8
0
100
AcDbLine
 10
6.962999999999999
 20
2.536
 30
0.0
 11
6.863
 21
2.56
 31
0.0
  0
LINE
  5
5D
330
18
100
AcDbEntity
  8
0
100
AcDbLine
 10
7.132000000000001
 20
2.478
 30
0.0
 11
7.132000000000001
 21
2.497
 31
0.0
  0
LINE
  5
5E
330
18
100
AcDbEntity
  8
0
100
AcDbLine
 10
7.114
 20
2.467
 30
0.0
 11
7.132000000000001
 21
2.478
 31
0.0
  0
LINE
  5
5F
330
18
100
AcDbEntity
  8
0
100
AcDbLine
 10
7.114
 20
2.467
 30
0.0
 11
7.114
 21
2.501
 31
0.0
  0
LINE
  5
60
330
18
100
AcDbEntity
  8
0
100
AcDbLine
 10
7.214
 20
2.443
 30
0.0
 11
7.114
 21
2.467
 31
0.0
  0
LINE
  5
61
330
18
100
AcDbEntity
  8
0
100
AcDbLine
 10
7.214
 20
2.478
 30
0.0
 11
7.114
 21
2.501
 31
0.0
  0
LINE
  5
62
330
18
100
AcDbEntity
  8
0
100
AcDbLine
 10
7.364
 20
2.424
 30
0.0
 11
7.364
 21
2.443
 31
0.0
  0
LINE
  5
63
330
18
100
AcDbEntity
  8
0
100
AcDbLine
 10
7.346
 20
2.413
 30
0.0
 11
7.364
 21
2.424
 31
0.0
  0
LINE
  5
64
330
18
100
AcDbEntity
  8
0
100
AcDbLine
 10
7.346
 20
2.413
 30
0.0
 11
7.346
 21
2.447
 31
0.0
  0
LINE
  5
65
330
18
100
AcDbEntity
  8
0
100
AcDbLine
 10
7.446000000000001
 20
2.389
 30
0.0
 11
7.346
 21
2.413
 31
0.0
  0
LINE
  5
66
330
18
100
AcDbEntity
  8
0
100
AcDbLine
 10
7.446000000000001
 20
2.424
 30
0.0
 11
7.346
 21
2.447
 31
0.0
  0
LINE
  5
67
330
18
100
AcDbEntity
  8
0
100
AcDbLine
 10
7.591
 20
2.372
 30
0.0
 11
7.591
 21
2.39
 31
0.0
  0
LINE
  5
68
330
18
100
AcDbEntity
  8
0
100
AcDbLine
 10
7.572
 20
2.36
 30
0.0
 11
7.591
 21
2.372
 31
0.0
  0
LINE
  5
69
330
18
100
AcDbEntity
  8
0
100
AcDbLine
 10
7.572
 20
2.36
 30
0.0
 11
7.572
 21
2.395
 31
0.0
  0
LINE
  5
6A
330
18
100
AcDbEntity
  8
0
100
AcDbLine
 10
7.672999999999999
 20
2.337
 30
0.0
 11
7.572
 21
2.36
 31
0.0
  0
LINE
  5
6B
330
18
100
AcDbEntity
  8
0
100
AcDbLine
 10
7.672999999999999
 20
2.371
 30
0.0
 11
7.572
 21
2.395
 31
0.0
  0
LINE
  5
6C
330
18
100
AcDbEntity
  8
0
100
AcDbLine
 10
7.814
 20
2.32
 30
0.0
 11
7.814
 21
2.338
 31
0.0
  0
LINE
  5
6D
330
18
100
AcDbEntity
  8
0
100
AcDbLine
 10
7.796
 20
2.308
 30
0.0
 11
7.814
 21
2.32
 31
0.0
  0
LINE
  5
6E
330
18
100
AcDbEntity
  8
0
100
AcDbLine
 10
7.796
 20
2.308
 30
0.0
 11
7.796
 21
2.343
 31
0.0
  0
LINE
  5
6F
330
18
100
AcDbEntity
  8
0
100
AcDbLine
 10
7.896
 20
2.285
 30
0.0
 11
7.796
 21
2.308
 31
0.0
  0
LINE
  5
70
330
18
100
AcDbEntity
  8
0
100
AcDbLine
 10
7.896
 20
2.319
 30
0.0
 11
7.796
 21
2.343
 31
0.0
  0
LINE
  5
71
330
18
100
AcDbEntity
  8
0
100
AcDbLine
 10
7.662999999999999
 20
1.458
 30
0.0
 11
7.564
 21
1.485
 31
0.0
  0
LINE
  5
72
330
18
100
AcDbEntity
  8
0
100
AcDbLine
 10
7.563
 20
1.45
 30
0.0
 11
7.564
 21
1.485
 31
0.0
  0
LINE
  5
73
330
18
100
AcDbEntity
  8
0
100
AcDbLine
 10
7.563
 20
1.45
 30
0.0
 11
7.582000000000001
 21
1.461
 31
0.0
  0
LINE
  5
74
330
18
100
AcDbEntity
  8
0
100
AcDbLine
 10
7.582000000000001
 20
1.461
 30
0.0
 11
7.582000000000001
 21
1.48
 31
0.0
  0
LINE
  5
75
330
18
100
AcDbEntity
  8
0
100
AcDbLine
 10
7.438
 20
1.518
 30
0.0
 11
7.339
 21
1.544
 31
0.0
  0
LINE
  5
76
330
18
100
AcDbEntity
  8
0
100
AcDbLine
 10
7.437
 20
1.483
 30
0.0
 11
7.337999999999999
 21
1.51
 31
0.0
  0
LINE
  5
77
330
18
100
AcDbEntity
  8
0
100
AcDbLine
 10
7.337999999999999
 20
1.51
 30
0.0
 11
7.339
 21
1.544
 31
0.0
  0
LINE
  5
78
330
18
100
AcDbEntity
  8
0
100
AcDbLine
 10
7.337999999999999
 20
1.51
 30
0.0
 11
7.357
 21
1.521
 31
0.0
  0
LINE
  5
79
330
18
100
AcDbEntity
  8
0
100
AcDbLine
 10
7.357
 20
1.521
 30
0.0
 11
7.357
 21
1.54
 31
0.0
  0
LINE
  5
7A
330
18
100
AcDbEntity
  8
0
100
AcDbLine
 10
7.207999999999999
 20
1.579
 30
0.0
 11
7.109
 21
1.606
 31
0.0
  0
LINE
  5
7B
330
18
100
AcDbEntity
  8
0
100
AcDbLine
 10
7.207000000000001
 20
1.545
 30
0.0
 11
7.108
 21
1.571
 31
0.0
  0
LINE
  5
7C
330
18
100
AcDbEntity
  8
0
100
AcDbLine
 10
7.108
 20
1.571
 30
0.0
 11
7.109
 21
1.606
 31
0.0
  0
LINE
  5
7D
330
18
100
AcDbEntity
  8
0
100
AcDbLine
 10
7.108
 20
1.571
 30
0.0
 11
7.126
 21
1.582
 31
0.0
  0
LINE
  5
7E
330
18
100
AcDbEntity
  8
0
100
AcDbLine
 10
7.126
 20
1.582
 30
0.0
 11
7.127000000000001
 21
1.601
 31
0.0
  0
LINE
  5
7F
330
18
100
AcDbEntity
  8
0
100
AcDbLine
 10
6.96
 20
1.645
 30
0.0
 11
6.86
 21
1.672
 31
0.0
  0
LINE
  5
80
330
18
100
AcDbEntity
  8
0
100
AcDbLine
 10
6.959
 20
1.611
 30
0.0
 11
6.859
 21
1.637
 31
0.0
  0
LINE
  5
81
330
18
100
AcDbEntity
  8
0
100
AcDbLine
 10
6.859
 20
1.637
 30
0.0
 11
6.86
 21
1.672
 31
0.0
  0
LINE
  5
82
330
18
100
AcDbEntity
  8
0
100
AcDbLine
 10
6.859
 20
1.637
 30
0.0
 11
6.877999999999999
 21
1.648
 31
0.0
  0
LINE
  5
83
330
18
100
AcDbEntity
  8
0
100
AcDbLine
 10
6.877999999999999
 20
1.648
 30
0.0
 11
6.877999999999999
 21
1.667
 31
0.0
  0
LINE
  5
84
330
18
100
AcDbEntity
  8
0
100
AcDbLine
 10
6.735
 20
1.705
 30
0.0
 11
6.635
 21
1.732
 31
0.0
  0
LINE
  5
85
330
18
100
AcDbEntity
  8
0
100
AcDbLine
 10
6.734
 20
1.671
 30
0.0
 11
6.634
 21
1.697
 31
0.0
  0
LINE
  5
86
330
18
100
AcDbEntity
  8
0
100
AcDbLine
 10
6.634
 20
1.697
 30
0.0
 11
6.635
 21
1.732
 31
0.0
  0
LINE
  5
87
330
18
100
AcDbEntity
  8
0
100
AcDbLine
 10
6.634
 20
1.697
 30
0.0
 11
6.653
 21
1.708
 31
0.0
  0
LINE
  5
88
330
18
100
AcDbEntity
  8
0
100
AcDbLine
 10
6.653
 20
1.708
 30
0.0
 11
6.653
 21
1.727
 31
0.0
  0
LINE
  5
89
330
18
100
AcDbEntity
  8
0
100
AcDbLine
 10
6.527
 20
1.76
 30
0.0
 11
6.427000000000001
 21
1.787
 31
0.0
  0
LINE
  5
8A
330
18
100
AcDbEntity
  8
0
100
AcDbLine
 10
6.526
 20
1.726
 30
0.0
 11
6.426
 21
1.752
 31
0.0
  0
LINE
  5
8B
330
18
100
AcDbEntity
  8
0
100
AcDbLine
 10
6.426
 20
1.752
 30
0.0
 11
6.427000000000001
 21
1.787
 31
0.0
  0
LINE
  5
8C
330
18
100
AcDbEntity
  8
0
100
AcDbLine
 10
6.426
 20
1.752
 30
0.0
 11
6.445
 21
1.763
 31
0.0
  0
LINE
  5
8D
330
18
100
AcDbEntity
  8
0
100
AcDbLine
 10
6.445
 20
1.763
 30
0.0
 11
6.446000000000001
 21
1.782
 31
0.0
  0
LINE
  5
8E
330
18
100
AcDbEntity
  8
0
100
AcDbLine
 10
7.885
 20
1.399
 30
0.0
 11
7.786000000000001
 21
1.426
 31
0.0
  0
LINE
  5
8F
330
18
100
AcDbEntity
  8
0
100
AcDbLine
 10
7.884
 20
1.364
 30
0.0
 11
7.785
 21
1.391
 31
0.0
  0
LINE
  5
90
330
18
100
AcDbEntity
  8
0
100
AcDbLine
 10
7.785
 20
1.391
 30
0.0
 11
7.786000000000001
 21
1.426
 31
0.0
  0
LINE
  5
91
330
18
100
AcDbEntity
  8
0
100
AcDbLine
 10
7.785
 20
1.391
 30
0.0
 11
7.803
 21
1.402
 31
0.0
  0
LINE
  5
92
330
18
100
AcDbEntity
  8
0
100
AcDbLine
 10
7.803
 20
1.402
 30
0.0
 11
7.803999999999999
 21
1.421
 31
0.0
  0
LINE
  5
93
330
18
100
AcDbEntity
  8
0
100
AcDbLine
 10
7.662000000000001
 20
1.423
 30
0.0
 11
7.563
 21
1.45
 31
0.0
  0
LINE
  5
94
330
18
100
AcDbEntity
  8
0
100
AcDbLine
 10
8.009
 20
1.347
 30
0.0
 11
8.01
 21
1.366
 31
0.0
  0
LINE
  5
95
330
18
100
AcDbEntity
  8
0
100
AcDbLine
 10
7.991000000000001
 20
1.336
 30
0.0
 11
8.009
 21
1.347
 31
0.0
  0
LINE
  5
96
330
18
100
AcDbEntity
  8
0
100
AcDbLine
 10
7.991000000000001
 20
1.336
 30
0.0
 11
7.992000000000001
 21
1.371
 31
0.0
  0
LINE
  5
97
330
18
100
AcDbEntity
  8
0
100
AcDbLine
 10
8.09
 20
1.31
 30
0.0
 11
7.991000000000001
 21
1.336
 31
0.0
  0
LINE
  5
98
330
18
100
AcDbEntity
  8
0
100
AcDbLine
 10
8.091000000000001
 20
1.344
 30
0.0
 11
7.992000000000001
 21
1.371
 31
0.0
  0
LINE
  5
99
330
18
100
AcDbEntity
  8
0
100
AcDbLine
 10
7.669
 20
1.706
 30
0.0
 11
7.569
 21
1.73
 31
0.0
  0
LINE
  5
9A
330
18
100
AcDbEntity
  8
0
100
AcDbLine
 10
7.569
 20
1.696
 30
0.0
 11
7.569
 21
1.73
 31
0.0
  0
LINE
  5
9B
330
18
100
AcDbEntity
  8
0
100
AcDbLine
 10
7.569
 20
1.696
 30
0.0
 11
7.587000000000001
 21
1.707
 31
0.0
  0
LINE
  5
9C
330
18
100
AcDbEntity
  8
0
100
AcDbLine
 10
7.587000000000001
 20
1.707
 30
0.0
 11
7.587999999999999
 21
1.726
 31
0.0
  0
LINE
  5
9D
330
18
100
AcDbEntity
  8
0
100
AcDbLine
 10
7.443
 20
1.761
 30
0.0
 11
7.343
 21
1.786
 31
0.0
  0
LINE
  5
9E
330
18
100
AcDbEntity
  8
0
100
AcDbLine
 10
7.443
 20
1.727
 30
0.0
 11
7.343
 21
1.751
 31
0.0
  0
LINE
  5
9F
330
18
100
AcDbEntity
  8
0
100
AcDbLine
 10
7.343
 20
1.751
 30
0.0
 11
7.343
 21
1.786
 31
0.0
  0
LINE
  5
A0
330
18
100
AcDbEntity
  8
0
100
AcDbLine
 10
7.343
 20
1.751
 30
0.0
 11
7.361000000000001
 21
1.763
 31
0.0
  0
LINE
  5
A1
330
18
100
AcDbEntity
  8
0
100
AcDbLine
 10
7.361000000000001
 20
1.763
 30
0.0
 11
7.361000000000001
 21
1.781
 31
0.0
  0
LINE
  5
A2
330
18
100
AcDbEntity
  8
0
100
AcDbLine
 10
7.212000000000001
 20
1.818
 30
0.0
 11
7.112
 21
1.842
 31
0.0
  0
LINE
  5
A3
330
18
100
AcDbEntity
  8
0
100
AcDbLine
 10
7.211
 20
1.783
 30
0.0
 11
7.111000000000001
 21
1.808
 31
0.0
  0
LINE
  5
A4
330
18
100
AcDbEntity
  8
0
100
AcDbLine
 10
7.111000000000001
 20
1.808
 30
0.0
 11
7.112
 21
1.842
 31
0.0
  0
LINE
  5
A5
330
18
100
AcDbEntity
  8
0
100
AcDbLine
 10
7.111000000000001
 20
1.808
 30
0.0
 11
7.13
 21
1.819
 31
0.0
  0
LINE
  5
A6
330
18
100
AcDbEntity
  8
0
100
AcDbLine
 10
7.13
 20
1.819
 30
0.0
 11
7.13
 21
1.838
 31
0.0
  0
LINE
  5
A7
330
18
100
AcDbEntity
  8
0
100
AcDbLine
 10
6.962000000000001
 20
1.879
 30
0.0
 11
6.862
 21
1.904
 31
0.0
  0
LINE
  5
A8
330
18
100
AcDbEntity
  8
0
100
AcDbLine
 10
6.962000000000001
 20
1.845
 30
0.0
 11
6.862
 21
1.869
 31
0.0
  0
LINE
  5
A9
330
18
100
AcDbEntity
  8
0
100
AcDbLine
 10
6.862
 20
1.869
 30
0.0
 11
6.862
 21
1.904
 31
0.0
  0
LINE
  5
AA
330
18
100
AcDbEntity
  8
0
100
AcDbLine
 10
6.862
 20
1.869
 30
0.0
 11
6.88
 21
1.881
 31
0.0
  0
LINE
  5
AB
330
18
100
AcDbEntity
  8
0
100
AcDbLine
 10
6.88
 20
1.881
 30
0.0
 11
6.88
 21
1.899
 31
0.0
  0
LINE
  5
AC
330
18
100
AcDbEntity
  8
0
100
AcDbLine
 10
6.736000000000001
 20
1.935
 30
0.0
 11
6.636
 21
1.959
 31
0.0
  0
LINE
  5
AD
330
18
100
AcDbEntity
  8
0
100
AcDbLine
 10
6.735
 20
1.9
 30
0.0
 11
6.636
 21
1.924
 31
0.0
  0
LINE
  5
AE
330
18
100
AcDbEntity
  8
0
100
AcDbLine
 10
6.636
 20
1.924
 30
0.0
 11
6.636
 21
1.959
 31
0.0
  0
LINE
  5
AF
330
18
100
AcDbEntity
  8
0
100
AcDbLine
 10
6.636
 20
1.924
 30
0.0
 11
6.654
 21
1.936
 31
0.0
  0
LINE
  5
B0
330
18
100
AcDbEntity
  8
0
100
AcDbLine
 10
6.654
 20
1.936
 30
0.0
 11
6.654
 21
1.955
 31
0.0
  0
LINE
  5
B1
330
18
100
AcDbEntity
  8
0
100
AcDbLine
 10
6.527
 20
1.986
 30
0.0
 11
6.427000000000001
 21
2.01
 31
0.0
  0
LINE
  5
B2
330
18
100
AcDbEntity
  8
0
100
AcDbLine
 10
6.527
 20
1.951
 30
0.0
 11
6.427000000000001
 21
1.976
 31
0.0
  0
LINE
  5
B3
330
18
100
AcDbEntity
  8
0
100
AcDbLine
 10
6.427000000000001
 20
1.976
 30
0.0
 11
6.427000000000001
 21
2.01
 31
0.0
  0
LINE
  5
B4
330
18
100
AcDbEntity
  8
0
100
AcDbLine
 10
6.427000000000001
 20
1.976
 30
0.0
 11
6.445
 21
1.987
 31
0.0
  0
LINE
  5
B5
330
18
100
AcDbEntity
  8
0
100
AcDbLine
 10
6.445
 20
1.987
 30
0.0
 11
6.445
 21
2.006
 31
0.0
  0
LINE
  5
B6
330
18
100
AcDbEntity
  8
0
100
AcDbLine
 10
7.892
 20
1.651
 30
0.0
 11
7.792000000000001
 21
1.676
 31
0.0
  0
LINE
  5
B7
330
18
100
AcDbEntity
  8
0
100
AcDbLine
 10
7.892
 20
1.617
 30
0.0
 11
7.792000000000001
 21
1.641
 31
0.0
  0
LINE
  5
B8
330
18
100
AcDbEntity
  8
0
100
AcDbLine
 10
7.792000000000001
 20
1.641
 30
0.0
 11
7.792000000000001
 21
1.676
 31
0.0
  0
LINE
  5
B9
330
18
100
AcDbEntity
  8
0
100
AcDbLine
 10
7.792000000000001
 20
1.641
 30
0.0
 11
7.81
 21
1.653
 31
0.0
  0
LINE
  5
BA
330
18
100
AcDbEntity
  8
0
100
AcDbLine
 10
7.81
 20
1.653
 30
0.0
 11
7.81
 21
1.671
 31
0.0
  0
LINE
  5
BB
330
18
100
AcDbEntity
  8
0
100
AcDbLine
 10
7.669
 20
1.671
 30
0.0
 11
7.569
 21
1.696
 31
0.0
  0
LINE
  5
BC
330
18
100
AcDbEntity
  8
0
100
AcDbLine
 10
8.017000000000001
 20
1.602
 30
0.0
 11
8.017000000000001
 21
1.621
 31
0.0
  0
LINE
  5
BD
330
18
100
AcDbEntity
  8
0
100
AcDbLine
 10
7.999
 20
1.59
 30
0.0
 11
8.017000000000001
 21
1.602
 31
0.0
  0
LINE
  5
BE
330
18
100
AcDbEntity
  8
0
100
AcDbLine
 10
7.999
 20
1.59
 30
0.0
 11
7.999
 21
1.625
 31
0.0
  0
LINE
  5
BF
330
18
100
AcDbEntity
  8
0
100
AcDbLine
 10
8.099
 20
1.566
 30
0.0
 11
7.999
 21
1.59
 31
0.0
  0
LINE
  5
C0
330
18
100
AcDbEntity
  8
0
100
AcDbLine
 10
8.099
 20
1.601
 30
0.0
 11
7.999
 21
1.625
 31
0.0
  0
LINE
  5
C1
330
18
100
AcDbEntity
  8
0
100
AcDbLine
 10
7.669
 20
1.926
 30
0.0
 11
7.569
 21
1.951
 31
0.0
  0
LINE
  5
C2
330
18
100
AcDbEntity
  8
0
100
AcDbLine
 10
7.568
 20
1.916
 30
0.0
 11
7.569
 21
1.951
 31
0.0
  0
LINE
  5
C3
330
18
100
AcDbEntity
  8
0
100
AcDbLine
 10
7.568
 20
1.916
 30
0.0
 11
7.587000000000001
 21
1.928
 31
0.0
  0
LINE
  5
C4
330
18
100
AcDbEntity
  8
0
100
AcDbLine
 10
7.587000000000001
 20
1.928
 30
0.0
 11
7.587000000000001
 21
1.947
 31
0.0
  0
LINE
  5
C5
330
18
100
AcDbEntity
  8
0
100
AcDbLine
 10
7.443
 20
1.982
 30
0.0
 11
7.343
 21
2.007
 31
0.0
  0
LINE
  5
C6
330
18
100
AcDbEntity
  8
0
100
AcDbLine
 10
7.442
 20
1.948
 30
0.0
 11
7.342000000000001
 21
1.972
 31
0.0
  0
LINE
  5
C7
330
18
100
AcDbEntity
  8
0
100
AcDbLine
 10
7.342000000000001
 20
1.972
 30
0.0
 11
7.343
 21
2.007
 31
0.0
  0
LINE
  5
C8
330
18
100
AcDbEntity
  8
0
100
AcDbLine
 10
7.342000000000001
 20
1.972
 30
0.0
 11
7.361000000000001
 21
1.984
 31
0.0
  0
LINE
  5
C9
330
18
100
AcDbEntity
  8
0
100
AcDbLine
 10
7.361000000000001
 20
1.984
 30
0.0
 11
7.361000000000001
 21
2.002
 31
0.0
  0
LINE
  5
CA
330
18
100
AcDbEntity
  8
0
100
AcDbLine
 10
7.211
 20
2.039
 30
0.0
 11
7.112
 21
2.064
 31
0.0
  0
LINE
  5
CB
330
18
100
AcDbEntity
  8
0
100
AcDbLine
 10
7.211
 20
2.005
 30
0.0
 11
7.111000000000001
 21
2.029
 31
0.0
  0
LINE
  5
CC
330
18
100
AcDbEntity
  8
0
100
AcDbLine
 10
7.111000000000001
 20
2.029
 30
0.0
 11
7.112
 21
2.064
 31
0.0
  0
LINE
  5
CD
330
18
100
AcDbEntity
  8
0
100
AcDbLine
 10
7.111000000000001
 20
2.029
 30
0.0
 11
7.129
 21
2.041
 31
0.0
  0
LINE
  5
CE
330
18
100
AcDbEntity
  8
0
100
AcDbLine
 10
7.129
 20
2.041
 30
0.0
 11
7.13
 21
2.06
 31
0.0
  0
LINE
  5
CF
330
18
100
AcDbEntity
  8
0
100
AcDbLine
 10
6.962000000000001
 20
2.101
 30
0.0
 11
6.862
 21
2.126
 31
0.0
  0
LINE
  5
D0
330
18
100
AcDbEntity
  8
0
100
AcDbLine
 10
6.961
 20
2.066
 30
0.0
 11
6.862
 21
2.091
 31
0.0
  0
LINE
  5
D1
330
18
100
AcDbEntity
  8
0
100
AcDbLine
 10
6.862
 20
2.091
 30
0.0
 11
6.862
 21
2.126
 31
0.0
  0
LINE
  5
D2
330
18
100
AcDbEntity
  8
0
100
AcDbLine
 10
6.862
 20
2.091
 30
0.0
 11
6.88
 21
2.103
 31
0.0
  0
LINE
  5
D3
330
18
100
AcDbEntity
  8
0
100
AcDbLine
 10
6.88
 20
2.103
 30
0.0
 11
6.88
 21
2.121
 31
0.0
  0
LINE
  5
D4
330
18
100
AcDbEntity
  8
0
100
AcDbLine
 10
6.736000000000001
 20
2.157
 30
0.0
 11
6.636
 21
2.182
 31
0.0
  0
LINE
  5
D5
330
18
100
AcDbEntity
  8
0
100
AcDbLine
 10
6.735
 20
2.122
 30
0.0
 11
6.635
 21
2.147
 31
0.0
  0
LINE
  5
D6
330
18
100
AcDbEntity
  8
0
100
AcDbLine
 10
6.635
 20
2.147
 30
0.0
 11
6.636
 21
2.182
 31
0.0
  0
LINE
  5
D7
330
18
100
AcDbEntity
  8
0
100
AcDbLine
 10
6.635
 20
2.147
 30
0.0
 11
6.654
 21
2.158
 31
0.0
  0
LINE
  5
D8
330
18
100
AcDbEntity
  8
0
100
AcDbLine
 10
6.654
 20
2.158
 30
0.0
 11
6.654
 21
2.177
 31
0.0
  0
LINE
  5
D9
330
18
100
AcDbEntity
  8
0
100
AcDbLine
 10
6.527
 20
2.209
 30
0.0
 11
6.427000000000001
 21
2.233
 31
0.0
  0
LINE
  5
DA
330
18
100
AcDbEntity
  8
0
100
AcDbLine
 10
6.526
 20
2.174
 30
0.0
 11
6.427000000000001
 21
2.199
 31
0.0
  0
LINE
  5
DB
330
18
100
AcDbEntity
  8
0
100
AcDbLine
 10
6.427000000000001
 20
2.199
 30
0.0
 11
6.427000000000001
 21
2.233
 31
0.0
  0
LINE
  5
DC
330
18
100
AcDbEntity
  8
0
100
AcDbLine
 10
6.427000000000001
 20
2.199
 30
0.0
 11
6.445
 21
2.21
 31
0.0
  0
LINE
  5
DD
330
18
100
AcDbEntity
  8
0
100
AcDbLine
 10
6.445
 20
2.21
 30
0.0
 11
6.445
 21
2.229
 31
0.0
  0
LINE
  5
DE
330
18
100
AcDbEntity
  8
0
100
AcDbLine
 10
7.891
 20
1.871
 30
0.0
 11
7.792000000000001
 21
1.896
 31
0.0
  0
LINE
  5
DF
330
18
100
AcDbEntity
  8
0
100
AcDbLine
 10
7.891
 20
1.837
 30
0.0
 11
7.791
 21
1.861
 31
0.0
  0
LINE
  5
E0
330
18
100
AcDbEntity
  8
0
100
AcDbLine
 10
7.791
 20
1.861
 30
0.0
 11
7.792000000000001
 21
1.896
 31
0.0
  0
LINE
  5
E1
330
18
100
AcDbEntity
  8
0
100
AcDbLine
 10
7.791
 20
1.861
 30
0.0
 11
7.81
 21
1.873
 31
0.0
  0
LINE
  5
E2
330
18
100
AcDbEntity
  8
0
100
AcDbLine
 10
7.81
 20
1.873
 30
0.0
 11
7.81
 21
1.892
 31
0.0
  0
LINE
  5
E3
330
18
100
AcDbEntity
  8
0
100
AcDbLine
 10
7.667999999999999
 20
1.892
 30
0.0
 11
7.568
 21
1.916
 31
0.0
  0
LINE
  5
E4
330
18
100
AcDbEntity
  8
0
100
AcDbLine
 10
8.016
 20
1.822
 30
0.0
 11
8.017000000000001
 21
1.84
 31
0.0
  0
LINE
  5
E5
330
18
100
AcDbEntity
  8
0
100
AcDbLine
 10
7.997999999999999
 20
1.81
 30
0.0
 11
8.016
 21
1.822
 31
0.0
  0
LINE
  5
E6
330
18
100
AcDbEntity
  8
0
100
AcDbLine
 10
7.997999999999999
 20
1.81
 30
0.0
 11
7.999
 21
1.845
 31
0.0
  0
LINE
  5
E7
330
18
100
AcDbEntity
  8
0
100
AcDbLine
 10
8.097999999999999
 20
1.786
 30
0.0
 11
7.997999999999999
 21
1.81
 31
0.0
  0
LINE
  5
E8
330
18
100
AcDbEntity
  8
0
100
AcDbLine
 10
8.097999999999999
 20
1.82
 30
0.0
 11
7.999
 21
1.845
 31
0.0
  0
LINE
  5
E9
330
18
100
AcDbEntity
  8
0
100
AcDbLine
 10
7.672999999999999
 20
2.139
 30
0.0
 11
7.572
 21
2.163
 31
0.0
  0
LINE
  5
EA
330
18
100
AcDbEntity
  8
0
100
AcDbLine
 10
7.572
 20
2.128
 30
0.0
 11
7.572
 21
2.163
 31
0.0
  0
LINE
  5
EB
330
18
100
AcDbEntity
  8
0
100
AcDbLine
 10
7.572
 20
2.128
 30
0.0
 11
7.591
 21
2.14
 31
0.0
  0
LINE
  5
EC
330
18
100
AcDbEntity
  8
0
100
AcDbLine
 10
7.591
 20
2.14
 30
0.0
 11
7.591
 21
2.158
 31
0.0
  0
LINE
  5
ED
330
18
100
AcDbEntity
  8
0
100
AcDbLine
 10
7.446000000000001
 20
2.192
 30
0.0
 11
7.346
 21
2.215
 31
0.0
  0
LINE
  5
EE
330
18
100
AcDbEntity
  8
0
100
AcDbLine
 10
7.446000000000001
 20
2.157
 30
0.0
 11
7.346
 21
2.181
 31
0.0
  0
LINE
  5
EF
330
18
100
AcDbEntity
  8
0
100
AcDbLine
 10
7.346
 20
2.181
 30
0.0
 11
7.346
 21
2.215
 31
0.0
  0
LINE
  5
F0
330
18
100
AcDbEntity
  8
0
100
AcDbLine
 10
7.346
 20
2.181
 30
0.0
 11
7.364
 21
2.192
 31
0.0
  0
LINE
  5
F1
330
18
100
AcDbEntity
  8
0
100
AcDbLine
 10
7.364
 20
2.192
 30
0.0
 11
7.364
 21
2.211
 31
0.0
  0
LINE
  5
F2
330
18
100
AcDbEntity
  8
0
100
AcDbLine
 10
7.214
 20
2.246
 30
0.0
 11
7.114
 21
2.269
 31
0.0
  0
LINE
  5
F3
330
18
100
AcDbEntity
  8
0
100
AcDbLine
 10
7.214
 20
2.211
 30
0.0
 11
7.114
 21
2.235
 31
0.0
  0
LINE
  5
F4
330
18
100
AcDbEntity
  8
0
100
AcDbLine
 10
7.114
 20
2.235
 30
0.0
 11
7.114
 21
2.269
 31
0.0
  0
LINE
  5
F5
330
18
100
AcDbEntity
  8
0
100
AcDbLine
 10
7.114
 20
2.235
 30
0.0
 11
7.132000000000001
 21
2.246
 31
0.0
  0
LINE
  5
F6
330
18
100
AcDbEntity
  8
0
100
AcDbLine
 10
7.132000000000001
 20
2.246
 30
0.0
 11
7.132000000000001
 21
2.265
 31
0.0
  0
LINE
  5
F7
330
18
100
AcDbEntity
  8
0
100
AcDbLine
 10
6.962999999999999
 20
2.304
 30
0.0
 11
6.863
 21
2.327
 31
0.0
  0
LINE
  5
F8
330
18
100
AcDbEntity
  8
0
100
AcDbLine
 10
6.962999999999999
 20
2.27
 30
0.0
 11
6.863
 21
2.293
 31
0.0
  0
LINE
  5
F9
330
18
100
AcDbEntity
  8
0
100
AcDbLine
 10
6.863
 20
2.293
 30
0.0
 11
6.863
 21
2.327
 31
0.0
  0
LINE
  5
FA
330
18
100
AcDbEntity
  8
0
100
AcDbLine
 10
6.863
 20
2.293
 30
0.0
 11
6.881
 21
2.305
 31
0.0
  0
LINE
  5
FB
330
18
100
AcDbEntity
  8
0
100
AcDbLine
 10
6.881
 20
2.305
 30
0.0
 11
6.881
 21
2.323
 31
0.0
  0
LINE
  5
FC
330
18
100
AcDbEntity
  8
0
100
AcDbLine
 10
6.736000000000001
 20
2.357
 30
0.0
 11
6.636
 21
2.38
 31
0.0
  0
LINE
  5
FD
330
18
100
AcDbEntity
  8
0
100
AcDbLine
 10
6.736000000000001
 20
2.322
 30
0.0
 11
6.636
 21
2.346
 31
0.0
  0
LINE
  5
FE
330
18
100
AcDbEntity
  8
0
100
AcDbLine
 10
6.636
 20
2.346
 30
0.0
 11
6.636
 21
2.38
 31
0.0
  0
LINE
  5
FF
330
18
100
AcDbEntity
  8
0
100
AcDbLine
 10
6.636
 20
2.346
 30
0.0
 11
6.655
 21
2.357
 31
0.0
  0
LINE
  5
100
330
18
100
AcDbEntity
  8
0
100
AcDbLine
 10
6.655
 20
2.357
 30
0.0
 11
6.655
 21
2.376
 31
0.0
  0
LINE
  5
101
330
18
100
AcDbEntity
  8
0
100
AcDbLine
 10
6.527
 20
2.406
 30
0.0
 11
6.427000000000001
 21
2.429
 31
0.0
  0
LINE
  5
102
330
18
100
AcDbEntity
  8
0
100
AcDbLine
 10
6.527
 20
2.371
 30
0.0
 11
6.427000000000001
 21
2.394
 31
0.0
  0
LINE
  5
103
330
18
100
AcDbEntity
  8
0
100
AcDbLine
 10
6.427000000000001
 20
2.394
 30
0.0
 11
6.427000000000001
 21
2.429
 31
0.0
  0
LINE
  5
104
330
18
100
AcDbEntity
  8
0
100
AcDbLine
 10
6.427000000000001
 20
2.394
 30
0.0
 11
6.445
 21
2.406
 31
0.0
  0
LINE
  5
105
330
18
100
AcDbEntity
  8
0
100
AcDbLine
 10
6.445
 20
2.406
 30
0.0
 11
6.445
 21
2.425
 31
0.0
  0
LINE
  5
106
330
18
100
AcDbEntity
  8
0
100
AcDbLine
 10
7.896
 20
2.087
 30
0.0
 11
7.796
 21
2.111
 31
0.0
  0
LINE
  5
107
330
18
100
AcDbEntity
  8
0
100
AcDbLine
 10
7.896
 20
2.053
 30
0.0
 11
7.796
 21
2.076
 31
0.0
  0
LINE
  5
108
330
18
100
AcDbEntity
  8
0
100
AcDbLine
 10
7.796
 20
2.076
 30
0.0
 11
7.796
 21
2.111
 31
0.0
  0
LINE
  5
109
330
18
100
AcDbEntity
  8
0
100
AcDbLine
 10
7.796
 20
2.076
 30
0.0
 11
7.814
 21
2.088
 31
0.0
  0
LINE
  5
10A
330
18
100
AcDbEntity
  8
0
100
AcDbLine
 10
7.814
 20
2.088
 30
0.0
 11
7.814
 21
2.106
 31
0.0
  0
LINE
  5
10B
330
18
100
AcDbEntity
  8
0
100
AcDbLine
 10
7.672999999999999
 20
2.105
 30
0.0
 11
7.572
 21
2.128
 31
0.0
  0
LINE
  5
10C
330
18
100
AcDbEntity
  8
0
100
AcDbLine
 10
8.022
 20
2.039
 30
0.0
 11
8.022
 21
2.058
 31
0.0
  0
LINE
  5
10D
330
18
100
AcDbEntity
  8
0
100
AcDbLine
 10
8.003
 20
2.028
 30
0.0
 11
8.022
 21
2.039
 31
0.0
  0
LINE
  5
10E
330
18
100
AcDbEntity
  8
0
100
AcDbLine
 10
8.003
 20
2.028
 30
0.0
 11
8.003
 21
2.062
 31
0.0
  0
LINE
  5
10F
330
18
100
AcDbEntity
  8
0
100
AcDbLine
 10
8.103999999999999
 20
2.004
 30
0.0
 11
8.003
 21
2.028
 31
0.0
  0
LINE
  5
110
330
18
100
AcDbEntity
  8
0
100
AcDbLine
 10
8.103999999999999
 20
2.039
 30
0.0
 11
8.003
 21
2.062
 31
0.0
  0
LINE
  5
111
330
18
100
AcDbEntity
  8
0
100
AcDbLine
 10
6.541
 20
2.27
 30
0.0
 11
6.541
 21
2.288
 31
0.0
  0
LINE
  5
112
330
18
100
AcDbEntity
  8
0
100
AcDbLine
 10
6.522
 20
2.258
 30
0.0
 11
6.541
 21
2.27
 31
0.0
  0
LINE
  5
113
330
18
100
AcDbEntity
  8
0
100
AcDbLine
 10
6.522
 20
2.258
 30
0.0
 11
6.522
 21
2.292
 31
0.0
  0
LINE
  5
114
330
18
100
AcDbEntity
  8
0
100
AcDbLine
 10
6.622000000000001
 20
2.234
 30
0.0
 11
6.522
 21
2.258
 31
0.0
  0
LINE
  5
115
330
18
100
AcDbEntity
  8
0
100
AcDbLine
 10
6.622000000000001
 20
2.269
 30
0.0
 11
6.522
 21
2.292
 31
0.0
  0
LINE
  5
116
330
18
100
AcDbEntity
  8
0
100
AcDbLine
 10
6.75
 20
2.221
 30
0.0
 11
6.75
 21
2.239
 31
0.0
  0
LINE
  5
117
330
18
100
AcDbEntity
  8
0
100
AcDbLine
 10
6.732
 20
2.209
 30
0.0
 11
6.75
 21
2.221
 31
0.0
  0
LINE
  5
118
330
18
100
AcDbEntity
  8
0
100
AcDbLine
 10
6.732
 20
2.209
 30
0.0
 11
6.732
 21
2.244
 31
0.0
  0
LINE
  5
119
330
18
100
AcDbEntity
  8
0
100
AcDbLine
 10
6.832000000000001
 20
2.186
 30
0.0
 11
6.732
 21
2.209
 31
0.0
  0
LINE
  5
11A
330
18
100
AcDbEntity
  8
0
100
AcDbLine
 10
6.832000000000001
 20
2.22
 30
0.0
 11
6.732
 21
2.244
 31
0.0
  0
LINE
  5
11B
330
18
100
AcDbEntity
  8
0
100
AcDbLine
 10
6.977
 20
2.168
 30
0.0
 11
6.977
 21
2.187
 31
0.0
  0
LINE
  5
11C
330
18
100
AcDbEntity
  8
0
100
AcDbLine
 10
6.959
 20
2.156
 30
0.0
 11
6.977
 21
2.168
 31
0.0
  0
LINE
  5
11D
330
18
100
AcDbEntity
  8
0
100
AcDbLine
 10
6.959
 20
2.156
 30
0.0
 11
6.959
 21
2.191
 31
0.0
  0
LINE
  5
11E
330
18
100
AcDbEntity
  8
0
100
AcDbLine
 10
7.059
 20
2.133
 30
0.0
 11
6.959
 21
2.156
 31
0.0
  0
LINE
  5
11F
330
18
100
AcDbEntity
  8
0
100
AcDbLine
 10
7.059
 20
2.168
 30
0.0
 11
6.959
 21
2.191
 31
0.0
  0
LINE
  5
120
330
18
100
AcDbEntity
  8
0
100
AcDbLine
 10
7.227
 20
2.11
 30
0.0
 11
7.227
 21
2.128
 31
0.0
  0
LINE
  5
121
330
18
100
AcDbEntity
  8
0
100
AcDbLine
 10
7.209
 20
2.098
 30
0.0
 11
7.227
 21
2.11
 31
0.0
  0
LINE
  5
122
330
18
100
AcDbEntity
  8
0
100
AcDbLine
 10
7.209
 20
2.098
 30
0.0
 11
7.209
 21
2.133
 31
0.0
  0
LINE
  5
123
330
18
100
AcDbEntity
  8
0
100
AcDbLine
 10
7.309
 20
2.075
 30
0.0
 11
7.209
 21
2.098
 31
0.0
  0
LINE
  5
124
330
18
100
AcDbEntity
  8
0
100
AcDbLine
 10
7.309
 20
2.109
 30
0.0
 11
7.209
 21
2.133
 31
0.0
  0
LINE
  5
125
330
18
100
AcDbEntity
  8
0
100
AcDbLine
 10
7.459
 20
2.056
 30
0.0
 11
7.459
 21
2.075
 31
0.0
  0
LINE
  5
126
330
18
100
AcDbEntity
  8
0
100
AcDbLine
 10
7.441
 20
2.044
 30
0.0
 11
7.459
 21
2.056
 31
0.0
  0
LINE
  5
127
330
18
100
AcDbEntity
  8
0
100
AcDbLine
 10
7.441
 20
2.044
 30
0.0
 11
7.441
 21
2.079
 31
0.0
  0
LINE
  5
128
330
18
100
AcDbEntity
  8
0
100
AcDbLine
 10
6.541
 20
2.074
 30
0.0
 11
6.541
 21
2.092
 31
0.0
  0
LINE
  5
129
330
18
100
AcDbEntity
  8
0
100
AcDbLine
 10
6.522
 20
2.062
 30
0.0
 11
6.541
 21
2.074
 31
0.0
  0
LINE
  5
12A
330
18
100
AcDbEntity
  8
0
100
AcDbLine
 10
6.522
 20
2.062
 30
0.0
 11
6.523
 21
2.097
 31
0.0
  0
LINE
  5
12B
330
18
100
AcDbEntity
  8
0
100
AcDbLine
 10
6.622000000000001
 20
2.037
 30
0.0
 11
6.522
 21
2.062
 31
0.0
  0
LINE
  5
12C
330
18
100
AcDbEntity
  8
0
100
AcDbLine
 10
6.622000000000001
 20
2.072
 30
0.0
 11
6.523
 21
2.097
 31
0.0
  0
LINE
  5
12D
330
18
100
AcDbEntity
  8
0
100
AcDbLine
 10
6.749
 20
2.022
 30
0.0
 11
6.75
 21
2.041
 31
0.0
  0
LINE
  5
12E
330
18
100
AcDbEntity
  8
0
100
AcDbLine
 10
6.731
 20
2.01
 30
0.0
 11
6.749
 21
2.022
 31
0.0
  0
LINE
  5
12F
330
18
100
AcDbEntity
  8
0
100
AcDbLine
 10
6.731
 20
2.01
 30
0.0
 11
6.731
 21
2.045
 31
0.0
  0
LINE
  5
130
330
18
100
AcDbEntity
  8
0
100
AcDbLine
 10
6.831
 20
1.986
 30
0.0
 11
6.731
 21
2.01
 31
0.0
  0
LINE
  5
131
330
18
100
AcDbEntity
  8
0
100
AcDbLine
 10
6.831
 20
2.02
 30
0.0
 11
6.731
 21
2.045
 31
0.0
  0
LINE
  5
132
330
18
100
AcDbEntity
  8
0
100
AcDbLine
 10
6.975
 20
1.966
 30
0.0
 11
6.976
 21
1.985
 31
0.0
  0
LINE
  5
133
330
18
100
AcDbEntity
  8
0
100
AcDbLine
 10
6.957000000000001
 20
1.955
 30
0.0
 11
6.975
 21
1.966
 31
0.0
  0
LINE
  5
134
330
18
100
AcDbEntity
  8
0
100
AcDbLine
 10
6.957000000000001
 20
1.955
 30
0.0
 11
6.957999999999999
 21
1.989
 31
0.0
  0
LINE
  5
135
330
18
100
AcDbEntity
  8
0
100
AcDbLine
 10
7.057
 20
1.93
 30
0.0
 11
6.957000000000001
 21
1.955
 31
0.0
  0
LINE
  5
136
330
18
100
AcDbEntity
  8
0
100
AcDbLine
 10
7.057
 20
1.965
 30
0.0
 11
6.957999999999999
 21
1.989
 31
0.0
  0
LINE
  5
137
330
18
100
AcDbEntity
  8
0
100
AcDbLine
 10
7.225
 20
1.904
 30
0.0
 11
7.225
 21
1.923
 31
0.0
  0
LINE
  5
138
330
18
100
AcDbEntity
  8
0
100
AcDbLine
 10
7.207000000000001
 20
1.893
 30
0.0
 11
7.225
 21
1.904
 31
0.0
  0
LINE
  5
139
330
18
100
AcDbEntity
  8
0
100
AcDbLine
 10
7.207000000000001
 20
1.893
 30
0.0
 11
7.207000000000001
 21
1.928
 31
0.0
  0
LINE
  5
13A
330
18
100
AcDbEntity
  8
0
100
AcDbLine
 10
7.306
 20
1.868
 30
0.0
 11
7.207000000000001
 21
1.893
 31
0.0
  0
LINE
  5
13B
330
18
100
AcDbEntity
  8
0
100
AcDbLine
 10
7.307
 20
1.903
 30
0.0
 11
7.207000000000001
 21
1.928
 31
0.0
  0
LINE
  5
13C
330
18
100
AcDbEntity
  8
0
100
AcDbLine
 10
7.456
 20
1.847
 30
0.0
 11
7.457000000000001
 21
1.866
 31
0.0
  0
LINE
  5
13D
330
18
100
AcDbEntity
  8
0
100
AcDbLine
 10
7.438
 20
1.836
 30
0.0
 11
7.456
 21
1.847
 31
0.0
  0
LINE
  5
13E
330
18
100
AcDbEntity
  8
0
100
AcDbLine
 10
7.438
 20
1.836
 30
0.0
 11
7.438
 21
1.87
 31
0.0
  0
LINE
  5
13F
330
18
100
AcDbEntity
  8
0
100
AcDbLine
 10
6.541
 20
1.851
 30
0.0
 11
6.541
 21
1.869
 31
0.0
  0
LINE
  5
140
330
18
100
AcDbEntity
  8
0
100
AcDbLine
 10
6.522
 20
1.839
 30
0.0
 11
6.541
 21
1.851
 31
0.0
  0
LINE
  5
141
330
18
100
AcDbEntity
  8
0
100
AcDbLine
 10
6.522
 20
1.839
 30
0.0
 11
6.523
 21
1.874
 31
0.0
  0
LINE
  5
142
330
18
100
AcDbEntity
  8
0
100
AcDbLine
 10
6.622000000000001
 20
1.815
 30
0.0
 11
6.522
 21
1.839
 31
0.0
  0
LINE
  5
143
330
18
100
AcDbEntity
  8
0
100
AcDbLine
 10
6.622000000000001
 20
1.849
 30
0.0
 11
6.523
 21
1.874
 31
0.0
  0
LINE
  5
144
330
18
100
AcDbEntity
  8
0
100
AcDbLine
 10
6.749
 20
1.799
 30
0.0
 11
6.75
 21
1.818
 31
0.0
  0
LINE
  5
145
330
18
100
AcDbEntity
  8
0
100
AcDbLine
 10
6.731
 20
1.788
 30
0.0
 11
6.749
 21
1.799
 31
0.0
  0
LINE
  5
146
330
18
100
AcDbEntity
  8
0
100
AcDbLine
 10
6.731
 20
1.788
 30
0.0
 11
6.732
 21
1.823
 31
0.0
  0
LINE
  5
147
330
18
100
AcDbEntity
  8
0
100
AcDbLine
 10
6.831
 20
1.763
 30
0.0
 11
6.731
 21
1.788
 31
0.0
  0
LINE
  5
148
330
18
100
AcDbEntity
  8
0
100
AcDbLine
 10
6.831
 20
1.798
 30
0.0
 11
6.732
 21
1.823
 31
0.0
  0
LINE
  5
149
330
18
100
AcDbEntity
  8
0
100
AcDbLine
 10
6.976
 20
1.744
 30
0.0
 11
6.976
 21
1.763
 31
0.0
  0
LINE
  5
14A
330
18
100
AcDbEntity
  8
0
100
AcDbLine
 10
6.957000000000001
 20
1.732
 30
0.0
 11
6.976
 21
1.744
 31
0.0
  0
LINE
  5
14B
330
18
100
AcDbEntity
  8
0
100
AcDbLine
 10
6.957000000000001
 20
1.732
 30
0.0
 11
6.957999999999999
 21
1.767
 31
0.0
  0
LINE
  5
14C
330
18
100
AcDbEntity
  8
0
100
AcDbLine
 10
7.057
 20
1.708
 30
0.0
 11
6.957000000000001
 21
1.732
 31
0.0
  0
LINE
  5
14D
330
18
100
AcDbEntity
  8
0
100
AcDbLine
 10
7.058
 20
1.743
 30
0.0
 11
6.957999999999999
 21
1.767
 31
0.0
  0
LINE
  5
14E
330
18
100
AcDbEntity
  8
0
100
AcDbLine
 10
7.225
 20
1.683
 30
0.0
 11
7.226
 21
1.701
 31
0.0
  0
LINE
  5
14F
330
18
100
AcDbEntity
  8
0
100
AcDbLine
 10
7.207000000000001
 20
1.671
 30
0.0
 11
7.225
 21
1.683
 31
0.0
  0
LINE
  5
150
330
18
100
AcDbEntity
  8
0
100
AcDbLine
 10
7.207000000000001
 20
1.671
 30
0.0
 11
7.207000000000001
 21
1.706
 31
0.0
  0
LINE
  5
151
330
18
100
AcDbEntity
  8
0
100
AcDbLine
 10
7.307
 20
1.647
 30
0.0
 11
7.207000000000001
 21
1.671
 31
0.0
  0
LINE
  5
152
330
18
100
AcDbEntity
  8
0
100
AcDbLine
 10
7.307
 20
1.681
 30
0.0
 11
7.207000000000001
 21
1.706
 31
0.0
  0
LINE
  5
153
330
18
100
AcDbEntity
  8
0
100
AcDbLine
 10
7.457000000000001
 20
1.626
 30
0.0
 11
7.457000000000001
 21
1.645
 31
0.0
  0
LINE
  5
154
330
18
100
AcDbEntity
  8
0
100
AcDbLine
 10
7.438
 20
1.615
 30
0.0
 11
7.457000000000001
 21
1.626
 31
0.0
  0
LINE
  5
155
330
18
100
AcDbEntity
  8
0
100
AcDbLine
 10
7.438
 20
1.615
 30
0.0
 11
7.439
 21
1.649
 31
0.0
  0
LINE
  5
156
330
18
100
AcDbEntity
  8
0
100
AcDbLine
 10
6.54
 20
1.627
 30
0.0
 11
6.541
 21
1.646
 31
0.0
  0
LINE
  5
157
330
18
100
AcDbEntity
  8
0
100
AcDbLine
 10
6.522
 20
1.616
 30
0.0
 11
6.54
 21
1.627
 31
0.0
  0
LINE
  5
158
330
18
100
AcDbEntity
  8
0
100
AcDbLine
 10
6.522
 20
1.616
 30
0.0
 11
6.523
 21
1.65
 31
0.0
  0
LINE
  5
159
330
18
100
AcDbEntity
  8
0
100
AcDbLine
 10
6.621
 20
1.589
 30
0.0
 11
6.522
 21
1.616
 31
0.0
  0
LINE
  5
15A
330
18
100
AcDbEntity
  8
0
100
AcDbLine
 10
6.622000000000001
 20
1.624
 30
0.0
 11
6.523
 21
1.65
 31
0.0
  0
LINE
  5
15B
330
18
100
AcDbEntity
  8
0
100
AcDbLine
 10
6.747999999999999
 20
1.572
 30
0.0
 11
6.749
 21
1.59
 31
0.0
  0
LINE
  5
15C
330
18
100
AcDbEntity
  8
0
100
AcDbLine
 10
6.73
 20
1.56
 30
0.0
 11
6.747999999999999
 21
1.572
 31
0.0
  0
LINE
  5
15D
330
18
100
AcDbEntity
  8
0
100
AcDbLine
 10
6.73
 20
1.56
 30
0.0
 11
6.731
 21
1.595
 31
0.0
  0
LINE
  5
15E
330
18
100
AcDbEntity
  8
0
100
AcDbLine
 10
6.829
 20
1.534
 30
0.0
 11
6.73
 21
1.56
 31
0.0
  0
LINE
  5
15F
330
18
100
AcDbEntity
  8
0
100
AcDbLine
 10
6.83
 20
1.569
 30
0.0
 11
6.731
 21
1.595
 31
0.0
  0
LINE
  5
160
330
18
100
AcDbEntity
  8
0
100
AcDbLine
 10
6.973
 20
1.512
 30
0.0
 11
6.974
 21
1.53
 31
0.0
  0
LINE
  5
161
330
18
100
AcDbEntity
  8
0
100
AcDbLine
 10
6.955
 20
1.501
 30
0.0
 11
6.973
 21
1.512
 31
0.0
  0
LINE
  5
162
330
18
100
AcDbEntity
  8
0
100
AcDbLine
 10
6.955
 20
1.501
 30
0.0
 11
6.956
 21
1.535
 31
0.0
  0
LINE
  5
163
330
18
100
AcDbEntity
  8
0
100
AcDbLine
 10
7.053999999999999
 20
1.474
 30
0.0
 11
6.955
 21
1.501
 31
0.0
  0
LINE
  5
164
330
18
100
AcDbEntity
  8
0
100
AcDbLine
 10
7.055
 20
1.509
 30
0.0
 11
6.956
 21
1.535
 31
0.0
  0
LINE
  5
165
330
18
100
AcDbEntity
  8
0
100
AcDbLine
 10
7.222
 20
1.446
 30
0.0
 11
7.222
 21
1.464
 31
0.0
  0
LINE
  5
166
330
18
100
AcDbEntity
  8
0
100
AcDbLine
 10
7.202999999999999
 20
1.434
 30
0.0
 11
7.222
 21
1.446
 31
0.0
  0
LINE
  5
167
330
18
100
AcDbEntity
  8
0
100
AcDbLine
 10
7.202999999999999
 20
1.434
 30
0.0
 11
7.204
 21
1.469
 31
0.0
  0
LINE
  5
168
330
18
100
AcDbEntity
  8
0
100
AcDbLine
 10
7.303999999999999
 20
1.443
 30
0.0
 11
7.204
 21
1.469
 31
0.0
  0
LINE
  5
169
330
18
100
AcDbEntity
  8
0
100
AcDbLine
 10
7.441
 20
2.276
 30
0.0
 11
7.441
 21
2.311
 31
0.0
  0
LINE
  5
16A
330
18
100
AcDbEntity
  8
0
100
AcDbLine
 10
7.441
 20
2.276
 30
0.0
 11
7.459
 21
2.288
 31
0.0
  0
LINE
  5
16B
330
18
100
AcDbEntity
  8
0
100
AcDbLine
 10
7.459
 20
2.288
 30
0.0
 11
7.459
 21
2.307
 31
0.0
  0
LINE
  5
16C
330
18
100
AcDbEntity
  8
0
100
AcDbLine
 10
7.309
 20
2.342
 30
0.0
 11
7.209
 21
2.365
 31
0.0
  0
LINE
  5
16D
330
18
100
AcDbEntity
  8
0
100
AcDbLine
 10
7.309
 20
2.307
 30
0.0
 11
7.209
 21
2.33
 31
0.0
  0
LINE
  5
16E
330
18
100
AcDbEntity
  8
0
100
AcDbLine
 10
7.209
 20
2.33
 30
0.0
 11
7.209
 21
2.365
 31
0.0
  0
LINE
  5
16F
330
18
100
AcDbEntity
  8
0
100
AcDbLine
 10
7.209
 20
2.33
 30
0.0
 11
7.227
 21
2.342
 31
0.0
  0
LINE
  5
170
330
18
100
AcDbEntity
  8
0
100
AcDbLine
 10
7.227
 20
2.342
 30
0.0
 11
7.227
 21
2.361
 31
0.0
  0
LINE
  5
171
330
18
100
AcDbEntity
  8
0
100
AcDbLine
 10
7.059
 20
2.4
 30
0.0
 11
6.959
 21
2.423
 31
0.0
  0
LINE
  5
172
330
18
100
AcDbEntity
  8
0
100
AcDbLine
 10
7.059
 20
2.365
 30
0.0
 11
6.959
 21
2.388
 31
0.0
  0
LINE
  5
173
330
18
100
AcDbEntity
  8
0
100
AcDbLine
 10
6.959
 20
2.388
 30
0.0
 11
6.959
 21
2.423
 31
0.0
  0
LINE
  5
174
330
18
100
AcDbEntity
  8
0
100
AcDbLine
 10
6.959
 20
2.388
 30
0.0
 11
6.977
 21
2.4
 31
0.0
  0
LINE
  5
175
330
18
100
AcDbEntity
  8
0
100
AcDbLine
 10
6.977
 20
2.4
 30
0.0
 11
6.977
 21
2.419
 31
0.0
  0
LINE
  5
176
330
18
100
AcDbEntity
  8
0
100
AcDbLine
 10
6.832000000000001
 20
2.453
 30
0.0
 11
6.732
 21
2.476
 31
0.0
  0
LINE
  5
177
330
18
100
AcDbEntity
  8
0
100
AcDbLine
 10
6.832000000000001
 20
2.418
 30
0.0
 11
6.732
 21
2.441
 31
0.0
  0
LINE
  5
178
330
18
100
AcDbEntity
  8
0
100
AcDbLine
 10
6.732
 20
2.441
 30
0.0
 11
6.732
 21
2.476
 31
0.0
  0
LINE
  5
179
330
18
100
AcDbEntity
  8
0
100
AcDbLine
 10
6.732
 20
2.441
 30
0.0
 11
6.75
 21
2.453
 31
0.0
  0
LINE
  5
17A
330
18
100
AcDbEntity
  8
0
100
AcDbLine
 10
6.75
 20
2.453
 30
0.0
 11
6.75
 21
2.472
 31
0.0
  0
LINE
  5
17B
330
18
100
AcDbEntity
  8
0
100
AcDbLine
 10
6.622000000000001
 20
2.501
 30
0.0
 11
6.522
 21
2.525
 31
0.0
  0
LINE
  5
17C
330
18
100
AcDbEntity
  8
0
100
AcDbLine
 10
6.622000000000001
 20
2.467
 30
0.0
 11
6.522
 21
2.49
 31
0.0
  0
LINE
  5
17D
330
18
100
AcDbEntity
  8
0
100
AcDbLine
 10
6.522
 20
2.49
 30
0.0
 11
6.522
 21
2.525
 31
0.0
  0
LINE
  5
17E
330
18
100
AcDbEntity
  8
0
100
AcDbLine
 10
6.522
 20
2.49
 30
0.0
 11
6.541
 21
2.502
 31
0.0
  0
LINE
  5
17F
330
18
100
AcDbEntity
  8
0
100
AcDbLine
 10
6.541
 20
2.502
 30
0.0
 11
6.541
 21
2.52
 31
0.0
  0
LINE
  5
180
330
18
100
AcDbEntity
  8
0
100
AcDbLine
 10
7.768
 20
1.968
 30
0.0
 11
7.667999999999999
 21
1.991
 31
0.0
  0
LINE
  5
181
330
18
100
AcDbEntity
  8
0
100
AcDbLine
 10
7.91
 20
1.951
 30
0.0
 11
7.91
 21
1.97
 31
0.0
  0
LINE
  5
182
330
18
100
AcDbEntity
  8
0
100
AcDbLine
 10
7.891
 20
1.939
 30
0.0
 11
7.91
 21
1.951
 31
0.0
  0
LINE
  5
183
330
18
100
AcDbEntity
  8
0
100
AcDbLine
 10
7.891
 20
1.939
 30
0.0
 11
7.891
 21
1.974
 31
0.0
  0
LINE
  5
184
330
18
100
AcDbEntity
  8
0
100
AcDbLine
 10
7.992000000000001
 20
1.916
 30
0.0
 11
7.891
 21
1.939
 31
0.0
  0
LINE
  5
185
330
18
100
AcDbEntity
  8
0
100
AcDbLine
 10
7.992000000000001
 20
1.951
 30
0.0
 11
7.891
 21
1.974
 31
0.0
  0
LINE
  5
186
330
18
100
AcDbEntity
  8
0
100
AcDbLine
 10
7.541
 20
2.021
 30
0.0
 11
7.441
 21
2.044
 31
0.0
  0
LINE
  5
187
330
18
100
AcDbEntity
  8
0
100
AcDbLine
 10
7.541
 20
2.055
 30
0.0
 11
7.441
 21
2.079
 31
0.0
  0
LINE
  5
188
330
18
100
AcDbEntity
  8
0
100
AcDbLine
 10
7.686
 20
2.003
 30
0.0
 11
7.686
 21
2.022
 31
0.0
  0
LINE
  5
189
330
18
100
AcDbEntity
  8
0
100
AcDbLine
 10
7.667999999999999
 20
1.991
 30
0.0
 11
7.686
 21
2.003
 31
0.0
  0
LINE
  5
18A
330
18
100
AcDbEntity
  8
0
100
AcDbLine
 10
7.667999999999999
 20
1.991
 30
0.0
 11
7.667999999999999
 21
2.026
 31
0.0
  0
LINE
  5
18B
330
18
100
AcDbEntity
  8
0
100
AcDbLine
 10
7.768
 20
2.003
 30
0.0
 11
7.667999999999999
 21
2.026
 31
0.0
  0
LINE
  5
18C
330
18
100
AcDbEntity
  8
0
100
AcDbLine
 10
7.763999999999999
 20
1.755
 30
0.0
 11
7.664
 21
1.78
 31
0.0
  0
LINE
  5
18D
330
18
100
AcDbEntity
  8
0
100
AcDbLine
 10
7.905
 20
1.736
 30
0.0
 11
7.905
 21
1.755
 31
0.0
  0
LINE
  5
18E
330
18
100
AcDbEntity
  8
0
100
AcDbLine
 10
7.887000000000001
 20
1.725
 30
0.0
 11
7.905
 21
1.736
 31
0.0
  0
LINE
  5
18F
330
18
100
AcDbEntity
  8
0
100
AcDbLine
 10
7.887000000000001
 20
1.725
 30
0.0
 11
7.887000000000001
 21
1.76
 31
0.0
  0
LINE
  5
190
330
18
100
AcDbEntity
  8
0
100
AcDbLine
 10
7.987
 20
1.7
 30
0.0
 11
7.887000000000001
 21
1.725
 31
0.0
  0
LINE
  5
191
330
18
100
AcDbEntity
  8
0
100
AcDbLine
 10
7.987
 20
1.735
 30
0.0
 11
7.887000000000001
 21
1.76
 31
0.0
  0
LINE
  5
192
330
18
100
AcDbEntity
  8
0
100
AcDbLine
 10
7.537999999999999
 20
1.811
 30
0.0
 11
7.438
 21
1.836
 31
0.0
  0
LINE
  5
193
330
18
100
AcDbEntity
  8
0
100
AcDbLine
 10
7.537999999999999
 20
1.846
 30
0.0
 11
7.438
 21
1.87
 31
0.0
  0
LINE
  5
194
330
18
100
AcDbEntity
  8
0
100
AcDbLine
 10
7.682
 20
1.791
 30
0.0
 11
7.683
 21
1.81
 31
0.0
  0
LINE
  5
195
330
18
100
AcDbEntity
  8
0
100
AcDbLine
 10
7.664
 20
1.78
 30
0.0
 11
7.682
 21
1.791
 31
0.0
  0
LINE
  5
196
330
18
100
AcDbEntity
  8
0
100
AcDbLine
 10
7.664
 20
1.78
 30
0.0
 11
7.664
 21
1.815
 31
0.0
  0
LINE
  5
197
330
18
100
AcDbEntity
  8
0
100
AcDbLine
 10
7.763999999999999
 20
1.79
 30
0.0
 11
7.664
 21
1.815
 31
0.0
  0
LINE
  5
198
330
18
100
AcDbEntity
  8
0
100
AcDbLine
 10
7.763999999999999
 20
1.535
 30
0.0
 11
7.665
 21
1.559
 31
0.0
  0
LINE
  5
199
330
18
100
AcDbEntity
  8
0
100
AcDbLine
 10
7.906000000000001
 20
1.516
 30
0.0
 11
7.906000000000001
 21
1.535
 31
0.0
  0
LINE
  5
19A
330
18
100
AcDbEntity
  8
0
100
AcDbLine
 10
7.887000000000001
 20
1.505
 30
0.0
 11
7.906000000000001
 21
1.516
 31
0.0
  0
LINE
  5
19B
330
18
100
AcDbEntity
  8
0
100
AcDbLine
 10
7.887000000000001
 20
1.505
 30
0.0
 11
7.888
 21
1.539
 31
0.0
  0
LINE
  5
19C
330
18
100
AcDbEntity
  8
0
100
AcDbLine
 10
7.987
 20
1.48
 30
0.0
 11
7.887000000000001
 21
1.505
 31
0.0
  0
LINE
  5
19D
330
18
100
AcDbEntity
  8
0
100
AcDbLine
 10
7.988
 20
1.515
 30
0.0
 11
7.888
 21
1.539
 31
0.0
  0
LINE
  5
19E
330
18
100
AcDbEntity
  8
0
100
AcDbLine
 10
7.537999999999999
 20
1.59
 30
0.0
 11
7.438
 21
1.615
 31
0.0
  0
LINE
  5
19F
330
18
100
AcDbEntity
  8
0
100
AcDbLine
 10
7.539
 20
1.625
 30
0.0
 11
7.439
 21
1.649
 31
0.0
  0
LINE
  5
1A0
330
18
100
AcDbEntity
  8
0
100
AcDbLine
 10
7.683
 20
1.571
 30
0.0
 11
7.683
 21
1.589
 31
0.0
  0
LINE
  5
1A1
330
18
100
AcDbEntity
  8
0
100
AcDbLine
 10
7.665
 20
1.559
 30
0.0
 11
7.683
 21
1.571
 31
0.0
  0
LINE
  5
1A2
330
18
100
AcDbEntity
  8
0
100
AcDbLine
 10
7.665
 20
1.559
 30
0.0
 11
7.665
 21
1.594
 31
0.0
  0
LINE
  5
1A3
330
18
100
AcDbEntity
  8
0
100
AcDbLine
 10
7.765
 20
1.569
 30
0.0
 11
7.665
 21
1.594
 31
0.0
  0
LINE
  5
1A4
330
18
100
AcDbEntity
  8
0
100
AcDbLine
 10
7.757999999999999
 20
1.287
 30
0.0
 11
7.659
 21
1.313
 31
0.0
  0
LINE
  5
1A5
330
18
100
AcDbEntity
  8
0
100
AcDbLine
 10
7.899
 20
1.266
 30
0.0
 11
7.899
 21
1.284
 31
0.0
  0
LINE
  5
1A6
330
18
100
AcDbEntity
  8
0
100
AcDbLine
 10
7.88
 20
1.254
 30
0.0
 11
7.899
 21
1.266
 31
0.0
  0
LINE
  5
1A7
330
18
100
AcDbEntity
  8
0
100
AcDbLine
 10
7.88
 20
1.254
 30
0.0
 11
7.881
 21
1.289
 31
0.0
  0
LINE
  5
1A8
330
18
100
AcDbEntity
  8
0
100
AcDbLine
 10
7.98
 20
1.228
 30
0.0
 11
7.88
 21
1.254
 31
0.0
  0
LINE
  5
1A9
330
18
100
AcDbEntity
  8
0
100
AcDbLine
 10
7.981
 20
1.263
 30
0.0
 11
7.881
 21
1.289
 31
0.0
  0
LINE
  5
1AA
330
18
100
AcDbEntity
  8
0
100
AcDbLine
 10
7.303
 20
1.408
 30
0.0
 11
7.202999999999999
 21
1.434
 31
0.0
  0
LINE
  5
1AB
330
18
100
AcDbEntity
  8
0
100
AcDbLine
 10
7.452000000000001
 20
1.384
 30
0.0
 11
7.452999999999999
 21
1.403
 31
0.0
  0
LINE
  5
1AC
330
18
100
AcDbEntity
  8
0
100
AcDbLine
 10
7.434
 20
1.373
 30
0.0
 11
7.452000000000001
 21
1.384
 31
0.0
  0
LINE
  5
1AD
330
18
100
AcDbEntity
  8
0
100
AcDbLine
 10
7.434
 20
1.373
 30
0.0
 11
7.435
 21
1.408
 31
0.0
  0
LINE
  5
1AE
330
18
100
AcDbEntity
  8
0
100
AcDbLine
 10
7.533
 20
1.347
 30
0.0
 11
7.434
 21
1.373
 31
0.0
  0
LINE
  5
1AF
330
18
100
AcDbEntity
  8
0
100
AcDbLine
 10
7.534
 20
1.381
 30
0.0
 11
7.435
 21
1.408
 31
0.0
  0
LINE
  5
1B0
330
18
100
AcDbEntity
  8
0
100
AcDbLine
 10
7.677000000000001
 20
1.325
 30
0.0
 11
7.678
 21
1.343
 31
0.0
  0
LINE
  5
1B1
330
18
100
AcDbEntity
  8
0
100
AcDbLine
 10
7.659
 20
1.313
 30
0.0
 11
7.677000000000001
 21
1.325
 31
0.0
  0
LINE
  5
1B2
330
18
100
AcDbEntity
  8
0
100
AcDbLine
 10
7.659
 20
1.313
 30
0.0
 11
7.66
 21
1.348
 31
0.0
  0
LINE
  5
1B3
330
18
100
AcDbEntity
  8
0
100
AcDbLine
 10
7.759
 20
1.322
 30
0.0
 11
7.66
 21
1.348
 31
0.0
  0
LINE
  5
1B4
330
18
100
AcDbEntity
  8
0
100
AcDbLine
 10
7.992000000000001
 20
2.183
 30
0.0
 11
7.891
 21
2.206
 31
0.0
  0
LINE
  5
1B5
330
18
100
AcDbEntity
  8
0
100
AcDbLine
 10
7.992000000000001
 20
2.148
 30
0.0
 11
7.891
 21
2.171
 31
0.0
  0
LINE
  5
1B6
330
18
100
AcDbEntity
  8
0
100
AcDbLine
 10
7.891
 20
2.171
 30
0.0
 11
7.891
 21
2.206
 31
0.0
  0
LINE
  5
1B7
330
18
100
AcDbEntity
  8
0
100
AcDbLine
 10
7.891
 20
2.171
 30
0.0
 11
7.91
 21
2.183
 31
0.0
  0
LINE
  5
1B8
330
18
100
AcDbEntity
  8
0
100
AcDbLine
 10
7.91
 20
2.183
 30
0.0
 11
7.91
 21
2.202
 31
0.0
  0
LINE
  5
1B9
330
18
100
AcDbEntity
  8
0
100
AcDbLine
 10
7.768
 20
2.2
 30
0.0
 11
7.667999999999999
 21
2.223
 31
0.0
  0
LINE
  5
1BA
330
18
100
AcDbEntity
  8
0
100
AcDbLine
 10
7.667999999999999
 20
2.223
 30
0.0
 11
7.686
 21
2.235
 31
0.0
  0
LINE
  5
1BB
330
18
100
AcDbEntity
  8
0
100
AcDbLine
 10
7.768
 20
2.235
 30
0.0
 11
7.667999999999999
 21
2.258
 31
0.0
  0
LINE
  5
1BC
330
18
100
AcDbEntity
  8
0
100
AcDbLine
 10
7.667999999999999
 20
2.223
 30
0.0
 11
7.667999999999999
 21
2.258
 31
0.0
  0
LINE
  5
1BD
330
18
100
AcDbEntity
  8
0
100
AcDbLine
 10
7.686
 20
2.235
 30
0.0
 11
7.686
 21
2.254
 31
0.0
  0
LINE
  5
1BE
330
18
100
AcDbEntity
  8
0
100
AcDbLine
 10
7.541
 20
2.288
 30
0.0
 11
7.441
 21
2.311
 31
0.0
  0
LINE
  5
1BF
330
18
100
AcDbEntity
  8
0
100
AcDbLine
 10
7.541
 20
2.253
 30
0.0
 11
7.441
 21
2.276
 31
0.0
  0
LINE
  5
1C0
330
18
100
AcDbEntity
  8
0
100
AcDbLine
 10
8.935000000000001
 20
1.879
 30
0.0
 11
8.935000000000001
 21
0.496
 31
0.0
  0
LINE
  5
1C1
330
18
100
AcDbEntity
  8
0
100
AcDbLine
 10
9.144
 20
1.992
 30
0.0
 11
9.144
 21
0.608
 31
0.0
  0
LINE
  5
1C2
330
18
100
AcDbEntity
  8
0
100
AcDbLine
 10
2.661
 20
3.722
 30
0.0
 11
4.526
 21
4.998
 31
0.0
  0
LINE
  5
1C3
330
18
100
AcDbEntity
  8
0
100
AcDbLine
 10
2.955
 20
3.759
 30
0.0
 11
4.636
 21
4.877
 31
0.0
  0
LINE
  5
1C4
330
18
100
AcDbEntity
  8
0
100
AcDbLine
 10
2.661
 20
3.722
 30
0.0
 11
6.522
 21
2.805
 31
0.0
  0
LINE
  5
1C5
330
18
100
AcDbEntity
  8
0
100
AcDbLine
 10
2.955
 20
3.759
 30
0.0
 11
6.348
 21
2.996
 31
0.0
  0
LINE
  5
1C6
330
18
100
AcDbEntity
  8
0
100
AcDbLine
 10
8.926
 20
0.491
 30
0.0
 11
8.935000000000001
 21
0.509
 31
0.0
  0
LINE
  5
1C7
330
18
100
AcDbEntity
  8
0
100
AcDbLine
 10
9.136000000000001
 20
0.604
 30
0.0
 11
9.144
 21
0.624
 31
0.0
  0
LINE
  5
1C8
330
18
100
AcDbEntity
  8
0
100
AcDbLine
 10
8.935000000000001
 20
0.496
 30
0.0
 11
8.93
 21
0.498
 31
0.0
  0
LINE
  5
1C9
330
18
100
AcDbEntity
  8
0
100
AcDbLine
 10
9.144
 20
0.608
 30
0.0
 11
9.138
 21
0.61
 31
0.0
  0
LINE
  5
1CA
330
18
100
AcDbEntity
  8
0
100
AcDbLine
 10
8.935000000000001
 20
0.496
 30
0.0
 11
9.136000000000001
 21
0.604
 31
0.0
  0
LINE
  5
1CB
330
18
100
AcDbEntity
  8
0
100
AcDbLine
 10
9.144
 20
0.608
 30
0.0
 11
9.353
 21
0.72
 31
0.0
  0
LINE
  5
1CC
330
18
100
AcDbEntity
  8
0
100
AcDbLine
 10
2.159
 20
4.235
 30
0.0
 11
1.318
 21
4.403000000000001
 31
0.0
  0
LINE
  5
1CD
330
18
100
AcDbEntity
  8
0
100
AcDbLine
 10
2.159
 20
4.235
 30
0.0
 11
2.183
 21
4.243
 31
0.0
  0
LINE
  5
1CE
330
18
100
AcDbEntity
  8
0
100
AcDbLine
 10
2.183
 20
4.243
 30
0.0
 11
1.318
 21
4.416
 31
0.0
  0
LINE
  5
1CF
330
18
100
AcDbEntity
  8
0
100
AcDbLine
 10
1.557
 20
4.144
 30
0.0
 11
1.46
 21
4.167
 31
0.0
  0
LINE
  5
1D0
330
18
100
AcDbEntity
  8
0
100
AcDbLine
 10
1.557
 20
4.178
 30
0.0
 11
1.46
 21
4.201000000000001
 31
0.0
  0
LINE
  5
1D1
330
18
100
AcDbEntity
  8
0
100
AcDbLine
 10
1.697
 20
4.127
 30
0.0
 11
1.697
 21
4.145
 31
0.0
  0
LINE
  5
1D2
330
18
100
AcDbEntity
  8
0
100
AcDbLine
 10
1.68
 20
4.116000000000001
 30
0.0
 11
1.68
 21
4.149
 31
0.0
  0
LINE
  5
1D3
330
18
100
AcDbEntity
  8
0
100
AcDbLine
 10
1.777
 20
4.127
 30
0.0
 11
1.68
 21
4.149
 31
0.0
  0
LINE
  5
1D4
330
18
100
AcDbEntity
  8
0
100
AcDbLine
 10
1.68
 20
4.116000000000001
 30
0.0
 11
1.697
 21
4.127
 31
0.0
  0
LINE
  5
1D5
330
18
100
AcDbEntity
  8
0
100
AcDbLine
 10
1.777
 20
4.093
 30
0.0
 11
1.68
 21
4.116000000000001
 31
0.0
  0
LINE
  5
1D6
330
18
100
AcDbEntity
  8
0
100
AcDbLine
 10
1.914
 20
4.077
 30
0.0
 11
1.914
 21
4.095
 31
0.0
  0
LINE
  5
1D7
330
18
100
AcDbEntity
  8
0
100
AcDbLine
 10
1.896
 20
4.066
 30
0.0
 11
1.914
 21
4.077
 31
0.0
  0
LINE
  5
1D8
330
18
100
AcDbEntity
  8
0
100
AcDbLine
 10
1.896
 20
4.066
 30
0.0
 11
1.896
 21
4.099
 31
0.0
  0
LINE
  5
1D9
330
18
100
AcDbEntity
  8
0
100
AcDbLine
 10
1.993
 20
4.043
 30
0.0
 11
1.896
 21
4.066
 31
0.0
  0
LINE
  5
1DA
330
18
100
AcDbEntity
  8
0
100
AcDbLine
 10
1.993
 20
4.077
 30
0.0
 11
1.896
 21
4.099
 31
0.0
  0
LINE
  5
1DB
330
18
100
AcDbEntity
  8
0
100
AcDbLine
 10
1.773
 20
3.696
 30
0.0
 11
1.676
 21
3.72
 31
0.0
  0
LINE
  5
1DC
330
18
100
AcDbEntity
  8
0
100
AcDbLine
 10
1.676
 20
3.686
 30
0.0
 11
1.676
 21
3.72
 31
0.0
  0
LINE
  5
1DD
330
18
100
AcDbEntity
  8
0
100
AcDbLine
 10
1.676
 20
3.686
 30
0.0
 11
1.694
 21
3.697
 31
0.0
  0
LINE
  5
1DE
330
18
100
AcDbEntity
  8
0
100
AcDbLine
 10
1.694
 20
3.697
 30
0.0
 11
1.694
 21
3.715
 31
0.0
  0
LINE
  5
1DF
330
18
100
AcDbEntity
  8
0
100
AcDbLine
 10
1.554
 20
3.75
 30
0.0
 11
1.457
 21
3.774
 31
0.0
  0
LINE
  5
1E0
330
18
100
AcDbEntity
  8
0
100
AcDbLine
 10
1.553
 20
3.716
 30
0.0
 11
1.457
 21
3.74
 31
0.0
  0
LINE
  5
1E1
330
18
100
AcDbEntity
  8
0
100
AcDbLine
 10
1.772
 20
3.662
 30
0.0
 11
1.676
 21
3.686
 31
0.0
  0
LINE
  5
1E2
330
18
100
AcDbEntity
  8
0
100
AcDbLine
 10
1.777
 20
3.902
 30
0.0
 11
1.68
 21
3.925
 31
0.0
  0
LINE
  5
1E3
330
18
100
AcDbEntity
  8
0
100
AcDbLine
 10
1.68
 20
3.891
 30
0.0
 11
1.68
 21
3.925
 31
0.0
  0
LINE
  5
1E4
330
18
100
AcDbEntity
  8
0
100
AcDbLine
 10
1.68
 20
3.891
 30
0.0
 11
1.697
 21
3.902
 31
0.0
  0
LINE
  5
1E5
330
18
100
AcDbEntity
  8
0
100
AcDbLine
 10
1.697
 20
3.902
 30
0.0
 11
1.697
 21
3.921
 31
0.0
  0
LINE
  5
1E6
330
18
100
AcDbEntity
  8
0
100
AcDbLine
 10
1.557
 20
3.953
 30
0.0
 11
1.46
 21
3.976
 31
0.0
  0
LINE
  5
1E7
330
18
100
AcDbEntity
  8
0
100
AcDbLine
 10
1.557
 20
3.92
 30
0.0
 11
1.46
 21
3.942
 31
0.0
  0
LINE
  5
1E8
330
18
100
AcDbEntity
  8
0
100
AcDbLine
 10
1.993
 20
3.852
 30
0.0
 11
1.896
 21
3.874
 31
0.0
  0
LINE
  5
1E9
330
18
100
AcDbEntity
  8
0
100
AcDbLine
 10
1.993
 20
3.818
 30
0.0
 11
1.896
 21
3.841
 31
0.0
  0
LINE
  5
1EA
330
18
100
AcDbEntity
  8
0
100
AcDbLine
 10
1.896
 20
3.841
 30
0.0
 11
1.896
 21
3.874
 31
0.0
  0
LINE
  5
1EB
330
18
100
AcDbEntity
  8
0
100
AcDbLine
 10
1.896
 20
3.841
 30
0.0
 11
1.914
 21
3.852
 31
0.0
  0
LINE
  5
1EC
330
18
100
AcDbEntity
  8
0
100
AcDbLine
 10
1.914
 20
3.852
 30
0.0
 11
1.914
 21
3.87
 31
0.0
  0
LINE
  5
1ED
330
18
100
AcDbEntity
  8
0
100
AcDbLine
 10
1.777
 20
3.868
 30
0.0
 11
1.68
 21
3.891
 31
0.0
  0
LINE
  5
1EE
330
18
100
AcDbEntity
  8
0
100
AcDbLine
 10
1.478
 20
4.178
 30
0.0
 11
1.478
 21
4.196000000000001
 31
0.0
  0
LINE
  5
1EF
330
18
100
AcDbEntity
  8
0
100
AcDbLine
 10
1.46
 20
4.167
 30
0.0
 11
1.478
 21
4.178
 31
0.0
  0
LINE
  5
1F0
330
18
100
AcDbEntity
  8
0
100
AcDbLine
 10
1.46
 20
4.167
 30
0.0
 11
1.46
 21
4.201000000000001
 31
0.0
  0
LINE
  5
1F1
330
18
100
AcDbEntity
  8
0
100
AcDbLine
 10
1.457
 20
3.74
 30
0.0
 11
1.457
 21
3.774
 31
0.0
  0
LINE
  5
1F2
330
18
100
AcDbEntity
  8
0
100
AcDbLine
 10
1.457
 20
3.74
 30
0.0
 11
1.475
 21
3.752
 31
0.0
  0
LINE
  5
1F3
330
18
100
AcDbEntity
  8
0
100
AcDbLine
 10
1.475
 20
3.752
 30
0.0
 11
1.475
 21
3.77
 31
0.0
  0
LINE
  5
1F4
330
18
100
AcDbEntity
  8
0
100
AcDbLine
 10
1.46
 20
3.942
 30
0.0
 11
1.46
 21
3.976
 31
0.0
  0
LINE
  5
1F5
330
18
100
AcDbEntity
  8
0
100
AcDbLine
 10
1.46
 20
3.942
 30
0.0
 11
1.478
 21
3.954
 31
0.0
  0
LINE
  5
1F6
330
18
100
AcDbEntity
  8
0
100
AcDbLine
 10
1.478
 20
3.954
 30
0.0
 11
1.478
 21
3.972
 31
0.0
  0
LINE
  5
1F7
330
18
100
AcDbEntity
  8
0
100
AcDbLine
 10
2.102
 20
3.937
 30
0.0
 11
2.005
 21
3.96
 31
0.0
  0
LINE
  5
1F8
330
18
100
AcDbEntity
  8
0
100
AcDbLine
 10
2.102
 20
3.904
 30
0.0
 11
2.005
 21
3.926
 31
0.0
  0
LINE
  5
1F9
330
18
100
AcDbEntity
  8
0
100
AcDbLine
 10
2.005
 20
3.926
 30
0.0
 11
2.005
 21
3.96
 31
0.0
  0
LINE
  5
1FA
330
18
100
AcDbEntity
  8
0
100
AcDbLine
 10
2.005
 20
3.926
 30
0.0
 11
2.022
 21
3.938
 31
0.0
  0
LINE
  5
1FB
330
18
100
AcDbEntity
  8
0
100
AcDbLine
 10
2.022
 20
3.938
 30
0.0
 11
2.022
 21
3.956
 31
0.0
  0
LINE
  5
1FC
330
18
100
AcDbEntity
  8
0
100
AcDbLine
 10
1.684
 20
4.001
 30
0.0
 11
1.587
 21
4.023
 31
0.0
  0
LINE
  5
1FD
330
18
100
AcDbEntity
  8
0
100
AcDbLine
 10
1.821
 20
3.984
 30
0.0
 11
1.821
 21
4.002
 31
0.0
  0
LINE
  5
1FE
330
18
100
AcDbEntity
  8
0
100
AcDbLine
 10
1.804
 20
3.973
 30
0.0
 11
1.821
 21
3.984
 31
0.0
  0
LINE
  5
1FF
330
18
100
AcDbEntity
  8
0
100
AcDbLine
 10
1.804
 20
3.973
 30
0.0
 11
1.804
 21
4.007
 31
0.0
  0
LINE
  5
200
330
18
100
AcDbEntity
  8
0
100
AcDbLine
 10
1.901
 20
3.95
 30
0.0
 11
1.804
 21
3.973
 31
0.0
  0
LINE
  5
201
330
18
100
AcDbEntity
  8
0
100
AcDbLine
 10
1.901
 20
3.984
 30
0.0
 11
1.804
 21
4.007
 31
0.0
  0
LINE
  5
202
330
18
100
AcDbEntity
  8
0
100
AcDbLine
 10
1.385
 20
4.086
 30
0.0
 11
1.385
 21
4.104
 31
0.0
  0
LINE
  5
203
330
18
100
AcDbEntity
  8
0
100
AcDbLine
 10
1.367
 20
4.074
 30
0.0
 11
1.385
 21
4.086
 31
0.0
  0
LINE
  5
204
330
18
100
AcDbEntity
  8
0
100
AcDbLine
 10
1.367
 20
4.074
 30
0.0
 11
1.367
 21
4.108000000000001
 31
0.0
  0
LINE
  5
205
330
18
100
AcDbEntity
  8
0
100
AcDbLine
 10
1.464
 20
4.052
 30
0.0
 11
1.367
 21
4.074
 31
0.0
  0
LINE
  5
206
330
18
100
AcDbEntity
  8
0
100
AcDbLine
 10
1.464
 20
4.085
 30
0.0
 11
1.367
 21
4.108000000000001
 31
0.0
  0
LINE
  5
207
330
18
100
AcDbEntity
  8
0
100
AcDbLine
 10
1.605
 20
4.035
 30
0.0
 11
1.605
 21
4.053
 31
0.0
  0
LINE
  5
208
330
18
100
AcDbEntity
  8
0
100
AcDbLine
 10
1.587
 20
4.023
 30
0.0
 11
1.605
 21
4.035
 31
0.0
  0
LINE
  5
209
330
18
100
AcDbEntity
  8
0
100
AcDbLine
 10
1.587
 20
4.023
 30
0.0
 11
1.587
 21
4.057
 31
0.0
  0
LINE
  5
20A
330
18
100
AcDbEntity
  8
0
100
AcDbLine
 10
1.684
 20
4.034
 30
0.0
 11
1.587
 21
4.057
 31
0.0
  0
LINE
  5
20B
330
18
100
AcDbEntity
  8
0
100
AcDbLine
 10
2.097
 20
3.725
 30
0.0
 11
2.0
 21
3.749
 31
0.0
  0
LINE
  5
20C
330
18
100
AcDbEntity
  8
0
100
AcDbLine
 10
2.096
 20
3.692
 30
0.0
 11
1.999
 21
3.716
 31
0.0
  0
LINE
  5
20D
330
18
100
AcDbEntity
  8
0
100
AcDbLine
 10
1.999
 20
3.716
 30
0.0
 11
2.0
 21
3.749
 31
0.0
  0
LINE
  5
20E
330
18
100
AcDbEntity
  8
0
100
AcDbLine
 10
1.999
 20
3.716
 30
0.0
 11
2.017
 21
3.727
 31
0.0
  0
LINE
  5
20F
330
18
100
AcDbEntity
  8
0
100
AcDbLine
 10
2.017
 20
3.727
 30
0.0
 11
2.017
 21
3.745
 31
0.0
  0
LINE
  5
210
330
18
100
AcDbEntity
  8
0
100
AcDbLine
 10
1.68
 20
3.795
 30
0.0
 11
1.583
 21
3.818
 31
0.0
  0
LINE
  5
211
330
18
100
AcDbEntity
  8
0
100
AcDbLine
 10
1.817
 20
3.776
 30
0.0
 11
1.817
 21
3.794
 31
0.0
  0
LINE
  5
212
330
18
100
AcDbEntity
  8
0
100
AcDbLine
 10
1.799
 20
3.765
 30
0.0
 11
1.817
 21
3.776
 31
0.0
  0
LINE
  5
213
330
18
100
AcDbEntity
  8
0
100
AcDbLine
 10
1.799
 20
3.765
 30
0.0
 11
1.799
 21
3.799
 31
0.0
  0
LINE
  5
214
330
18
100
AcDbEntity
  8
0
100
AcDbLine
 10
1.896
 20
3.741
 30
0.0
 11
1.799
 21
3.765
 31
0.0
  0
LINE
  5
215
330
18
100
AcDbEntity
  8
0
100
AcDbLine
 10
1.896
 20
3.775
 30
0.0
 11
1.799
 21
3.799
 31
0.0
  0
LINE
  5
216
330
18
100
AcDbEntity
  8
0
100
AcDbLine
 10
1.382
 20
3.884
 30
0.0
 11
1.382
 21
3.902
 31
0.0
  0
LINE
  5
217
330
18
100
AcDbEntity
  8
0
100
AcDbLine
 10
1.364
 20
3.873
 30
0.0
 11
1.382
 21
3.884
 31
0.0
  0
LINE
  5
218
330
18
100
AcDbEntity
  8
0
100
AcDbLine
 10
1.364
 20
3.873
 30
0.0
 11
1.365
 21
3.906
 31
0.0
  0
LINE
  5
219
330
18
100
AcDbEntity
  8
0
100
AcDbLine
 10
1.461
 20
3.849
 30
0.0
 11
1.364
 21
3.873
 31
0.0
  0
LINE
  5
21A
330
18
100
AcDbEntity
  8
0
100
AcDbLine
 10
1.461
 20
3.882
 30
0.0
 11
1.365
 21
3.906
 31
0.0
  0
LINE
  5
21B
330
18
100
AcDbEntity
  8
0
100
AcDbLine
 10
1.601
 20
3.83
 30
0.0
 11
1.601
 21
3.848
 31
0.0
  0
LINE
  5
21C
330
18
100
AcDbEntity
  8
0
100
AcDbLine
 10
1.583
 20
3.818
 30
0.0
 11
1.601
 21
3.83
 31
0.0
  0
LINE
  5
21D
330
18
100
AcDbEntity
  8
0
100
AcDbLine
 10
1.583
 20
3.818
 30
0.0
 11
1.584
 21
3.852
 31
0.0
  0
LINE
  5
21E
330
18
100
AcDbEntity
  8
0
100
AcDbLine
 10
1.68
 20
3.828
 30
0.0
 11
1.584
 21
3.852
 31
0.0
  0
LINE
  5
21F
330
18
100
AcDbEntity
  8
0
100
AcDbLine
 10
1.382
 20
3.67
 30
0.0
 11
1.383
 21
3.688
 31
0.0
  0
LINE
  5
220
330
18
100
AcDbEntity
  8
0
100
AcDbLine
 10
1.365
 20
3.658
 30
0.0
 11
1.382
 21
3.67
 31
0.0
  0
LINE
  5
221
330
18
100
AcDbEntity
  8
0
100
AcDbLine
 10
1.365
 20
3.658
 30
0.0
 11
1.365
 21
3.692
 31
0.0
  0
LINE
  5
222
330
18
100
AcDbEntity
  8
0
100
AcDbLine
 10
1.461
 20
3.635
 30
0.0
 11
1.365
 21
3.658
 31
0.0
  0
LINE
  5
223
330
18
100
AcDbEntity
  8
0
100
AcDbLine
 10
1.462
 20
3.668
 30
0.0
 11
1.365
 21
3.692
 31
0.0
  0
LINE
  5
224
330
18
100
AcDbEntity
  8
0
100
AcDbLine
 10
1.901
 20
4.209
 30
0.0
 11
1.804
 21
4.231
 31
0.0
  0
LINE
  5
225
330
18
100
AcDbEntity
  8
0
100
AcDbLine
 10
1.901
 20
4.175
 30
0.0
 11
1.804
 21
4.198
 31
0.0
  0
LINE
  5
226
330
18
100
AcDbEntity
  8
0
100
AcDbLine
 10
1.804
 20
4.198
 30
0.0
 11
1.804
 21
4.231
 31
0.0
  0
LINE
  5
227
330
18
100
AcDbEntity
  8
0
100
AcDbLine
 10
1.804
 20
4.198
 30
0.0
 11
1.821
 21
4.209
 31
0.0
  0
LINE
  5
228
330
18
100
AcDbEntity
  8
0
100
AcDbLine
 10
1.821
 20
4.209
 30
0.0
 11
1.821
 21
4.227
 31
0.0
  0
LINE
  5
229
330
18
100
AcDbEntity
  8
0
100
AcDbLine
 10
1.684
 20
4.259
 30
0.0
 11
1.587
 21
4.282
 31
0.0
  0
LINE
  5
22A
330
18
100
AcDbEntity
  8
0
100
AcDbLine
 10
1.684
 20
4.226
 30
0.0
 11
1.587
 21
4.248
 31
0.0
  0
LINE
  5
22B
330
18
100
AcDbEntity
  8
0
100
AcDbLine
 10
1.587
 20
4.248
 30
0.0
 11
1.587
 21
4.282
 31
0.0
  0
LINE
  5
22C
330
18
100
AcDbEntity
  8
0
100
AcDbLine
 10
1.587
 20
4.248
 30
0.0
 11
1.605
 21
4.26
 31
0.0
  0
LINE
  5
22D
330
18
100
AcDbEntity
  8
0
100
AcDbLine
 10
1.605
 20
4.26
 30
0.0
 11
1.605
 21
4.278000000000001
 31
0.0
  0
LINE
  5
22E
330
18
100
AcDbEntity
  8
0
100
AcDbLine
 10
1.464
 20
4.31
 30
0.0
 11
1.367
 21
4.333
 31
0.0
  0
LINE
  5
22F
330
18
100
AcDbEntity
  8
0
100
AcDbLine
 10
1.464
 20
4.277
 30
0.0
 11
1.367
 21
4.299
 31
0.0
  0
LINE
  5
230
330
18
100
AcDbEntity
  8
0
100
AcDbLine
 10
1.367
 20
4.299
 30
0.0
 11
1.367
 21
4.333
 31
0.0
  0
LINE
  5
231
330
18
100
AcDbEntity
  8
0
100
AcDbLine
 10
1.367
 20
4.299
 30
0.0
 11
1.385
 21
4.311
 31
0.0
  0
LINE
  5
232
330
18
100
AcDbEntity
  8
0
100
AcDbLine
 10
1.385
 20
4.311
 30
0.0
 11
1.385
 21
4.329
 31
0.0
  0
LINE
  5
233
330
18
100
AcDbEntity
  8
0
100
AcDbLine
 10
2.022
 20
4.162
 30
0.0
 11
2.022
 21
4.181
 31
0.0
  0
LINE
  5
234
330
18
100
AcDbEntity
  8
0
100
AcDbLine
 10
2.005
 20
4.151
 30
0.0
 11
2.022
 21
4.162
 31
0.0
  0
LINE
  5
235
330
18
100
AcDbEntity
  8
0
100
AcDbLine
 10
2.005
 20
4.151
 30
0.0
 11
2.005
 21
4.185
 31
0.0
  0
LINE
  5
236
330
18
100
AcDbEntity
  8
0
100
AcDbLine
 10
2.102
 20
4.128
 30
0.0
 11
2.005
 21
4.151
 31
0.0
  0
LINE
  5
237
330
18
100
AcDbEntity
  8
0
100
AcDbLine
 10
2.102
 20
4.162
 30
0.0
 11
2.005
 21
4.185
 31
0.0
  0
LINE
  5
238
330
18
100
AcDbEntity
  8
0
100
AcDbLine
 10
0.8290000000000001
 20
3.563
 30
0.0
 11
0.985
 21
3.511
 31
0.0
  0
LINE
  5
239
330
18
100
AcDbEntity
  8
0
100
AcDbLine
 10
3.804
 20
5.791
 30
0.0
 11
1.796
 21
4.32
 31
0.0
  0
LINE
  5
23A
330
18
100
AcDbEntity
  8
0
100
AcDbLine
 10
1.796
 20
4.32
 30
0.0
 11
1.446
 21
6.332999999999999
 31
0.0
  0
LINE
  5
23B
330
18
100
AcDbEntity
  8
0
100
AcDbLine
 10
4.913
 20
5.51
 30
0.0
 11
3.846
 21
4.792
 31
0.0
  0
LINE
  5
23C
330
18
100
AcDbEntity
  8
0
100
AcDbLine
 10
4.425
 20
6.157
 30
0.0
 11
3.389
 21
5.398
 31
0.0
  0
LINE
  5
23D
330
18
100
AcDbEntity
  8
0
100
AcDbLine
 10
3.389
 20
5.398
 30
0.0
 11
3.846
 21
4.792
 31
0.0
  0
LINE
  5
23E
330
18
100
AcDbEntity
  8
0
100
AcDbLine
 10
4.425
 20
6.157
 30
0.0
 11
4.913
 21
5.51
 31
0.0
  0
LINE
  5
23F
330
18
100
AcDbEntity
  8
0
100
AcDbLine
 10
3.853
 20
5.738
 30
0.0
 11
3.311
 21
6.332999999999999
 31
0.0
  0
LINE
  5
240
330
18
100
AcDbEntity
  8
0
100
AcDbLine
 10
4.451000000000001
 20
6.162000000000001
 30
0.0
 11
4.936
 21
5.519
 31
0.0
  0
LINE
  5
241
330
18
100
AcDbEntity
  8
0
100
AcDbLine
 10
4.936
 20
5.519
 30
0.0
 11
3.865
 21
4.798
 31
0.0
  0
LINE
  5
242
330
18
100
AcDbEntity
  8
0
100
AcDbLine
 10
4.425
 20
6.157
 30
0.0
 11
4.451000000000001
 21
6.162000000000001
 31
0.0
  0
LINE
  5
243
330
18
100
AcDbEntity
  8
0
100
AcDbLine
 10
4.913
 20
5.51
 30
0.0
 11
4.936
 21
5.519
 31
0.0
  0
LINE
  5
244
330
18
100
AcDbEntity
  8
0
100
AcDbLine
 10
3.846
 20
4.792
 30
0.0
 11
3.865
 21
4.798
 31
0.0
  0
LINE
  5
245
330
18
100
AcDbEntity
  8
0
100
AcDbLine
 10
4.42
 20
6.093999999999999
 30
0.0
 11
4.352
 21
6.044
 31
0.0
  0
LINE
  5
246
330
18
100
AcDbEntity
  8
0
100
AcDbLine
 10
4.434
 20
6.076000000000001
 30
0.0
 11
4.365
 21
6.026
 31
0.0
  0
LINE
  5
247
330
18
100
AcDbEntity
  8
0
100
AcDbLine
 10
4.352
 20
6.044
 30
0.0
 11
4.365
 21
6.026
 31
0.0
  0
LINE
  5
248
330
18
100
AcDbEntity
  8
0
100
AcDbLine
 10
4.352
 20
6.044
 30
0.0
 11
4.371
 21
6.047999999999999
 31
0.0
  0
LINE
  5
249
330
18
100
AcDbEntity
  8
0
100
AcDbLine
 10
4.371
 20
6.047999999999999
 30
0.0
 11
4.379
 21
6.036000000000001
 31
0.0
  0
LINE
  5
24A
330
18
100
AcDbEntity
  8
0
100
AcDbLine
 10
3.478
 20
5.395
 30
0.0
 11
3.486
 21
5.382999999999999
 31
0.0
  0
LINE
  5
24B
330
18
100
AcDbEntity
  8
0
100
AcDbLine
 10
3.459
 20
5.391
 30
0.0
 11
3.478
 21
5.395
 31
0.0
  0
LINE
  5
24C
330
18
100
AcDbEntity
  8
0
100
AcDbLine
 10
3.459
 20
5.391
 30
0.0
 11
3.472
 21
5.372999999999999
 31
0.0
  0
LINE
  5
24D
330
18
100
AcDbEntity
  8
0
100
AcDbLine
 10
3.541
 20
5.422999999999999
 30
0.0
 11
3.472
 21
5.372999999999999
 31
0.0
  0
LINE
  5
24E
330
18
100
AcDbEntity
  8
0
100
AcDbLine
 10
3.527
 20
5.441
 30
0.0
 11
3.459
 21
5.391
 31
0.0
  0
LINE
  5
24F
330
18
100
AcDbEntity
  8
0
100
AcDbLine
 10
3.651
 20
5.522
 30
0.0
 11
3.659
 21
5.51
 31
0.0
  0
LINE
  5
250
330
18
100
AcDbEntity
  8
0
100
AcDbLine
 10
3.632
 20
5.518
 30
0.0
 11
3.651
 21
5.522
 31
0.0
  0
LINE
  5
251
330
18
100
AcDbEntity
  8
0
100
AcDbLine
 10
3.632
 20
5.518
 30
0.0
 11
3.645
 21
5.5
 31
0.0
  0
LINE
  5
252
330
18
100
AcDbEntity
  8
0
100
AcDbLine
 10
3.714
 20
5.55
 30
0.0
 11
3.645
 21
5.5
 31
0.0
  0
LINE
  5
253
330
18
100
AcDbEntity
  8
0
100
AcDbLine
 10
3.7
 20
5.568
 30
0.0
 11
3.632
 21
5.518
 31
0.0
  0
LINE
  5
254
330
18
100
AcDbEntity
  8
0
100
AcDbLine
 10
3.846
 20
5.664
 30
0.0
 11
3.853
 21
5.652
 31
0.0
  0
LINE
  5
255
330
18
100
AcDbEntity
  8
0
100
AcDbLine
 10
3.826
 20
5.66
 30
0.0
 11
3.846
 21
5.664
 31
0.0
  0
LINE
  5
256
330
18
100
AcDbEntity
  8
0
100
AcDbLine
 10
3.826
 20
5.66
 30
0.0
 11
3.84
 21
5.642
 31
0.0
  0
LINE
  5
257
330
18
100
AcDbEntity
  8
0
100
AcDbLine
 10
3.908
 20
5.692
 30
0.0
 11
3.84
 21
5.642
 31
0.0
  0
LINE
  5
258
330
18
100
AcDbEntity
  8
0
100
AcDbLine
 10
3.894
 20
5.71
 30
0.0
 11
3.826
 21
5.66
 31
0.0
  0
LINE
  5
259
330
18
100
AcDbEntity
  8
0
100
AcDbLine
 10
4.031000000000001
 20
5.8
 30
0.0
 11
4.039
 21
5.787999999999999
 31
0.0
  0
LINE
  5
25A
330
18
100
AcDbEntity
  8
0
100
AcDbLine
 10
4.012
 20
5.796
 30
0.0
 11
4.031000000000001
 21
5.8
 31
0.0
  0
LINE
  5
25B
330
18
100
AcDbEntity
  8
0
100
AcDbLine
 10
4.012
 20
5.796
 30
0.0
 11
4.025
 21
5.778
 31
0.0
  0
LINE
  5
25C
330
18
100
AcDbEntity
  8
0
100
AcDbLine
 10
4.093
 20
5.827999999999999
 30
0.0
 11
4.025
 21
5.778
 31
0.0
  0
LINE
  5
25D
330
18
100
AcDbEntity
  8
0
100
AcDbLine
 10
4.08
 20
5.846
 30
0.0
 11
4.012
 21
5.796
 31
0.0
  0
LINE
  5
25E
330
18
100
AcDbEntity
  8
0
100
AcDbLine
 10
4.208
 20
5.928999999999999
 30
0.0
 11
4.216
 21
5.917000000000001
 31
0.0
  0
LINE
  5
25F
330
18
100
AcDbEntity
  8
0
100
AcDbLine
 10
4.189
 20
5.925
 30
0.0
 11
4.208
 21
5.928999999999999
 31
0.0
  0
LINE
  5
260
330
18
100
AcDbEntity
  8
0
100
AcDbLine
 10
4.189
 20
5.925
 30
0.0
 11
4.202
 21
5.907
 31
0.0
  0
LINE
  5
261
330
18
100
AcDbEntity
  8
0
100
AcDbLine
 10
4.27
 20
5.957000000000001
 30
0.0
 11
4.202
 21
5.907
 31
0.0
  0
LINE
  5
262
330
18
100
AcDbEntity
  8
0
100
AcDbLine
 10
4.257
 20
5.975
 30
0.0
 11
4.189
 21
5.925
 31
0.0
  0
LINE
  5
263
330
18
100
AcDbEntity
  8
0
100
AcDbLine
 10
4.287
 20
5.178
 30
0.0
 11
4.217
 21
5.129
 31
0.0
  0
LINE
  5
264
330
18
100
AcDbEntity
  8
0
100
AcDbLine
 10
4.3
 20
5.16
 30
0.0
 11
4.23
 21
5.111000000000001
 31
0.0
  0
LINE
  5
265
330
18
100
AcDbEntity
  8
0
100
AcDbLine
 10
4.217
 20
5.129
 30
0.0
 11
4.23
 21
5.111000000000001
 31
0.0
  0
LINE
  5
266
330
18
100
AcDbEntity
  8
0
100
AcDbLine
 10
4.217
 20
5.129
 30
0.0
 11
4.237
 21
5.132999999999999
 31
0.0
  0
LINE
  5
267
330
18
100
AcDbEntity
  8
0
100
AcDbLine
 10
4.237
 20
5.132999999999999
 30
0.0
 11
4.244
 21
5.121
 31
0.0
  0
LINE
  5
268
330
18
100
AcDbEntity
  8
0
100
AcDbLine
 10
4.089
 20
5.04
 30
0.0
 11
4.02
 21
4.992
 31
0.0
  0
LINE
  5
269
330
18
100
AcDbEntity
  8
0
100
AcDbLine
 10
4.102
 20
5.022
 30
0.0
 11
4.033
 21
4.974
 31
0.0
  0
LINE
  5
26A
330
18
100
AcDbEntity
  8
0
100
AcDbLine
 10
4.02
 20
4.992
 30
0.0
 11
4.033
 21
4.974
 31
0.0
  0
LINE
  5
26B
330
18
100
AcDbEntity
  8
0
100
AcDbLine
 10
4.02
 20
4.992
 30
0.0
 11
4.039
 21
4.996
 31
0.0
  0
LINE
  5
26C
330
18
100
AcDbEntity
  8
0
100
AcDbLine
 10
4.039
 20
4.996
 30
0.0
 11
4.046
 21
4.984
 31
0.0
  0
LINE
  5
26D
330
18
100
AcDbEntity
  8
0
100
AcDbLine
 10
3.913
 20
4.918
 30
0.0
 11
3.844
 21
4.87
 31
0.0
  0
LINE
  5
26E
330
18
100
AcDbEntity
  8
0
100
AcDbLine
 10
3.926
 20
4.9
 30
0.0
 11
3.857
 21
4.852
 31
0.0
  0
LINE
  5
26F
330
18
100
AcDbEntity
  8
0
100
AcDbLine
 10
3.844
 20
4.87
 30
0.0
 11
3.857
 21
4.852
 31
0.0
  0
LINE
  5
270
330
18
100
AcDbEntity
  8
0
100
AcDbLine
 10
3.844
 20
4.87
 30
0.0
 11
3.863
 21
4.873
 31
0.0
  0
LINE
  5
271
330
18
100
AcDbEntity
  8
0
100
AcDbLine
 10
3.863
 20
4.873
 30
0.0
 11
3.87
 21
4.861000000000001
 31
0.0
  0
LINE
  5
272
330
18
100
AcDbEntity
  8
0
100
AcDbLine
 10
4.656000000000001
 20
5.434
 30
0.0
 11
4.586
 21
5.386
 31
0.0
  0
LINE
  5
273
330
18
100
AcDbEntity
  8
0
100
AcDbLine
 10
4.669
 20
5.416
 30
0.0
 11
4.599
 21
5.367999999999999
 31
0.0
  0
LINE
  5
274
330
18
100
AcDbEntity
  8
0
100
AcDbLine
 10
4.586
 20
5.386
 30
0.0
 11
4.599
 21
5.367999999999999
 31
0.0
  0
LINE
  5
275
330
18
100
AcDbEntity
  8
0
100
AcDbLine
 10
4.586
 20
5.386
 30
0.0
 11
4.606
 21
5.388999999999999
 31
0.0
  0
LINE
  5
276
330
18
100
AcDbEntity
  8
0
100
AcDbLine
 10
4.606
 20
5.388999999999999
 30
0.0
 11
4.613
 21
5.377000000000001
 31
0.0
  0
LINE
  5
277
330
18
100
AcDbEntity
  8
0
100
AcDbLine
 10
4.475
 20
5.309
 30
0.0
 11
4.406000000000001
 21
5.261
 31
0.0
  0
LINE
  5
278
330
18
100
AcDbEntity
  8
0
100
AcDbLine
 10
4.488
 20
5.291
 30
0.0
 11
4.419
 21
5.242000000000001
 31
0.0
  0
LINE
  5
279
330
18
100
AcDbEntity
  8
0
100
AcDbLine
 10
4.406000000000001
 20
5.261
 30
0.0
 11
4.419
 21
5.242000000000001
 31
0.0
  0
LINE
  5
27A
330
18
100
AcDbEntity
  8
0
100
AcDbLine
 10
4.406000000000001
 20
5.261
 30
0.0
 11
4.425
 21
5.263999999999999
 31
0.0
  0
LINE
  5
27B
330
18
100
AcDbEntity
  8
0
100
AcDbLine
 10
4.425
 20
5.263999999999999
 30
0.0
 11
4.433
 21
5.252000000000001
 31
0.0
  0
LINE
  5
27C
330
18
100
AcDbEntity
  8
0
100
AcDbLine
 10
4.772
 20
5.504
 30
0.0
 11
4.779
 21
5.492000000000001
 31
0.0
  0
LINE
  5
27D
330
18
100
AcDbEntity
  8
0
100
AcDbLine
 10
4.753
 20
5.5
 30
0.0
 11
4.772
 21
5.504
 31
0.0
  0
LINE
  5
27E
330
18
100
AcDbEntity
  8
0
100
AcDbLine
 10
4.753
 20
5.5
 30
0.0
 11
4.766
 21
5.482
 31
0.0
  0
LINE
  5
27F
330
18
100
AcDbEntity
  8
0
100
AcDbLine
 10
4.835
 20
5.531000000000001
 30
0.0
 11
4.766
 21
5.482
 31
0.0
  0
LINE
  5
280
330
18
100
AcDbEntity
  8
0
100
AcDbLine
 10
4.822
 20
5.549
 30
0.0
 11
4.753
 21
5.5
 31
0.0
  0
LINE
  5
281
330
18
100
AcDbEntity
  8
0
100
AcDbLine
 10
4.082
 20
5.449
 30
0.0
 11
4.013999999999999
 21
5.399
 31
0.0
  0
LINE
  5
282
330
18
100
AcDbEntity
  8
0
100
AcDbLine
 10
4.096
 20
5.432
 30
0.0
 11
4.027
 21
5.382000000000001
 31
0.0
  0
LINE
  5
283
330
18
100
AcDbEntity
  8
0
100
AcDbLine
 10
4.013999999999999
 20
5.399
 30
0.0
 11
4.027
 21
5.382000000000001
 31
0.0
  0
LINE
  5
284
330
18
100
AcDbEntity
  8
0
100
AcDbLine
 10
4.013999999999999
 20
5.399
 30
0.0
 11
4.033
 21
5.403
 31
0.0
  0
LINE
  5
285
330
18
100
AcDbEntity
  8
0
100
AcDbLine
 10
4.033
 20
5.403
 30
0.0
 11
4.041
 21
5.391
 31
0.0
  0
LINE
  5
286
330
18
100
AcDbEntity
  8
0
100
AcDbLine
 10
3.888
 20
5.307
 30
0.0
 11
3.82
 21
5.257000000000001
 31
0.0
  0
LINE
  5
287
330
18
100
AcDbEntity
  8
0
100
AcDbLine
 10
3.901
 20
5.289
 30
0.0
 11
3.833
 21
5.239
 31
0.0
  0
LINE
  5
288
330
18
100
AcDbEntity
  8
0
100
AcDbLine
 10
3.82
 20
5.257000000000001
 30
0.0
 11
3.833
 21
5.239
 31
0.0
  0
LINE
  5
289
330
18
100
AcDbEntity
  8
0
100
AcDbLine
 10
3.82
 20
5.257000000000001
 30
0.0
 11
3.839
 21
5.261
 31
0.0
  0
LINE
  5
28A
330
18
100
AcDbEntity
  8
0
100
AcDbLine
 10
3.839
 20
5.261
 30
0.0
 11
3.847
 21
5.249
 31
0.0
  0
LINE
  5
28B
330
18
100
AcDbEntity
  8
0
100
AcDbLine
 10
3.715
 20
5.18
 30
0.0
 11
3.647
 21
5.131
 31
0.0
  0
LINE
  5
28C
330
18
100
AcDbEntity
  8
0
100
AcDbLine
 10
3.728
 20
5.162999999999999
 30
0.0
 11
3.66
 21
5.113
 31
0.0
  0
LINE
  5
28D
330
18
100
AcDbEntity
  8
0
100
AcDbLine
 10
3.647
 20
5.131
 30
0.0
 11
3.66
 21
5.113
 31
0.0
  0
LINE
  5
28E
330
18
100
AcDbEntity
  8
0
100
AcDbLine
 10
3.647
 20
5.131
 30
0.0
 11
3.666
 21
5.134
 31
0.0
  0
LINE
  5
28F
330
18
100
AcDbEntity
  8
0
100
AcDbLine
 10
3.666
 20
5.134
 30
0.0
 11
3.674
 21
5.122999999999999
 31
0.0
  0
LINE
  5
290
330
18
100
AcDbEntity
  8
0
100
AcDbLine
 10
4.445
 20
5.715
 30
0.0
 11
4.376
 21
5.665
 31
0.0
  0
LINE
  5
291
330
18
100
AcDbEntity
  8
0
100
AcDbLine
 10
4.458
 20
5.697
 30
0.0
 11
4.39
 21
5.647
 31
0.0
  0
LINE
  5
292
330
18
100
AcDbEntity
  8
0
100
AcDbLine
 10
4.376
 20
5.665
 30
0.0
 11
4.39
 21
5.647
 31
0.0
  0
LINE
  5
293
330
18
100
AcDbEntity
  8
0
100
AcDbLine
 10
4.376
 20
5.665
 30
0.0
 11
4.396
 21
5.669
 31
0.0
  0
LINE
  5
294
330
18
100
AcDbEntity
  8
0
100
AcDbLine
 10
4.396
 20
5.669
 30
0.0
 11
4.403000000000001
 21
5.657
 31
0.0
  0
LINE
  5
295
330
18
100
AcDbEntity
  8
0
100
AcDbLine
 10
4.268
 20
5.585
 30
0.0
 11
4.199
 21
5.535
 31
0.0
  0
LINE
  5
296
330
18
100
AcDbEntity
  8
0
100
AcDbLine
 10
4.281000000000001
 20
5.567
 30
0.0
 11
4.213
 21
5.517
 31
0.0
  0
LINE
  5
297
330
18
100
AcDbEntity
  8
0
100
AcDbLine
 10
4.199
 20
5.535
 30
0.0
 11
4.213
 21
5.517
 31
0.0
  0
LINE
  5
298
330
18
100
AcDbEntity
  8
0
100
AcDbLine
 10
4.199
 20
5.535
 30
0.0
 11
4.218999999999999
 21
5.539
 31
0.0
  0
LINE
  5
299
330
18
100
AcDbEntity
  8
0
100
AcDbLine
 10
4.218999999999999
 20
5.539
 30
0.0
 11
4.226
 21
5.527
 31
0.0
  0
LINE
  5
29A
330
18
100
AcDbEntity
  8
0
100
AcDbLine
 10
4.559
 20
5.787000000000001
 30
0.0
 11
4.567
 21
5.776
 31
0.0
  0
LINE
  5
29B
330
18
100
AcDbEntity
  8
0
100
AcDbLine
 10
4.54
 20
5.784
 30
0.0
 11
4.559
 21
5.787000000000001
 31
0.0
  0
LINE
  5
29C
330
18
100
AcDbEntity
  8
0
100
AcDbLine
 10
4.54
 20
5.784
 30
0.0
 11
4.553
 21
5.766
 31
0.0
  0
LINE
  5
29D
330
18
100
AcDbEntity
  8
0
100
AcDbLine
 10
4.621
 20
5.816
 30
0.0
 11
4.553
 21
5.766
 31
0.0
  0
LINE
  5
29E
330
18
100
AcDbEntity
  8
0
100
AcDbLine
 10
4.608000000000001
 20
5.832999999999999
 30
0.0
 11
4.54
 21
5.784
 31
0.0
  0
LINE
  5
29F
330
18
100
AcDbEntity
  8
0
100
AcDbLine
 10
4.18
 20
5.317
 30
0.0
 11
4.112
 21
5.267
 31
0.0
  0
LINE
  5
2A0
330
18
100
AcDbEntity
  8
0
100
AcDbLine
 10
4.194
 20
5.299
 30
0.0
 11
4.126
 21
5.249
 31
0.0
  0
LINE
  5
2A1
330
18
100
AcDbEntity
  8
0
100
AcDbLine
 10
4.112
 20
5.267
 30
0.0
 11
4.126
 21
5.249
 31
0.0
  0
LINE
  5
2A2
330
18
100
AcDbEntity
  8
0
100
AcDbLine
 10
4.112
 20
5.267
 30
0.0
 11
4.131
 21
5.271
 31
0.0
  0
LINE
  5
2A3
330
18
100
AcDbEntity
  8
0
100
AcDbLine
 10
4.131
 20
5.271
 30
0.0
 11
4.138999999999999
 21
5.259
 31
0.0
  0
LINE
  5
2A4
330
18
100
AcDbEntity
  8
0
100
AcDbLine
 10
3.986
 20
5.175
 30
0.0
 11
3.918
 21
5.125
 31
0.0
  0
LINE
  5
2A5
330
18
100
AcDbEntity
  8
0
100
AcDbLine
 10
4.0
 20
5.157
 30
0.0
 11
3.931
 21
5.107
 31
0.0
  0
LINE
  5
2A6
330
18
100
AcDbEntity
  8
0
100
AcDbLine
 10
3.918
 20
5.125
 30
0.0
 11
3.931
 21
5.107
 31
0.0
  0
LINE
  5
2A7
330
18
100
AcDbEntity
  8
0
100
AcDbLine
 10
3.918
 20
5.125
 30
0.0
 11
3.937
 21
5.129
 31
0.0
  0
LINE
  5
2A8
330
18
100
AcDbEntity
  8
0
100
AcDbLine
 10
3.937
 20
5.129
 30
0.0
 11
3.945
 21
5.117
 31
0.0
  0
LINE
  5
2A9
330
18
100
AcDbEntity
  8
0
100
AcDbLine
 10
3.813
 20
5.048
 30
0.0
 11
3.745
 21
4.998
 31
0.0
  0
LINE
  5
2AA
330
18
100
AcDbEntity
  8
0
100
AcDbLine
 10
3.827
 20
5.03
 30
0.0
 11
3.758
 21
4.98
 31
0.0
  0
LINE
  5
2AB
330
18
100
AcDbEntity
  8
0
100
AcDbLine
 10
3.745
 20
4.998
 30
0.0
 11
3.758
 21
4.98
 31
0.0
  0
LINE
  5
2AC
330
18
100
AcDbEntity
  8
0
100
AcDbLine
 10
3.745
 20
4.998
 30
0.0
 11
3.764
 21
5.002
 31
0.0
  0
LINE
  5
2AD
330
18
100
AcDbEntity
  8
0
100
AcDbLine
 10
3.764
 20
5.002
 30
0.0
 11
3.772
 21
4.99
 31
0.0
  0
LINE
  5
2AE
330
18
100
AcDbEntity
  8
0
100
AcDbLine
 10
4.543
 20
5.582000000000001
 30
0.0
 11
4.475
 21
5.532
 31
0.0
  0
LINE
  5
2AF
330
18
100
AcDbEntity
  8
0
100
AcDbLine
 10
4.556
 20
5.564
 30
0.0
 11
4.488
 21
5.515
 31
0.0
  0
LINE
  5
2B0
330
18
100
AcDbEntity
  8
0
100
AcDbLine
 10
4.475
 20
5.532
 30
0.0
 11
4.488
 21
5.515
 31
0.0
  0
LINE
  5
2B1
330
18
100
AcDbEntity
  8
0
100
AcDbLine
 10
4.475
 20
5.532
 30
0.0
 11
4.494
 21
5.536000000000001
 31
0.0
  0
LINE
  5
2B2
330
18
100
AcDbEntity
  8
0
100
AcDbLine
 10
4.494
 20
5.536000000000001
 30
0.0
 11
4.501
 21
5.524
 31
0.0
  0
LINE
  5
2B3
330
18
100
AcDbEntity
  8
0
100
AcDbLine
 10
4.366000000000001
 20
5.452999999999999
 30
0.0
 11
4.297
 21
5.403
 31
0.0
  0
LINE
  5
2B4
330
18
100
AcDbEntity
  8
0
100
AcDbLine
 10
4.379
 20
5.435
 30
0.0
 11
4.311
 21
5.385
 31
0.0
  0
LINE
  5
2B5
330
18
100
AcDbEntity
  8
0
100
AcDbLine
 10
4.297
 20
5.403
 30
0.0
 11
4.311
 21
5.385
 31
0.0
  0
LINE
  5
2B6
330
18
100
AcDbEntity
  8
0
100
AcDbLine
 10
4.297
 20
5.403
 30
0.0
 11
4.317
 21
5.407
 31
0.0
  0
LINE
  5
2B7
330
18
100
AcDbEntity
  8
0
100
AcDbLine
 10
4.317
 20
5.407
 30
0.0
 11
4.324
 21
5.395
 31
0.0
  0
LINE
  5
2B8
330
18
100
AcDbEntity
  8
0
100
AcDbLine
 10
4.657
 20
5.655
 30
0.0
 11
4.665
 21
5.643
 31
0.0
  0
LINE
  5
2B9
330
18
100
AcDbEntity
  8
0
100
AcDbLine
 10
4.638
 20
5.651
 30
0.0
 11
4.657
 21
5.655
 31
0.0
  0
LINE
  5
2BA
330
18
100
AcDbEntity
  8
0
100
AcDbLine
 10
4.638
 20
5.651
 30
0.0
 11
4.651
 21
5.632999999999999
 31
0.0
  0
LINE
  5
2BB
330
18
100
AcDbEntity
  8
0
100
AcDbLine
 10
4.72
 20
5.683
 30
0.0
 11
4.651
 21
5.632999999999999
 31
0.0
  0
LINE
  5
2BC
330
18
100
AcDbEntity
  8
0
100
AcDbLine
 10
4.706
 20
5.701000000000001
 30
0.0
 11
4.638
 21
5.651
 31
0.0
  0
LINE
  5
2BD
330
18
100
AcDbEntity
  8
0
100
AcDbLine
 10
3.984
 20
5.577000000000001
 30
0.0
 11
3.916
 21
5.527
 31
0.0
  0
LINE
  5
2BE
330
18
100
AcDbEntity
  8
0
100
AcDbLine
 10
3.997
 20
5.56
 30
0.0
 11
3.929
 21
5.51
 31
0.0
  0
LINE
  5
2BF
330
18
100
AcDbEntity
  8
0
100
AcDbLine
 10
3.916
 20
5.527
 30
0.0
 11
3.929
 21
5.51
 31
0.0
  0
LINE
  5
2C0
330
18
100
AcDbEntity
  8
0
100
AcDbLine
 10
3.916
 20
5.527
 30
0.0
 11
3.935
 21
5.531000000000001
 31
0.0
  0
LINE
  5
2C1
330
18
100
AcDbEntity
  8
0
100
AcDbLine
 10
3.935
 20
5.531000000000001
 30
0.0
 11
3.943
 21
5.52
 31
0.0
  0
LINE
  5
2C2
330
18
100
AcDbEntity
  8
0
100
AcDbLine
 10
3.79
 20
5.435
 30
0.0
 11
3.722
 21
5.385
 31
0.0
  0
LINE
  5
2C3
330
18
100
AcDbEntity
  8
0
100
AcDbLine
 10
3.803
 20
5.417000000000001
 30
0.0
 11
3.735
 21
5.367000000000001
 31
0.0
  0
LINE
  5
2C4
330
18
100
AcDbEntity
  8
0
100
AcDbLine
 10
3.722
 20
5.385
 30
0.0
 11
3.735
 21
5.367000000000001
 31
0.0
  0
LINE
  5
2C5
330
18
100
AcDbEntity
  8
0
100
AcDbLine
 10
3.722
 20
5.385
 30
0.0
 11
3.741
 21
5.388999999999999
 31
0.0
  0
LINE
  5
2C6
330
18
100
AcDbEntity
  8
0
100
AcDbLine
 10
3.741
 20
5.388999999999999
 30
0.0
 11
3.749
 21
5.377000000000001
 31
0.0
  0
LINE
  5
2C7
330
18
100
AcDbEntity
  8
0
100
AcDbLine
 10
3.617
 20
5.309
 30
0.0
 11
3.549
 21
5.259
 31
0.0
  0
LINE
  5
2C8
330
18
100
AcDbEntity
  8
0
100
AcDbLine
 10
3.63
 20
5.291
 30
0.0
 11
3.562
 21
5.241000000000001
 31
0.0
  0
LINE
  5
2C9
330
18
100
AcDbEntity
  8
0
100
AcDbLine
 10
3.549
 20
5.259
 30
0.0
 11
3.562
 21
5.241000000000001
 31
0.0
  0
LINE
  5
2CA
330
18
100
AcDbEntity
  8
0
100
AcDbLine
 10
3.549
 20
5.259
 30
0.0
 11
3.568
 21
5.263
 31
0.0
  0
LINE
  5
2CB
330
18
100
AcDbEntity
  8
0
100
AcDbLine
 10
3.568
 20
5.263
 30
0.0
 11
3.576
 21
5.251
 31
0.0
  0
LINE
  5
2CC
330
18
100
AcDbEntity
  8
0
100
AcDbLine
 10
4.346
 20
5.843
 30
0.0
 11
4.278000000000001
 21
5.792999999999999
 31
0.0
  0
LINE
  5
2CD
330
18
100
AcDbEntity
  8
0
100
AcDbLine
 10
4.36
 20
5.825
 30
0.0
 11
4.292
 21
5.775
 31
0.0
  0
LINE
  5
2CE
330
18
100
AcDbEntity
  8
0
100
AcDbLine
 10
4.278000000000001
 20
5.792999999999999
 30
0.0
 11
4.292
 21
5.775
 31
0.0
  0
LINE
  5
2CF
330
18
100
AcDbEntity
  8
0
100
AcDbLine
 10
4.278000000000001
 20
5.792999999999999
 30
0.0
 11
4.298
 21
5.797000000000001
 31
0.0
  0
LINE
  5
2D0
330
18
100
AcDbEntity
  8
0
100
AcDbLine
 10
4.298
 20
5.797000000000001
 30
0.0
 11
4.305
 21
5.785
 31
0.0
  0
LINE
  5
2D1
330
18
100
AcDbEntity
  8
0
100
AcDbLine
 10
4.169
 20
5.712999999999999
 30
0.0
 11
4.101
 21
5.662999999999999
 31
0.0
  0
LINE
  5
2D2
330
18
100
AcDbEntity
  8
0
100
AcDbLine
 10
4.183
 20
5.695
 30
0.0
 11
4.115
 21
5.645
 31
0.0
  0
LINE
  5
2D3
330
18
100
AcDbEntity
  8
0
100
AcDbLine
 10
4.101
 20
5.662999999999999
 30
0.0
 11
4.115
 21
5.645
 31
0.0
  0
LINE
  5
2D4
330
18
100
AcDbEntity
  8
0
100
AcDbLine
 10
4.101
 20
5.662999999999999
 30
0.0
 11
4.121
 21
5.667000000000001
 31
0.0
  0
LINE
  5
2D5
330
18
100
AcDbEntity
  8
0
100
AcDbLine
 10
4.121
 20
5.667000000000001
 30
0.0
 11
4.128
 21
5.655
 31
0.0
  0
LINE
  5
2D6
330
18
100
AcDbEntity
  8
0
100
AcDbLine
 10
4.461
 20
5.916
 30
0.0
 11
4.468999999999999
 21
5.904
 31
0.0
  0
LINE
  5
2D7
330
18
100
AcDbEntity
  8
0
100
AcDbLine
 10
4.442
 20
5.912000000000001
 30
0.0
 11
4.461
 21
5.916
 31
0.0
  0
LINE
  5
2D8
330
18
100
AcDbEntity
  8
0
100
AcDbLine
 10
4.442
 20
5.912000000000001
 30
0.0
 11
4.455
 21
5.894
 31
0.0
  0
LINE
  5
2D9
330
18
100
AcDbEntity
  8
0
100
AcDbLine
 10
4.523
 20
5.944
 30
0.0
 11
4.455
 21
5.894
 31
0.0
  0
LINE
  5
2DA
330
18
100
AcDbEntity
  8
0
100
AcDbLine
 10
4.51
 20
5.962000000000001
 30
0.0
 11
4.442
 21
5.912000000000001
 31
0.0
  0
LINE
  5
2DB
330
18
100
AcDbEntity
  8
0
100
AcDbLine
 10
3.852
 20
5.582000000000001
 30
0.0
 11
3.784
 21
5.532
 31
0.0
  0
LINE
  5
2DC
330
18
100
AcDbEntity
  8
0
100
AcDbLine
 10
3.865
 20
5.564
 30
0.0
 11
3.797
 21
5.513999999999999
 31
0.0
  0
LINE
  5
2DD
330
18
100
AcDbEntity
  8
0
100
AcDbLine
 10
3.784
 20
5.532
 30
0.0
 11
3.797
 21
5.513999999999999
 31
0.0
  0
LINE
  5
2DE
330
18
100
AcDbEntity
  8
0
100
AcDbLine
 10
3.784
 20
5.532
 30
0.0
 11
3.803
 21
5.536000000000001
 31
0.0
  0
LINE
  5
2DF
330
18
100
AcDbEntity
  8
0
100
AcDbLine
 10
3.803
 20
5.536000000000001
 30
0.0
 11
3.81
 21
5.524
 31
0.0
  0
LINE
  5
2E0
330
18
100
AcDbEntity
  8
0
100
AcDbLine
 10
3.657
 20
5.439
 30
0.0
 11
3.589
 21
5.39
 31
0.0
  0
LINE
  5
2E1
330
18
100
AcDbEntity
  8
0
100
AcDbLine
 10
3.671
 20
5.422000000000001
 30
0.0
 11
3.603
 21
5.372000000000001
 31
0.0
  0
LINE
  5
2E2
330
18
100
AcDbEntity
  8
0
100
AcDbLine
 10
3.589
 20
5.39
 30
0.0
 11
3.603
 21
5.372000000000001
 31
0.0
  0
LINE
  5
2E3
330
18
100
AcDbEntity
  8
0
100
AcDbLine
 10
3.589
 20
5.39
 30
0.0
 11
3.609
 21
5.393
 31
0.0
  0
LINE
  5
2E4
330
18
100
AcDbEntity
  8
0
100
AcDbLine
 10
3.609
 20
5.393
 30
0.0
 11
3.616
 21
5.382000000000001
 31
0.0
  0
LINE
  5
2E5
330
18
100
AcDbEntity
  8
0
100
AcDbLine
 10
4.214
 20
5.847
 30
0.0
 11
4.146
 21
5.797000000000001
 31
0.0
  0
LINE
  5
2E6
330
18
100
AcDbEntity
  8
0
100
AcDbLine
 10
4.228
 20
5.829
 30
0.0
 11
4.159
 21
5.779
 31
0.0
  0
LINE
  5
2E7
330
18
100
AcDbEntity
  8
0
100
AcDbLine
 10
4.146
 20
5.797000000000001
 30
0.0
 11
4.159
 21
5.779
 31
0.0
  0
LINE
  5
2E8
330
18
100
AcDbEntity
  8
0
100
AcDbLine
 10
4.146
 20
5.797000000000001
 30
0.0
 11
4.165
 21
5.801
 31
0.0
  0
LINE
  5
2E9
330
18
100
AcDbEntity
  8
0
100
AcDbLine
 10
4.165
 20
5.801
 30
0.0
 11
4.173
 21
5.789
 31
0.0
  0
LINE
  5
2EA
330
18
100
AcDbEntity
  8
0
100
AcDbLine
 10
4.037
 20
5.717000000000001
 30
0.0
 11
3.969
 21
5.667000000000001
 31
0.0
  0
LINE
  5
2EB
330
18
100
AcDbEntity
  8
0
100
AcDbLine
 10
4.05
 20
5.7
 30
0.0
 11
3.982
 21
5.65
 31
0.0
  0
LINE
  5
2EC
330
18
100
AcDbEntity
  8
0
100
AcDbLine
 10
3.969
 20
5.667000000000001
 30
0.0
 11
3.982
 21
5.65
 31
0.0
  0
LINE
  5
2ED
330
18
100
AcDbEntity
  8
0
100
AcDbLine
 10
3.969
 20
5.667000000000001
 30
0.0
 11
3.988
 21
5.671
 31
0.0
  0
LINE
  5
2EE
330
18
100
AcDbEntity
  8
0
100
AcDbLine
 10
3.988
 20
5.671
 30
0.0
 11
3.996
 21
5.66
 31
0.0
  0
LINE
  5
2EF
330
18
100
AcDbEntity
  8
0
100
AcDbLine
 10
4.329
 20
5.92
 30
0.0
 11
4.336
 21
5.908
 31
0.0
  0
LINE
  5
2F0
330
18
100
AcDbEntity
  8
0
100
AcDbLine
 10
4.309
 20
5.916
 30
0.0
 11
4.329
 21
5.92
 31
0.0
  0
LINE
  5
2F1
330
18
100
AcDbEntity
  8
0
100
AcDbLine
 10
4.309
 20
5.916
 30
0.0
 11
4.323
 21
5.898
 31
0.0
  0
LINE
  5
2F2
330
18
100
AcDbEntity
  8
0
100
AcDbLine
 10
4.391
 20
5.948
 30
0.0
 11
4.323
 21
5.898
 31
0.0
  0
LINE
  5
2F3
330
18
100
AcDbEntity
  8
0
100
AcDbLine
 10
4.378
 20
5.966
 30
0.0
 11
4.309
 21
5.916
 31
0.0
  0
LINE
  5
2F4
330
18
100
AcDbEntity
  8
0
100
AcDbLine
 10
3.958
 20
5.449
 30
0.0
 11
3.89
 21
5.399
 31
0.0
  0
LINE
  5
2F5
330
18
100
AcDbEntity
  8
0
100
AcDbLine
 10
3.972
 20
5.432
 30
0.0
 11
3.904
 21
5.382000000000001
 31
0.0
  0
LINE
  5
2F6
330
18
100
AcDbEntity
  8
0
100
AcDbLine
 10
3.89
 20
5.399
 30
0.0
 11
3.904
 21
5.382000000000001
 31
0.0
  0
LINE
  5
2F7
330
18
100
AcDbEntity
  8
0
100
AcDbLine
 10
3.89
 20
5.399
 30
0.0
 11
3.91
 21
5.403
 31
0.0
  0
LINE
  5
2F8
330
18
100
AcDbEntity
  8
0
100
AcDbLine
 10
3.91
 20
5.403
 30
0.0
 11
3.917
 21
5.391
 31
0.0
  0
LINE
  5
2F9
330
18
100
AcDbEntity
  8
0
100
AcDbLine
 10
3.764
 20
5.307
 30
0.0
 11
3.696
 21
5.257000000000001
 31
0.0
  0
LINE
  5
2FA
330
18
100
AcDbEntity
  8
0
100
AcDbLine
 10
3.778
 20
5.289
 30
0.0
 11
3.709
 21
5.239
 31
0.0
  0
LINE
  5
2FB
330
18
100
AcDbEntity
  8
0
100
AcDbLine
 10
3.696
 20
5.257000000000001
 30
0.0
 11
3.709
 21
5.239
 31
0.0
  0
LINE
  5
2FC
330
18
100
AcDbEntity
  8
0
100
AcDbLine
 10
3.696
 20
5.257000000000001
 30
0.0
 11
3.715
 21
5.261
 31
0.0
  0
LINE
  5
2FD
330
18
100
AcDbEntity
  8
0
100
AcDbLine
 10
3.715
 20
5.261
 30
0.0
 11
3.723
 21
5.249
 31
0.0
  0
LINE
  5
2FE
330
18
100
AcDbEntity
  8
0
100
AcDbLine
 10
4.321000000000001
 20
5.715
 30
0.0
 11
4.253
 21
5.665
 31
0.0
  0
LINE
  5
2FF
330
18
100
AcDbEntity
  8
0
100
AcDbLine
 10
4.334
 20
5.697
 30
0.0
 11
4.266
 21
5.647
 31
0.0
  0
LINE
  5
300
330
18
100
AcDbEntity
  8
0
100
AcDbLine
 10
4.253
 20
5.665
 30
0.0
 11
4.266
 21
5.647
 31
0.0
  0
LINE
  5
301
330
18
100
AcDbEntity
  8
0
100
AcDbLine
 10
4.253
 20
5.665
 30
0.0
 11
4.272
 21
5.669
 31
0.0
  0
LINE
  5
302
330
18
100
AcDbEntity
  8
0
100
AcDbLine
 10
4.272
 20
5.669
 30
0.0
 11
4.28
 21
5.657
 31
0.0
  0
LINE
  5
303
330
18
100
AcDbEntity
  8
0
100
AcDbLine
 10
4.144
 20
5.585
 30
0.0
 11
4.076000000000001
 21
5.535
 31
0.0
  0
LINE
  5
304
330
18
100
AcDbEntity
  8
0
100
AcDbLine
 10
4.157
 20
5.567
 30
0.0
 11
4.089
 21
5.517
 31
0.0
  0
LINE
  5
305
330
18
100
AcDbEntity
  8
0
100
AcDbLine
 10
4.076000000000001
 20
5.535
 30
0.0
 11
4.089
 21
5.517
 31
0.0
  0
LINE
  5
306
330
18
100
AcDbEntity
  8
0
100
AcDbLine
 10
4.076000000000001
 20
5.535
 30
0.0
 11
4.095
 21
5.539
 31
0.0
  0
LINE
  5
307
330
18
100
AcDbEntity
  8
0
100
AcDbLine
 10
4.095
 20
5.539
 30
0.0
 11
4.103
 21
5.527
 31
0.0
  0
LINE
  5
308
330
18
100
AcDbEntity
  8
0
100
AcDbLine
 10
4.435
 20
5.787000000000001
 30
0.0
 11
4.443000000000001
 21
5.776
 31
0.0
  0
LINE
  5
309
330
18
100
AcDbEntity
  8
0
100
AcDbLine
 10
4.416
 20
5.784
 30
0.0
 11
4.435
 21
5.787000000000001
 31
0.0
  0
LINE
  5
30A
330
18
100
AcDbEntity
  8
0
100
AcDbLine
 10
4.416
 20
5.784
 30
0.0
 11
4.428999999999999
 21
5.766
 31
0.0
  0
LINE
  5
30B
330
18
100
AcDbEntity
  8
0
100
AcDbLine
 10
4.498
 20
5.816
 30
0.0
 11
4.428999999999999
 21
5.766
 31
0.0
  0
LINE
  5
30C
330
18
100
AcDbEntity
  8
0
100
AcDbLine
 10
4.484
 20
5.832999999999999
 30
0.0
 11
4.416
 21
5.784
 31
0.0
  0
LINE
  5
30D
330
18
100
AcDbEntity
  8
0
100
AcDbLine
 10
4.057
 20
5.33
 30
0.0
 11
3.988
 21
5.28
 31
0.0
  0
LINE
  5
30E
330
18
100
AcDbEntity
  8
0
100
AcDbLine
 10
4.07
 20
5.312
 30
0.0
 11
4.002
 21
5.262000000000001
 31
0.0
  0
LINE
  5
30F
330
18
100
AcDbEntity
  8
0
100
AcDbLine
 10
3.988
 20
5.28
 30
0.0
 11
4.002
 21
5.262000000000001
 31
0.0
  0
LINE
  5
310
330
18
100
AcDbEntity
  8
0
100
AcDbLine
 10
3.988
 20
5.28
 30
0.0
 11
4.008
 21
5.284
 31
0.0
  0
LINE
  5
311
330
18
100
AcDbEntity
  8
0
100
AcDbLine
 10
4.008
 20
5.284
 30
0.0
 11
4.015
 21
5.272
 31
0.0
  0
LINE
  5
312
330
18
100
AcDbEntity
  8
0
100
AcDbLine
 10
3.862
 20
5.187
 30
0.0
 11
3.794
 21
5.138
 31
0.0
  0
LINE
  5
313
330
18
100
AcDbEntity
  8
0
100
AcDbLine
 10
3.876
 20
5.17
 30
0.0
 11
3.808
 21
5.12
 31
0.0
  0
LINE
  5
314
330
18
100
AcDbEntity
  8
0
100
AcDbLine
 10
3.794
 20
5.138
 30
0.0
 11
3.808
 21
5.12
 31
0.0
  0
LINE
  5
315
330
18
100
AcDbEntity
  8
0
100
AcDbLine
 10
3.794
 20
5.138
 30
0.0
 11
3.813
 21
5.142
 31
0.0
  0
LINE
  5
316
330
18
100
AcDbEntity
  8
0
100
AcDbLine
 10
3.813
 20
5.142
 30
0.0
 11
3.821
 21
5.13
 31
0.0
  0
LINE
  5
317
330
18
100
AcDbEntity
  8
0
100
AcDbLine
 10
4.419
 20
5.595
 30
0.0
 11
4.351
 21
5.545
 31
0.0
  0
LINE
  5
318
330
18
100
AcDbEntity
  8
0
100
AcDbLine
 10
4.432
 20
5.577000000000001
 30
0.0
 11
4.364
 21
5.527
 31
0.0
  0
LINE
  5
319
330
18
100
AcDbEntity
  8
0
100
AcDbLine
 10
4.351
 20
5.545
 30
0.0
 11
4.364
 21
5.527
 31
0.0
  0
LINE
  5
31A
330
18
100
AcDbEntity
  8
0
100
AcDbLine
 10
4.351
 20
5.545
 30
0.0
 11
4.37
 21
5.549
 31
0.0
  0
LINE
  5
31B
330
18
100
AcDbEntity
  8
0
100
AcDbLine
 10
4.37
 20
5.549
 30
0.0
 11
4.378
 21
5.537000000000001
 31
0.0
  0
LINE
  5
31C
330
18
100
AcDbEntity
  8
0
100
AcDbLine
 10
4.242
 20
5.465
 30
0.0
 11
4.174
 21
5.415
 31
0.0
  0
LINE
  5
31D
330
18
100
AcDbEntity
  8
0
100
AcDbLine
 10
4.255
 20
5.448
 30
0.0
 11
4.187
 21
5.398
 31
0.0
  0
LINE
  5
31E
330
18
100
AcDbEntity
  8
0
100
AcDbLine
 10
4.174
 20
5.415
 30
0.0
 11
4.187
 21
5.398
 31
0.0
  0
LINE
  5
31F
330
18
100
AcDbEntity
  8
0
100
AcDbLine
 10
4.174
 20
5.415
 30
0.0
 11
4.193000000000001
 21
5.419
 31
0.0
  0
LINE
  5
320
330
18
100
AcDbEntity
  8
0
100
AcDbLine
 10
4.193000000000001
 20
5.419
 30
0.0
 11
4.201000000000001
 21
5.408
 31
0.0
  0
LINE
  5
321
330
18
100
AcDbEntity
  8
0
100
AcDbLine
 10
4.534
 20
5.667999999999999
 30
0.0
 11
4.541
 21
5.656000000000001
 31
0.0
  0
LINE
  5
322
330
18
100
AcDbEntity
  8
0
100
AcDbLine
 10
4.513999999999999
 20
5.664
 30
0.0
 11
4.534
 21
5.667999999999999
 31
0.0
  0
LINE
  5
323
330
18
100
AcDbEntity
  8
0
100
AcDbLine
 10
4.513999999999999
 20
5.664
 30
0.0
 11
4.528000000000001
 21
5.646
 31
0.0
  0
LINE
  5
324
330
18
100
AcDbEntity
  8
0
100
AcDbLine
 10
4.596
 20
5.696000000000001
 30
0.0
 11
4.528000000000001
 21
5.646
 31
0.0
  0
LINE
  5
325
330
18
100
AcDbEntity
  8
0
100
AcDbLine
 10
4.582
 20
5.714
 30
0.0
 11
4.513999999999999
 21
5.664
 31
0.0
  0
LINE
  5
326
330
18
100
AcDbEntity
  8
0
100
AcDbLine
 10
4.162
 20
5.198
 30
0.0
 11
4.093
 21
5.149
 31
0.0
  0
LINE
  5
327
330
18
100
AcDbEntity
  8
0
100
AcDbLine
 10
4.175
 20
5.18
 30
0.0
 11
4.106
 21
5.131
 31
0.0
  0
LINE
  5
328
330
18
100
AcDbEntity
  8
0
100
AcDbLine
 10
4.093
 20
5.149
 30
0.0
 11
4.106
 21
5.131
 31
0.0
  0
LINE
  5
329
330
18
100
AcDbEntity
  8
0
100
AcDbLine
 10
4.093
 20
5.149
 30
0.0
 11
4.112
 21
5.153
 31
0.0
  0
LINE
  5
32A
330
18
100
AcDbEntity
  8
0
100
AcDbLine
 10
4.112
 20
5.153
 30
0.0
 11
4.12
 21
5.141
 31
0.0
  0
LINE
  5
32B
330
18
100
AcDbEntity
  8
0
100
AcDbLine
 10
3.966
 20
5.058
 30
0.0
 11
3.897
 21
5.009
 31
0.0
  0
LINE
  5
32C
330
18
100
AcDbEntity
  8
0
100
AcDbLine
 10
3.979
 20
5.04
 30
0.0
 11
3.91
 21
4.991000000000001
 31
0.0
  0
LINE
  5
32D
330
18
100
AcDbEntity
  8
0
100
AcDbLine
 10
3.897
 20
5.009
 30
0.0
 11
3.91
 21
4.991000000000001
 31
0.0
  0
LINE
  5
32E
330
18
100
AcDbEntity
  8
0
100
AcDbLine
 10
3.897
 20
5.009
 30
0.0
 11
3.916
 21
5.013
 31
0.0
  0
LINE
  5
32F
330
18
100
AcDbEntity
  8
0
100
AcDbLine
 10
3.916
 20
5.013
 30
0.0
 11
3.924
 21
5.001
 31
0.0
  0
LINE
  5
330
330
18
100
AcDbEntity
  8
0
100
AcDbLine
 10
4.528000000000001
 20
5.457999999999999
 30
0.0
 11
4.459
 21
5.409
 31
0.0
  0
LINE
  5
331
330
18
100
AcDbEntity
  8
0
100
AcDbLine
 10
4.541
 20
5.44
 30
0.0
 11
4.472
 21
5.391
 31
0.0
  0
LINE
  5
332
330
18
100
AcDbEntity
  8
0
100
AcDbLine
 10
4.459
 20
5.409
 30
0.0
 11
4.472
 21
5.391
 31
0.0
  0
LINE
  5
333
330
18
100
AcDbEntity
  8
0
100
AcDbLine
 10
4.459
 20
5.409
 30
0.0
 11
4.478
 21
5.412999999999999
 31
0.0
  0
LINE
  5
334
330
18
100
AcDbEntity
  8
0
100
AcDbLine
 10
4.478
 20
5.412999999999999
 30
0.0
 11
4.486000000000001
 21
5.401
 31
0.0
  0
LINE
  5
335
330
18
100
AcDbEntity
  8
0
100
AcDbLine
 10
4.349
 20
5.331
 30
0.0
 11
4.28
 21
5.282
 31
0.0
  0
LINE
  5
336
330
18
100
AcDbEntity
  8
0
100
AcDbLine
 10
4.362
 20
5.313
 30
0.0
 11
4.293
 21
5.263999999999999
 31
0.0
  0
LINE
  5
337
330
18
100
AcDbEntity
  8
0
100
AcDbLine
 10
4.28
 20
5.282
 30
0.0
 11
4.293
 21
5.263999999999999
 31
0.0
  0
LINE
  5
338
330
18
100
AcDbEntity
  8
0
100
AcDbLine
 10
4.28
 20
5.282
 30
0.0
 11
4.3
 21
5.286000000000001
 31
0.0
  0
LINE
  5
339
330
18
100
AcDbEntity
  8
0
100
AcDbLine
 10
4.3
 20
5.286000000000001
 30
0.0
 11
4.307
 21
5.274
 31
0.0
  0
LINE
  5
33A
330
18
100
AcDbEntity
  8
0
100
AcDbLine
 10
4.643
 20
5.529
 30
0.0
 11
4.651
 21
5.518
 31
0.0
  0
LINE
  5
33B
330
18
100
AcDbEntity
  8
0
100
AcDbLine
 10
4.624
 20
5.526
 30
0.0
 11
4.643
 21
5.529
 31
0.0
  0
LINE
  5
33C
330
18
100
AcDbEntity
  8
0
100
AcDbLine
 10
4.624
 20
5.526
 30
0.0
 11
4.637
 21
5.507999999999999
 31
0.0
  0
LINE
  5
33D
330
18
100
AcDbEntity
  8
0
100
AcDbLine
 10
4.706
 20
5.557
 30
0.0
 11
4.637
 21
5.507999999999999
 31
0.0
  0
LINE
  5
33E
330
18
100
AcDbEntity
  8
0
100
AcDbLine
 10
4.693000000000001
 20
5.575
 30
0.0
 11
4.624
 21
5.526
 31
0.0
  0
LINE
  5
33F
330
18
100
AcDbEntity
  8
0
100
AcDbLine
 10
0.985
 20
2.937
 30
0.0
 11
1.027
 21
3.018
 31
0.0
  0
LINE
  5
340
330
18
100
AcDbEntity
  8
0
100
AcDbLine
 10
1.027
 20
3.018
 30
0.0
 11
0.9290000000000001
 21
3.143
 31
0.0
  0
LINE
  5
341
330
18
100
AcDbEntity
  8
0
100
AcDbLine
 10
0.9290000000000001
 20
3.143
 30
0.0
 11
0.985
 21
3.203
 31
0.0
  0
LINE
  5
342
330
18
100
AcDbEntity
  8
0
100
AcDbLine
 10
0.9290000000000001
 20
3.143
 30
0.0
 11
0.764
 21
3.221
 31
0.0
  0
LINE
  5
343
330
18
100
AcDbEntity
  8
0
100
AcDbLine
 10
1.027
 20
3.018
 30
0.0
 11
0.863
 21
3.101
 31
0.0
  0
LINE
  5
344
330
18
100
AcDbEntity
  8
0
100
AcDbLine
 10
0.985
 20
2.937
 30
0.0
 11
0.8290000000000001
 21
3.023
 31
0.0
  0
LINE
  5
345
330
18
100
AcDbEntity
  8
0
100
AcDbLine
 10
0.985
 20
3.203
 30
0.0
 11
0.8290000000000001
 21
3.276
 31
0.0
  0
LINE
  5
346
330
18
100
AcDbEntity
  8
0
100
AcDbLine
 10
0.8290000000000001
 20
3.276
 30
0.0
 11
0.764
 21
3.221
 31
0.0
  0
LINE
  5
347
330
18
100
AcDbEntity
  8
0
100
AcDbLine
 10
0.764
 20
3.221
 30
0.0
 11
0.863
 21
3.101
 31
0.0
  0
LINE
  5
348
330
18
100
AcDbEntity
  8
0
100
AcDbLine
 10
0.863
 20
3.101
 30
0.0
 11
0.8290000000000001
 21
3.023
 31
0.0
  0
LINE
  5
349
330
18
100
AcDbEntity
  8
0
100
AcDbLine
 10
0.985
 20
3.203
 30
0.0
 11
0.985
 21
3.511
 31
0.0
  0
LINE
  5
34A
330
18
100
AcDbEntity
  8
0
100
AcDbLine
 10
0.8290000000000001
 20
3.023
 30
0.0
 11
0.8290000000000001
 21
2.637
 31
0.0
  0
LINE
  5
34B
330
18
100
AcDbEntity
  8
0
100
AcDbLine
 10
1.993
 20
4.465
 30
0.0
 11
1.627
 21
6.332999999999999
 31
0.0
  0
LINE
  5
34C
330
18
100
AcDbEntity
  8
0
100
AcDbLine
 10
2.173
 20
4.597
 30
0.0
 11
1.838
 21
6.332999999999999
 31
0.0
  0
LINE
  5
34D
330
18
100
AcDbEntity
  8
0
100
AcDbLine
 10
2.329
 20
4.711
 30
0.0
 11
2.015
 21
6.332999999999999
 31
0.0
  0
LINE
  5
34E
330
18
100
AcDbEntity
  8
0
100
AcDbLine
 10
5.649
 20
2.659
 30
0.0
 11
5.82
 21
2.614
 31
0.0
  0
LINE
  5
34F
330
18
100
AcDbEntity
  8
0
100
AcDbLine
 10
6.056
 20
1.601
 30
0.0
 11
5.778
 21
1.479
 31
0.0
  0
LINE
  5
350
330
18
100
AcDbEntity
  8
0
100
AcDbLine
 10
6.031000000000001
 20
2.559
 30
0.0
 11
6.244
 21
2.503
 31
0.0
  0
LINE
  5
351
330
18
100
AcDbEntity
  8
0
100
AcDbLine
 10
5.82
 20
2.614
 30
0.0
 11
5.692
 21
2.58
 31
0.0
  0
ARC
  5
352
330
18
100
AcDbEntity
  8
0
100
AcDbCircle
 10
5.695
 20
2.571
 30
0.0
 40
0.01
100
AcDbArc
 50
104.832
 51
180.0
  0
LINE
  5
353
330
18
100
AcDbEntity
  8
0
100
AcDbLine
 10
5.685
 20
2.571
 30
0.0
 11
5.685
 21
2.427
 31
0.0
  0
ARC
  5
354
330
18
100
AcDbEntity
  8
0
100
AcDbCircle
 10
5.675
 20
2.427
 30
0.0
 40
0.01
100
AcDbArc
 50
308.601
 51
0.0
  0
LINE
  5
355
330
18
100
AcDbEntity
  8
0
100
AcDbLine
 10
5.681
 20
2.419
 30
0.0
 11
5.62
 21
2.371
 31
0.0
  0
ARC
  5
356
330
18
100
AcDbEntity
  8
0
100
AcDbCircle
 10
5.627000000000001
 20
2.363
 30
0.0
 40
0.01
100
AcDbArc
 50
128.601
 51
180.0
  0
LINE
  5
357
330
18
100
AcDbEntity
  8
0
100
AcDbLine
 10
5.617000000000001
 20
2.363
 30
0.0
 11
5.617000000000001
 21
2.31
 31
0.0
  0
ARC
  5
358
330
18
100
AcDbEntity
  8
0
100
AcDbCircle
 10
5.627000000000001
 20
2.31
 30
0.0
 40
0.01
100
AcDbArc
 50
180.0
 51
236.871
  0
LINE
  5
359
330
18
100
AcDbEntity
  8
0
100
AcDbLine
 10
5.621
 20
2.301
 30
0.0
 11
5.68
 21
2.263
 31
0.0
  0
ARC
  5
35A
330
18
100
AcDbEntity
  8
0
100
AcDbCircle
 10
5.675
 20
2.254
 30
0.0
 40
0.01
100
AcDbArc
 50
0.0
 51
56.871
  0
LINE
  5
35B
330
18
100
AcDbEntity
  8
0
100
AcDbLine
 10
5.685
 20
2.254
 30
0.0
 11
5.685
 21
2.101
 31
0.0
  0
ARC
  5
35C
330
18
100
AcDbEntity
  8
0
100
AcDbCircle
 10
5.675
 20
2.101
 30
0.0
 40
0.01
100
AcDbArc
 50
308.601
 51
0.0
  0
LINE
  5
35D
330
18
100
AcDbEntity
  8
0
100
AcDbLine
 10
5.681
 20
2.093
 30
0.0
 11
5.62
 21
2.045
 31
0.0
  0
ARC
  5
35E
330
18
100
AcDbEntity
  8
0
100
AcDbCircle
 10
5.627000000000001
 20
2.037
 30
0.0
 40
0.01
100
AcDbArc
 50
128.601
 51
180.0
  0
LINE
  5
35F
330
18
100
AcDbEntity
  8
0
100
AcDbLine
 10
5.617000000000001
 20
2.037
 30
0.0
 11
5.617000000000001
 21
1.984
 31
0.0
  0
ARC
  5
360
330
18
100
AcDbEntity
  8
0
100
AcDbCircle
 10
5.627000000000001
 20
1.984
 30
0.0
 40
0.01
100
AcDbArc
 50
180.0
 51
236.871
  0
LINE
  5
361
330
18
100
AcDbEntity
  8
0
100
AcDbLine
 10
5.621
 20
1.975
 30
0.0
 11
5.68
 21
1.937
 31
0.0
  0
ARC
  5
362
330
18
100
AcDbEntity
  8
0
100
AcDbCircle
 10
5.675
 20
1.929
 30
0.0
 40
0.01
100
AcDbArc
 50
0.0
 51
56.871
  0
LINE
  5
363
330
18
100
AcDbEntity
  8
0
100
AcDbLine
 10
5.685
 20
1.929
 30
0.0
 11
5.685
 21
1.92
 31
0.0
  0
ARC
  5
364
330
18
100
AcDbEntity
  8
0
100
AcDbCircle
 10
5.675
 20
1.92
 30
0.0
 40
0.01
100
AcDbArc
 50
339.551
 51
0.0
  0
LINE
  5
365
330
18
100
AcDbEntity
  8
0
100
AcDbLine
 10
5.684
 20
1.917
 30
0.0
 11
5.505
 21
1.608
 31
0.0
  0
LINE
  5
366
330
18
100
AcDbEntity
  8
0
100
AcDbLine
 10
5.806
 20
2.618
 30
0.0
 11
5.683
 21
2.585
 31
0.0
  0
ARC
  5
367
330
18
100
AcDbEntity
  8
0
100
AcDbCircle
 10
5.686
 20
2.576
 30
0.0
 40
0.01
100
AcDbArc
 50
104.832
 51
180.0
  0
LINE
  5
368
330
18
100
AcDbEntity
  8
0
100
AcDbLine
 10
5.676
 20
2.576
 30
0.0
 11
5.676
 21
2.432
 31
0.0
  0
ARC
  5
369
330
18
100
AcDbEntity
  8
0
100
AcDbCircle
 10
5.666
 20
2.432
 30
0.0
 40
0.01
100
AcDbArc
 50
308.601
 51
0.0
  0
LINE
  5
36A
330
18
100
AcDbEntity
  8
0
100
AcDbLine
 10
5.672000000000001
 20
2.424
 30
0.0
 11
5.612
 21
2.376
 31
0.0
  0
ARC
  5
36B
330
18
100
AcDbEntity
  8
0
100
AcDbCircle
 10
5.617999999999999
 20
2.368
 30
0.0
 40
0.01
100
AcDbArc
 50
128.601
 51
180.0
  0
LINE
  5
36C
330
18
100
AcDbEntity
  8
0
100
AcDbLine
 10
5.608
 20
2.368
 30
0.0
 11
5.608
 21
2.315
 31
0.0
  0
ARC
  5
36D
330
18
100
AcDbEntity
  8
0
100
AcDbCircle
 10
5.617999999999999
 20
2.315
 30
0.0
 40
0.01
100
AcDbArc
 50
180.0
 51
236.871
  0
LINE
  5
36E
330
18
100
AcDbEntity
  8
0
100
AcDbLine
 10
5.613
 20
2.306
 30
0.0
 11
5.671
 21
2.268
 31
0.0
  0
ARC
  5
36F
330
18
100
AcDbEntity
  8
0
100
AcDbCircle
 10
5.666
 20
2.259
 30
0.0
 40
0.01
100
AcDbArc
 50
0.0
 51
56.871
  0
LINE
  5
370
330
18
100
AcDbEntity
  8
0
100
AcDbLine
 10
5.676
 20
2.259
 30
0.0
 11
5.676
 21
2.106
 31
0.0
  0
ARC
  5
371
330
18
100
AcDbEntity
  8
0
100
AcDbCircle
 10
5.666
 20
2.106
 30
0.0
 40
0.01
100
AcDbArc
 50
308.601
 51
0.0
  0
LINE
  5
372
330
18
100
AcDbEntity
  8
0
100
AcDbLine
 10
5.672000000000001
 20
2.098
 30
0.0
 11
5.612
 21
2.05
 31
0.0
  0
ARC
  5
373
330
18
100
AcDbEntity
  8
0
100
AcDbCircle
 10
5.617999999999999
 20
2.042
 30
0.0
 40
0.01
100
AcDbArc
 50
128.601
 51
180.0
  0
LINE
  5
374
330
18
100
AcDbEntity
  8
0
100
AcDbLine
 10
5.608
 20
2.042
 30
0.0
 11
5.608
 21
1.989
 31
0.0
  0
ARC
  5
375
330
18
100
AcDbEntity
  8
0
100
AcDbCircle
 10
5.617999999999999
 20
1.989
 30
0.0
 40
0.01
100
AcDbArc
 50
180.0
 51
236.871
  0
LINE
  5
376
330
18
100
AcDbEntity
  8
0
100
AcDbLine
 10
5.613
 20
1.98
 30
0.0
 11
5.671
 21
1.942
 31
0.0
  0
ARC
  5
377
330
18
100
AcDbEntity
  8
0
100
AcDbCircle
 10
5.666
 20
1.934
 30
0.0
 40
0.01
100
AcDbArc
 50
0.0
 51
56.871
  0
LINE
  5
378
330
18
100
AcDbEntity
  8
0
100
AcDbLine
 10
5.676
 20
1.934
 30
0.0
 11
5.676
 21
1.925
 31
0.0
  0
ARC
  5
379
330
18
100
AcDbEntity
  8
0
100
AcDbCircle
 10
5.666
 20
1.925
 30
0.0
 40
0.01
100
AcDbArc
 50
339.551
 51
0.0
  0
LINE
  5
37A
330
18
100
AcDbEntity
  8
0
100
AcDbLine
 10
5.675
 20
1.922
 30
0.0
 11
5.497999999999999
 21
1.61
 31
0.0
  0
LINE
  5
37B
330
18
100
AcDbEntity
  8
0
100
AcDbLine
 10
5.649
 20
2.659
 30
0.0
 11
5.649
 21
2.54
 31
0.0
  0
LINE
  5
37C
330
18
100
AcDbEntity
  8
0
100
AcDbLine
 10
5.649
 20
2.54
 30
0.0
 11
5.676
 21
2.508
 31
0.0
  0
LINE
  5
37D
330
18
100
AcDbEntity
  8
0
100
AcDbLine
 10
6.122000000000001
 20
2.402
 30
0.0
 11
6.122000000000001
 21
2.298
 31
0.0
  0
LINE
  5
37E
330
18
100
AcDbEntity
  8
0
100
AcDbLine
 10
6.122000000000001
 20
2.298
 30
0.0
 11
6.1
 21
2.305
 31
0.0
  0
LINE
  5
37F
330
18
100
AcDbEntity
  8
0
100
AcDbLine
 10
6.1
 20
2.305
 30
0.0
 11
6.1
 21
2.413
 31
0.0
  0
LINE
  5
380
330
18
100
AcDbEntity
  8
0
100
AcDbLine
 10
6.1
 20
2.413
 30
0.0
 11
6.122000000000001
 21
2.372
 31
0.0
  0
LINE
  5
381
330
18
100
AcDbEntity
  8
0
100
AcDbLine
 10
6.055
 20
2.466
 30
0.0
 11
6.055
 21
1.746
 31
0.0
  0
LINE
  5
382
330
18
100
AcDbEntity
  8
0
100
AcDbLine
 10
6.037999999999999
 20
2.466
 30
0.0
 11
6.037999999999999
 21
1.746
 31
0.0
  0
LINE
  5
383
330
18
100
AcDbEntity
  8
0
100
AcDbLine
 10
6.045
 20
2.555
 30
0.0
 11
5.922000000000001
 21
2.523
 31
0.0
  0
ARC
  5
384
330
18
100
AcDbEntity
  8
0
100
AcDbCircle
 10
5.925
 20
2.513
 30
0.0
 40
0.01
100
AcDbArc
 50
104.832
 51
180.0
  0
LINE
  5
385
330
18
100
AcDbEntity
  8
0
100
AcDbLine
 10
5.915
 20
2.513
 30
0.0
 11
5.915
 21
2.32
 31
0.0
  0
ARC
  5
386
330
18
100
AcDbEntity
  8
0
100
AcDbCircle
 10
5.905
 20
2.32
 30
0.0
 40
0.01
100
AcDbArc
 50
308.601
 51
0.0
  0
LINE
  5
387
330
18
100
AcDbEntity
  8
0
100
AcDbLine
 10
5.911000000000001
 20
2.312
 30
0.0
 11
5.85
 21
2.264
 31
0.0
  0
ARC
  5
388
330
18
100
AcDbEntity
  8
0
100
AcDbCircle
 10
5.857
 20
2.256
 30
0.0
 40
0.01
100
AcDbArc
 50
128.601
 51
180.0
  0
LINE
  5
389
330
18
100
AcDbEntity
  8
0
100
AcDbLine
 10
5.847
 20
2.256
 30
0.0
 11
5.847
 21
2.203
 31
0.0
  0
ARC
  5
38A
330
18
100
AcDbEntity
  8
0
100
AcDbCircle
 10
5.857
 20
2.203
 30
0.0
 40
0.01
100
AcDbArc
 50
180.0
 51
236.871
  0
LINE
  5
38B
330
18
100
AcDbEntity
  8
0
100
AcDbLine
 10
5.851
 20
2.194
 30
0.0
 11
5.91
 21
2.156
 31
0.0
  0
ARC
  5
38C
330
18
100
AcDbEntity
  8
0
100
AcDbCircle
 10
5.905
 20
2.148
 30
0.0
 40
0.01
100
AcDbArc
 50
0.0
 51
56.871
  0
LINE
  5
38D
330
18
100
AcDbEntity
  8
0
100
AcDbLine
 10
5.915
 20
2.148
 30
0.0
 11
5.915
 21
1.994
 31
0.0
  0
ARC
  5
38E
330
18
100
AcDbEntity
  8
0
100
AcDbCircle
 10
5.905
 20
1.994
 30
0.0
 40
0.01
100
AcDbArc
 50
308.601
 51
0.0
  0
LINE
  5
38F
330
18
100
AcDbEntity
  8
0
100
AcDbLine
 10
5.911000000000001
 20
1.986
 30
0.0
 11
5.85
 21
1.938
 31
0.0
  0
ARC
  5
390
330
18
100
AcDbEntity
  8
0
100
AcDbCircle
 10
5.857
 20
1.93
 30
0.0
 40
0.01
100
AcDbArc
 50
128.601
 51
180.0
  0
LINE
  5
391
330
18
100
AcDbEntity
  8
0
100
AcDbLine
 10
5.847
 20
1.93
 30
0.0
 11
5.847
 21
1.877
 31
0.0
  0
ARC
  5
392
330
18
100
AcDbEntity
  8
0
100
AcDbCircle
 10
5.857
 20
1.877
 30
0.0
 40
0.01
100
AcDbArc
 50
180.0
 51
236.871
  0
LINE
  5
393
330
18
100
AcDbEntity
  8
0
100
AcDbLine
 10
5.851
 20
1.869
 30
0.0
 11
5.91
 21
1.83
 31
0.0
  0
ARC
  5
394
330
18
100
AcDbEntity
  8
0
100
AcDbCircle
 10
5.905
 20
1.822
 30
0.0
 40
0.01
100
AcDbArc
 50
0.0
 51
56.871
  0
LINE
  5
395
330
18
100
AcDbEntity
  8
0
100
AcDbLine
 10
5.915
 20
1.822
 30
0.0
 11
5.915
 21
1.813
 31
0.0
  0
ARC
  5
396
330
18
100
AcDbEntity
  8
0
100
AcDbCircle
 10
5.905
 20
1.813
 30
0.0
 40
0.01
100
AcDbArc
 50
339.551
 51
0.0
  0
LINE
  5
397
330
18
100
AcDbEntity
  8
0
100
AcDbLine
 10
5.914
 20
1.81
 30
0.0
 11
5.785
 21
1.51
 31
0.0
  0
LINE
  5
398
330
18
100
AcDbEntity
  8
0
100
AcDbLine
 10
6.036000000000001
 20
2.56
 30
0.0
 11
5.912999999999999
 21
2.528
 31
0.0
  0
ARC
  5
399
330
18
100
AcDbEntity
  8
0
100
AcDbCircle
 10
5.916
 20
2.518
 30
0.0
 40
0.01
100
AcDbArc
 50
104.832
 51
180.0
  0
LINE
  5
39A
330
18
100
AcDbEntity
  8
0
100
AcDbLine
 10
5.906000000000001
 20
2.518
 30
0.0
 11
5.906000000000001
 21
2.325
 31
0.0
  0
ARC
  5
39B
330
18
100
AcDbEntity
  8
0
100
AcDbCircle
 10
5.896
 20
2.325
 30
0.0
 40
0.01
100
AcDbArc
 50
308.601
 51
0.0
  0
LINE
  5
39C
330
18
100
AcDbEntity
  8
0
100
AcDbLine
 10
5.902
 20
2.317
 30
0.0
 11
5.842000000000001
 21
2.269
 31
0.0
  0
ARC
  5
39D
330
18
100
AcDbEntity
  8
0
100
AcDbCircle
 10
5.848
 20
2.261
 30
0.0
 40
0.01
100
AcDbArc
 50
128.601
 51
180.0
  0
LINE
  5
39E
330
18
100
AcDbEntity
  8
0
100
AcDbLine
 10
5.837999999999999
 20
2.261
 30
0.0
 11
5.837999999999999
 21
2.208
 31
0.0
  0
ARC
  5
39F
330
18
100
AcDbEntity
  8
0
100
AcDbCircle
 10
5.848
 20
2.208
 30
0.0
 40
0.01
100
AcDbArc
 50
180.0
 51
236.871
  0
LINE
  5
3A0
330
18
100
AcDbEntity
  8
0
100
AcDbLine
 10
5.843
 20
2.199
 30
0.0
 11
5.901
 21
2.161
 31
0.0
  0
ARC
  5
3A1
330
18
100
AcDbEntity
  8
0
100
AcDbCircle
 10
5.896
 20
2.153
 30
0.0
 40
0.01
100
AcDbArc
 50
0.0
 51
56.871
  0
LINE
  5
3A2
330
18
100
AcDbEntity
  8
0
100
AcDbLine
 10
5.906000000000001
 20
2.153
 30
0.0
 11
5.906000000000001
 21
1.999
 31
0.0
  0
ARC
  5
3A3
330
18
100
AcDbEntity
  8
0
100
AcDbCircle
 10
5.896
 20
1.999
 30
0.0
 40
0.01
100
AcDbArc
 50
308.601
 51
0.0
  0
LINE
  5
3A4
330
18
100
AcDbEntity
  8
0
100
AcDbLine
 10
5.902
 20
1.991
 30
0.0
 11
5.842000000000001
 21
1.943
 31
0.0
  0
ARC
  5
3A5
330
18
100
AcDbEntity
  8
0
100
AcDbCircle
 10
5.848
 20
1.935
 30
0.0
 40
0.01
100
AcDbArc
 50
128.601
 51
180.0
  0
LINE
  5
3A6
330
18
100
AcDbEntity
  8
0
100
AcDbLine
 10
5.837999999999999
 20
1.935
 30
0.0
 11
5.837999999999999
 21
1.882
 31
0.0
  0
ARC
  5
3A7
330
18
100
AcDbEntity
  8
0
100
AcDbCircle
 10
5.848
 20
1.882
 30
0.0
 40
0.01
100
AcDbArc
 50
180.0
 51
236.871
  0
LINE
  5
3A8
330
18
100
AcDbEntity
  8
0
100
AcDbLine
 10
5.843
 20
1.874
 30
0.0
 11
5.901
 21
1.835
 31
0.0
  0
ARC
  5
3A9
330
18
100
AcDbEntity
  8
0
100
AcDbCircle
 10
5.896
 20
1.827
 30
0.0
 40
0.01
100
AcDbArc
 50
0.0
 51
56.871
  0
LINE
  5
3AA
330
18
100
AcDbEntity
  8
0
100
AcDbLine
 10
5.906000000000001
 20
1.827
 30
0.0
 11
5.906000000000001
 21
1.818
 31
0.0
  0
ARC
  5
3AB
330
18
100
AcDbEntity
  8
0
100
AcDbCircle
 10
5.896
 20
1.818
 30
0.0
 40
0.01
100
AcDbArc
 50
339.551
 51
0.0
  0
LINE
  5
3AC
330
18
100
AcDbEntity
  8
0
100
AcDbLine
 10
5.905
 20
1.815
 30
0.0
 11
5.776
 21
1.513
 31
0.0
  0
LINE
  5
3AD
330
18
100
AcDbEntity
  8
0
100
AcDbLine
 10
6.244
 20
2.503
 30
0.0
 11
6.244
 21
2.382
 31
0.0
  0
ARC
  5
3AE
330
18
100
AcDbEntity
  8
0
100
AcDbCircle
 10
6.214
 20
2.382
 30
0.0
 40
0.03
100
AcDbArc
 50
303.813
 51
0.0
  0
LINE
  5
3AF
330
18
100
AcDbEntity
  8
0
100
AcDbLine
 10
6.231
 20
2.357
 30
0.0
 11
6.189
 21
2.33
 31
0.0
  0
ARC
  5
3B0
330
18
100
AcDbEntity
  8
0
100
AcDbCircle
 10
6.206
 20
2.305
 30
0.0
 40
0.03
100
AcDbArc
 50
123.813
 51
180.0
  0
LINE
  5
3B1
330
18
100
AcDbEntity
  8
0
100
AcDbLine
 10
6.176
 20
2.305
 30
0.0
 11
6.176
 21
2.276
 31
0.0
  0
ARC
  5
3B2
330
18
100
AcDbEntity
  8
0
100
AcDbCircle
 10
6.206
 20
2.276
 30
0.0
 40
0.03
100
AcDbArc
 50
180.0
 51
234.817
  0
LINE
  5
3B3
330
18
100
AcDbEntity
  8
0
100
AcDbLine
 10
6.189
 20
2.252
 30
0.0
 11
6.231
 21
2.222
 31
0.0
  0
ARC
  5
3B4
330
18
100
AcDbEntity
  8
0
100
AcDbCircle
 10
6.214
 20
2.197
 30
0.0
 40
0.03
100
AcDbArc
 50
0.0
 51
54.81700000000001
  0
LINE
  5
3B5
330
18
100
AcDbEntity
  8
0
100
AcDbLine
 10
6.244
 20
2.197
 30
0.0
 11
6.244
 21
2.052
 31
0.0
  0
ARC
  5
3B6
330
18
100
AcDbEntity
  8
0
100
AcDbCircle
 10
6.214
 20
2.052
 30
0.0
 40
0.03
100
AcDbArc
 50
300.639
 51
0.0
  0
LINE
  5
3B7
330
18
100
AcDbEntity
  8
0
100
AcDbLine
 10
6.229
 20
2.026
 30
0.0
 11
6.191
 21
2.004
 31
0.0
  0
ARC
  5
3B8
330
18
100
AcDbEntity
  8
0
100
AcDbCircle
 10
6.206
 20
1.978
 30
0.0
 40
0.03
100
AcDbArc
 50
120.639
 51
180.0
  0
LINE
  5
3B9
330
18
100
AcDbEntity
  8
0
100
AcDbLine
 10
6.176
 20
1.978
 30
0.0
 11
6.176
 21
1.946
 31
0.0
  0
ARC
  5
3BA
330
18
100
AcDbEntity
  8
0
100
AcDbCircle
 10
6.206
 20
1.946
 30
0.0
 40
0.03
100
AcDbArc
 50
180.0
 51
236.815
  0
LINE
  5
3BB
330
18
100
AcDbEntity
  8
0
100
AcDbLine
 10
6.19
 20
1.921
 30
0.0
 11
6.23
 21
1.894
 31
0.0
  0
ARC
  5
3BC
330
18
100
AcDbEntity
  8
0
100
AcDbCircle
 10
6.214
 20
1.869
 30
0.0
 40
0.03
100
AcDbArc
 50
0.0
 51
56.815
  0
LINE
  5
3BD
330
18
100
AcDbEntity
  8
0
100
AcDbLine
 10
6.244
 20
1.869
 30
0.0
 11
6.244
 21
1.812
 31
0.0
  0
ARC
  5
3BE
330
18
100
AcDbEntity
  8
0
100
AcDbCircle
 10
6.214
 20
1.812
 30
0.0
 40
0.03
100
AcDbArc
 50
303.051
 51
0.0
  0
LINE
  5
3BF
330
18
100
AcDbEntity
  8
0
100
AcDbLine
 10
6.23
 20
1.787
 30
0.0
 11
6.082000000000001
 21
1.69
 31
0.0
  0
LINE
  5
3C0
330
18
100
AcDbEntity
  8
0
100
AcDbLine
 10
6.068
 20
1.665
 30
0.0
 11
6.068
 21
1.62
 31
0.0
  0
ARC
  5
3C1
330
18
100
AcDbEntity
  8
0
100
AcDbCircle
 10
5.539
 20
1.606
 30
0.0
 40
0.03
100
AcDbArc
 50
149.937
 51
156.171
  0
LINE
  5
3C2
330
18
100
AcDbEntity
  8
0
100
AcDbLine
 10
5.82
 20
2.614
 30
0.0
 11
5.82
 21
1.687
 31
0.0
  0
LINE
  5
3C3
330
18
100
AcDbEntity
  8
0
100
AcDbLine
 10
5.827000000000001
 20
1.678
 30
0.0
 11
5.843999999999999
 21
1.672
 31
0.0
  0
LINE
  5
3C4
330
18
100
AcDbEntity
  8
0
100
AcDbLine
 10
5.54
 20
1.597
 30
0.0
 11
5.768
 21
1.668
 31
0.0
  0
LINE
  5
3C5
330
18
100
AcDbEntity
  8
0
100
AcDbLine
 10
5.605
 20
1.606
 30
0.0
 11
5.817
 21
1.676
 31
0.0
  0
LINE
  5
3C6
330
18
100
AcDbEntity
  8
0
100
AcDbLine
 10
5.592000000000001
 20
1.775
 30
0.0
 11
3.92
 21
2.301
 31
0.0
  0
LINE
  5
3C7
330
18
100
AcDbEntity
  8
0
100
AcDbLine
 10
5.853
 20
1.693
 30
0.0
 11
5.82
 21
1.704
 31
0.0
  0
ARC
  5
3C8
330
18
100
AcDbEntity
  8
0
100
AcDbCircle
 10
6.098
 20
1.665
 30
0.0
 40
0.03
100
AcDbArc
 50
123.051
 51
180.0
  0
LINE
  5
3C9
330
18
100
AcDbEntity
  8
0
100
AcDbLine
 10
5.494
 20
1.595
 30
0.0
 11
5.494
 21
1.577
 31
0.0
  0
LINE
  5
3CA
330
18
100
AcDbEntity
  8
0
100
AcDbLine
 10
5.501
 20
1.593
 30
0.0
 11
5.501
 21
1.579
 31
0.0
  0
LINE
  5
3CB
330
18
100
AcDbEntity
  8
0
100
AcDbLine
 10
5.775
 20
1.509
 30
0.0
 11
5.775
 21
1.492
 31
0.0
  0
LINE
  5
3CC
330
18
100
AcDbEntity
  8
0
100
AcDbLine
 10
5.784
 20
1.506
 30
0.0
 11
5.784
 21
1.488
 31
0.0
  0
LINE
  5
3CD
330
18
100
AcDbEntity
  8
0
100
AcDbLine
 10
5.505
 20
1.574
 30
0.0
 11
5.769
 21
1.487
 31
0.0
  0
LINE
  5
3CE
330
18
100
AcDbEntity
  8
0
100
AcDbLine
 10
5.501
 20
1.568
 30
0.0
 11
5.771
 21
1.478
 31
0.0
  0
ARC
  5
3CF
330
18
100
AcDbEntity
  8
0
100
AcDbCircle
 10
5.524
 20
1.595
 30
0.0
 40
0.03
100
AcDbArc
 50
150.354
 51
180.0
  0
ARC
  5
3D0
330
18
100
AcDbEntity
  8
0
100
AcDbCircle
 10
5.531000000000001
 20
1.593
 30
0.0
 40
0.03
100
AcDbArc
 50
149.937
 51
180.0
  0
ARC
  5
3D1
330
18
100
AcDbEntity
  8
0
100
AcDbCircle
 10
5.504
 20
1.577
 30
0.0
 40
0.01
100
AcDbArc
 50
180.0
 51
251.714
  0
ARC
  5
3D2
330
18
100
AcDbEntity
  8
0
100
AcDbCircle
 10
5.506
 20
1.579
 30
0.0
 40
0.005
100
AcDbArc
 50
180.0
 51
251.714
  0
ARC
  5
3D3
330
18
100
AcDbEntity
  8
0
100
AcDbCircle
 10
5.77
 20
1.492
 30
0.0
 40
0.005
100
AcDbArc
 50
251.714
 51
0.0
  0
ARC
  5
3D4
330
18
100
AcDbEntity
  8
0
100
AcDbCircle
 10
5.774
 20
1.488
 30
0.0
 40
0.01
100
AcDbArc
 50
251.714
 51
0.0
  0
ARC
  5
3D5
330
18
100
AcDbEntity
  8
0
100
AcDbCircle
 10
5.794
 20
1.506
 30
0.0
 40
0.01
100
AcDbArc
 50
156.646
 51
180.0
  0
ARC
  5
3D6
330
18
100
AcDbEntity
  8
0
100
AcDbCircle
 10
5.785
 20
1.509
 30
0.0
 40
0.01
100
AcDbArc
 50
156.792
 51
180.0
  0
ARC
  5
3D7
330
18
100
AcDbEntity
  8
0
100
AcDbCircle
 10
5.83
 20
1.687
 30
0.0
 40
0.01
100
AcDbArc
 50
180.0
 51
252.999
  0
ARC
  5
3D8
330
18
100
AcDbEntity
  8
0
100
AcDbCircle
 10
6.047999999999999
 20
1.62
 30
0.0
 40
0.02
100
AcDbArc
 50
293.765
 51
0.0
  0
ARC
  5
3D9
330
18
100
AcDbEntity
  8
0
100
AcDbCircle
 10
3.902
 20
2.294
 30
0.0
 40
0.017
100
AcDbArc
 50
293.765
 51
0.0
  0
ARC
  5
3DA
330
18
100
AcDbEntity
  8
0
100
AcDbCircle
 10
3.711
 20
2.353
 30
0.0
 40
0.009
100
AcDbArc
 50
180.0
 51
252.999
  0
ARC
  5
3DB
330
18
100
AcDbEntity
  8
0
100
AcDbCircle
 10
3.672
 20
2.197
 30
0.0
 40
0.009
100
AcDbArc
 50
156.792
 51
180.0
  0
ARC
  5
3DC
330
18
100
AcDbEntity
  8
0
100
AcDbCircle
 10
3.679
 20
2.195
 30
0.0
 40
0.009
100
AcDbArc
 50
156.646
 51
180.0
  0
ARC
  5
3DD
330
18
100
AcDbEntity
  8
0
100
AcDbCircle
 10
3.662
 20
2.179
 30
0.0
 40
0.009
100
AcDbArc
 50
251.714
 51
0.0
  0
ARC
  5
3DE
330
18
100
AcDbEntity
  8
0
100
AcDbCircle
 10
3.659
 20
2.182
 30
0.0
 40
0.004
100
AcDbArc
 50
251.714
 51
0.0
  0
ARC
  5
3DF
330
18
100
AcDbEntity
  8
0
100
AcDbCircle
 10
3.428
 20
2.258
 30
0.0
 40
0.004
100
AcDbArc
 50
180.0
 51
251.714
  0
ARC
  5
3E0
330
18
100
AcDbEntity
  8
0
100
AcDbCircle
 10
3.426
 20
2.257
 30
0.0
 40
0.009
100
AcDbArc
 50
180.0
 51
251.714
  0
ARC
  5
3E1
330
18
100
AcDbEntity
  8
0
100
AcDbCircle
 10
3.45
 20
2.27
 30
0.0
 40
0.026
100
AcDbArc
 50
149.937
 51
180.0
  0
ARC
  5
3E2
330
18
100
AcDbEntity
  8
0
100
AcDbCircle
 10
3.444
 20
2.273
 30
0.0
 40
0.026
100
AcDbArc
 50
150.354
 51
180.0
  0
LINE
  5
3E3
330
18
100
AcDbEntity
  8
0
100
AcDbLine
 10
3.423
 20
2.248
 30
0.0
 11
3.659
 21
2.17
 31
0.0
  0
LINE
  5
3E4
330
18
100
AcDbEntity
  8
0
100
AcDbLine
 10
3.427
 20
2.254
 30
0.0
 11
3.657
 21
2.178
 31
0.0
  0
LINE
  5
3E5
330
18
100
AcDbEntity
  8
0
100
AcDbLine
 10
3.671
 20
2.195
 30
0.0
 11
3.671
 21
2.179
 31
0.0
  0
LINE
  5
3E6
330
18
100
AcDbEntity
  8
0
100
AcDbLine
 10
3.663
 20
2.197
 30
0.0
 11
3.663
 21
2.182
 31
0.0
  0
LINE
  5
3E7
330
18
100
AcDbEntity
  8
0
100
AcDbLine
 10
3.424
 20
2.27
 30
0.0
 11
3.424
 21
2.258
 31
0.0
  0
LINE
  5
3E8
330
18
100
AcDbEntity
  8
0
100
AcDbLine
 10
3.417
 20
2.273
 30
0.0
 11
3.417
 21
2.257
 31
0.0
  0
ARC
  5
3E9
330
18
100
AcDbEntity
  8
0
100
AcDbCircle
 10
3.946
 20
2.334
 30
0.0
 40
0.026
100
AcDbArc
 50
123.051
 51
180.0
  0
LINE
  5
3EA
330
18
100
AcDbEntity
  8
0
100
AcDbLine
 10
3.732
 20
2.358
 30
0.0
 11
3.703
 21
2.367
 31
0.0
  0
LINE
  5
3EB
330
18
100
AcDbEntity
  8
0
100
AcDbLine
 10
3.514
 20
2.283
 30
0.0
 11
3.7
 21
2.344
 31
0.0
  0
LINE
  5
3EC
330
18
100
AcDbEntity
  8
0
100
AcDbLine
 10
3.457
 20
2.274
 30
0.0
 11
3.657
 21
2.337
 31
0.0
  0
LINE
  5
3ED
330
18
100
AcDbEntity
  8
0
100
AcDbLine
 10
3.709
 20
2.345
 30
0.0
 11
3.724
 21
2.34
 31
0.0
  0
LINE
  5
3EE
330
18
100
AcDbEntity
  8
0
100
AcDbLine
 10
3.703
 20
3.164
 30
0.0
 11
3.703
 21
2.353
 31
0.0
  0
ARC
  5
3EF
330
18
100
AcDbEntity
  8
0
100
AcDbCircle
 10
3.457
 20
2.282
 30
0.0
 40
0.026
100
AcDbArc
 50
149.937
 51
156.171
  0
LINE
  5
3F0
330
18
100
AcDbEntity
  8
0
100
AcDbLine
 10
3.92
 20
2.334
 30
0.0
 11
3.92
 21
2.294
 31
0.0
  0
LINE
  5
3F1
330
18
100
AcDbEntity
  8
0
100
AcDbLine
 10
4.061
 20
2.44
 30
0.0
 11
3.931
 21
2.356
 31
0.0
  0
ARC
  5
3F2
330
18
100
AcDbEntity
  8
0
100
AcDbCircle
 10
4.047
 20
2.462
 30
0.0
 40
0.026
100
AcDbArc
 50
303.051
 51
0.0
  0
LINE
  5
3F3
330
18
100
AcDbEntity
  8
0
100
AcDbLine
 10
4.073
 20
2.512
 30
0.0
 11
4.073
 21
2.462
 31
0.0
  0
ARC
  5
3F4
330
18
100
AcDbEntity
  8
0
100
AcDbCircle
 10
4.047
 20
2.512
 30
0.0
 40
0.026
100
AcDbArc
 50
0.0
 51
56.815
  0
LINE
  5
3F5
330
18
100
AcDbEntity
  8
0
100
AcDbLine
 10
4.026
 20
2.558
 30
0.0
 11
4.061
 21
2.534
 31
0.0
  0
ARC
  5
3F6
330
18
100
AcDbEntity
  8
0
100
AcDbCircle
 10
4.04
 20
2.58
 30
0.0
 40
0.026
100
AcDbArc
 50
180.0
 51
236.815
  0
LINE
  5
3F7
330
18
100
AcDbEntity
  8
0
100
AcDbLine
 10
4.013999999999999
 20
2.607
 30
0.0
 11
4.013999999999999
 21
2.58
 31
0.0
  0
ARC
  5
3F8
330
18
100
AcDbEntity
  8
0
100
AcDbCircle
 10
4.04
 20
2.607
 30
0.0
 40
0.026
100
AcDbArc
 50
120.639
 51
180.0
  0
LINE
  5
3F9
330
18
100
AcDbEntity
  8
0
100
AcDbLine
 10
4.06
 20
2.65
 30
0.0
 11
4.027
 21
2.63
 31
0.0
  0
ARC
  5
3FA
330
18
100
AcDbEntity
  8
0
100
AcDbCircle
 10
4.047
 20
2.673
 30
0.0
 40
0.026
100
AcDbArc
 50
300.639
 51
0.0
  0
LINE
  5
3FB
330
18
100
AcDbEntity
  8
0
100
AcDbLine
 10
4.073
 20
2.8
 30
0.0
 11
4.073
 21
2.673
 31
0.0
  0
ARC
  5
3FC
330
18
100
AcDbEntity
  8
0
100
AcDbCircle
 10
4.047
 20
2.8
 30
0.0
 40
0.026
100
AcDbArc
 50
0.0
 51
54.81700000000001
  0
LINE
  5
3FD
330
18
100
AcDbEntity
  8
0
100
AcDbLine
 10
4.025
 20
2.847
 30
0.0
 11
4.062
 21
2.821
 31
0.0
  0
ARC
  5
3FE
330
18
100
AcDbEntity
  8
0
100
AcDbCircle
 10
4.04
 20
2.869
 30
0.0
 40
0.026
100
AcDbArc
 50
180.0
 51
234.817
  0
LINE
  5
3FF
330
18
100
AcDbEntity
  8
0
100
AcDbLine
 10
4.013999999999999
 20
2.893
 30
0.0
 11
4.013999999999999
 21
2.869
 31
0.0
  0
ARC
  5
400
330
18
100
AcDbEntity
  8
0
100
AcDbCircle
 10
4.04
 20
2.893
 30
0.0
 40
0.026
100
AcDbArc
 50
123.813
 51
180.0
  0
LINE
  5
401
330
18
100
AcDbEntity
  8
0
100
AcDbLine
 10
4.062
 20
2.939
 30
0.0
 11
4.026
 21
2.915
 31
0.0
  0
ARC
  5
402
330
18
100
AcDbEntity
  8
0
100
AcDbCircle
 10
4.047
 20
2.961
 30
0.0
 40
0.026
100
AcDbArc
 50
303.813
 51
0.0
  0
LINE
  5
403
330
18
100
AcDbEntity
  8
0
100
AcDbLine
 10
4.073
 20
3.067
 30
0.0
 11
4.073
 21
2.961
 31
0.0
  0
LINE
  5
404
330
18
100
AcDbEntity
  8
0
100
AcDbLine
 10
3.777
 20
2.465
 30
0.0
 11
3.664
 21
2.2
 31
0.0
  0
ARC
  5
405
330
18
100
AcDbEntity
  8
0
100
AcDbCircle
 10
3.769
 20
2.468
 30
0.0
 40
0.009
100
AcDbArc
 50
339.551
 51
0.0
  0
LINE
  5
406
330
18
100
AcDbEntity
  8
0
100
AcDbLine
 10
3.778
 20
2.475
 30
0.0
 11
3.778
 21
2.468
 31
0.0
  0
ARC
  5
407
330
18
100
AcDbEntity
  8
0
100
AcDbCircle
 10
3.769
 20
2.475
 30
0.0
 40
0.009
100
AcDbArc
 50
0.0
 51
56.871
  0
LINE
  5
408
330
18
100
AcDbEntity
  8
0
100
AcDbLine
 10
3.722
 20
2.516
 30
0.0
 11
3.774
 21
2.483
 31
0.0
  0
ARC
  5
409
330
18
100
AcDbEntity
  8
0
100
AcDbCircle
 10
3.727
 20
2.524
 30
0.0
 40
0.009
100
AcDbArc
 50
180.0
 51
236.871
  0
LINE
  5
40A
330
18
100
AcDbEntity
  8
0
100
AcDbLine
 10
3.718
 20
2.57
 30
0.0
 11
3.718
 21
2.524
 31
0.0
  0
ARC
  5
40B
330
18
100
AcDbEntity
  8
0
100
AcDbCircle
 10
3.727
 20
2.57
 30
0.0
 40
0.009
100
AcDbArc
 50
128.601
 51
180.0
  0
LINE
  5
40C
330
18
100
AcDbEntity
  8
0
100
AcDbLine
 10
3.774
 20
2.619
 30
0.0
 11
3.722
 21
2.577
 31
0.0
  0
ARC
  5
40D
330
18
100
AcDbEntity
  8
0
100
AcDbCircle
 10
3.769
 20
2.626
 30
0.0
 40
0.009
100
AcDbArc
 50
308.601
 51
0.0
  0
LINE
  5
40E
330
18
100
AcDbEntity
  8
0
100
AcDbLine
 10
3.778
 20
2.76
 30
0.0
 11
3.778
 21
2.626
 31
0.0
  0
ARC
  5
40F
330
18
100
AcDbEntity
  8
0
100
AcDbCircle
 10
3.769
 20
2.76
 30
0.0
 40
0.009
100
AcDbArc
 50
0.0
 51
56.871
  0
LINE
  5
410
330
18
100
AcDbEntity
  8
0
100
AcDbLine
 10
3.722
 20
2.801
 30
0.0
 11
3.774
 21
2.768
 31
0.0
  0
ARC
  5
411
330
18
100
AcDbEntity
  8
0
100
AcDbCircle
 10
3.727
 20
2.809
 30
0.0
 40
0.009
100
AcDbArc
 50
180.0
 51
236.871
  0
LINE
  5
412
330
18
100
AcDbEntity
  8
0
100
AcDbLine
 10
3.718
 20
2.855
 30
0.0
 11
3.718
 21
2.809
 31
0.0
  0
ARC
  5
413
330
18
100
AcDbEntity
  8
0
100
AcDbCircle
 10
3.727
 20
2.855
 30
0.0
 40
0.009
100
AcDbArc
 50
128.601
 51
180.0
  0
LINE
  5
414
330
18
100
AcDbEntity
  8
0
100
AcDbLine
 10
3.774
 20
2.904
 30
0.0
 11
3.722
 21
2.862
 31
0.0
  0
ARC
  5
415
330
18
100
AcDbEntity
  8
0
100
AcDbCircle
 10
3.769
 20
2.911
 30
0.0
 40
0.009
100
AcDbArc
 50
308.601
 51
0.0
  0
LINE
  5
416
330
18
100
AcDbEntity
  8
0
100
AcDbLine
 10
3.778
 20
3.08
 30
0.0
 11
3.778
 21
2.911
 31
0.0
  0
ARC
  5
417
330
18
100
AcDbEntity
  8
0
100
AcDbCircle
 10
3.786
 20
3.08
 30
0.0
 40
0.009
100
AcDbArc
 50
104.832
 51
180.0
  0
LINE
  5
418
330
18
100
AcDbEntity
  8
0
100
AcDbLine
 10
3.892
 20
3.117
 30
0.0
 11
3.784
 21
3.089
 31
0.0
  0
LINE
  5
419
330
18
100
AcDbEntity
  8
0
100
AcDbLine
 10
3.785
 20
2.46
 30
0.0
 11
3.671
 21
2.198
 31
0.0
  0
ARC
  5
41A
330
18
100
AcDbEntity
  8
0
100
AcDbCircle
 10
3.777
 20
2.463
 30
0.0
 40
0.009
100
AcDbArc
 50
339.551
 51
0.0
  0
LINE
  5
41B
330
18
100
AcDbEntity
  8
0
100
AcDbLine
 10
3.785
 20
2.471
 30
0.0
 11
3.785
 21
2.463
 31
0.0
  0
ARC
  5
41C
330
18
100
AcDbEntity
  8
0
100
AcDbCircle
 10
3.777
 20
2.471
 30
0.0
 40
0.009
100
AcDbArc
 50
0.0
 51
56.871
  0
LINE
  5
41D
330
18
100
AcDbEntity
  8
0
100
AcDbLine
 10
3.73
 20
2.512
 30
0.0
 11
3.781
 21
2.478
 31
0.0
  0
ARC
  5
41E
330
18
100
AcDbEntity
  8
0
100
AcDbCircle
 10
3.735
 20
2.519
 30
0.0
 40
0.009
100
AcDbArc
 50
180.0
 51
236.871
  0
LINE
  5
41F
330
18
100
AcDbEntity
  8
0
100
AcDbLine
 10
3.726
 20
2.566
 30
0.0
 11
3.726
 21
2.519
 31
0.0
  0
ARC
  5
420
330
18
100
AcDbEntity
  8
0
100
AcDbCircle
 10
3.735
 20
2.566
 30
0.0
 40
0.009
100
AcDbArc
 50
128.601
 51
180.0
  0
LINE
  5
421
330
18
100
AcDbEntity
  8
0
100
AcDbLine
 10
3.782
 20
2.615
 30
0.0
 11
3.729
 21
2.573
 31
0.0
  0
ARC
  5
422
330
18
100
AcDbEntity
  8
0
100
AcDbCircle
 10
3.777
 20
2.622
 30
0.0
 40
0.009
100
AcDbArc
 50
308.601
 51
0.0
  0
LINE
  5
423
330
18
100
AcDbEntity
  8
0
100
AcDbLine
 10
3.785
 20
2.756
 30
0.0
 11
3.785
 21
2.622
 31
0.0
  0
ARC
  5
424
330
18
100
AcDbEntity
  8
0
100
AcDbCircle
 10
3.777
 20
2.756
 30
0.0
 40
0.009
100
AcDbArc
 50
0.0
 51
56.871
  0
LINE
  5
425
330
18
100
AcDbEntity
  8
0
100
AcDbLine
 10
3.73
 20
2.797
 30
0.0
 11
3.781
 21
2.763
 31
0.0
  0
ARC
  5
426
330
18
100
AcDbEntity
  8
0
100
AcDbCircle
 10
3.735
 20
2.804
 30
0.0
 40
0.009
100
AcDbArc
 50
180.0
 51
236.871
  0
LINE
  5
427
330
18
100
AcDbEntity
  8
0
100
AcDbLine
 10
3.726
 20
2.851
 30
0.0
 11
3.726
 21
2.804
 31
0.0
  0
ARC
  5
428
330
18
100
AcDbEntity
  8
0
100
AcDbCircle
 10
3.735
 20
2.851
 30
0.0
 40
0.009
100
AcDbArc
 50
128.601
 51
180.0
  0
LINE
  5
429
330
18
100
AcDbEntity
  8
0
100
AcDbLine
 10
3.782
 20
2.9
 30
0.0
 11
3.729
 21
2.858
 31
0.0
  0
ARC
  5
42A
330
18
100
AcDbEntity
  8
0
100
AcDbCircle
 10
3.777
 20
2.907
 30
0.0
 40
0.009
100
AcDbArc
 50
308.601
 51
0.0
  0
LINE
  5
42B
330
18
100
AcDbEntity
  8
0
100
AcDbLine
 10
3.785
 20
3.076
 30
0.0
 11
3.785
 21
2.907
 31
0.0
  0
ARC
  5
42C
330
18
100
AcDbEntity
  8
0
100
AcDbCircle
 10
3.794
 20
3.076
 30
0.0
 40
0.009
100
AcDbArc
 50
104.832
 51
180.0
  0
LINE
  5
42D
330
18
100
AcDbEntity
  8
0
100
AcDbLine
 10
3.899
 20
3.113
 30
0.0
 11
3.792
 21
3.084
 31
0.0
  0
LINE
  5
42E
330
18
100
AcDbEntity
  8
0
100
AcDbLine
 10
3.893
 20
3.034
 30
0.0
 11
3.893
 21
2.404
 31
0.0
  0
LINE
  5
42F
330
18
100
AcDbEntity
  8
0
100
AcDbLine
 10
3.908
 20
3.034
 30
0.0
 11
3.908
 21
2.404
 31
0.0
  0
LINE
  5
430
330
18
100
AcDbEntity
  8
0
100
AcDbLine
 10
3.948
 20
2.988
 30
0.0
 11
3.967
 21
2.952
 31
0.0
  0
LINE
  5
431
330
18
100
AcDbEntity
  8
0
100
AcDbLine
 10
3.948
 20
2.894
 30
0.0
 11
3.948
 21
2.988
 31
0.0
  0
LINE
  5
432
330
18
100
AcDbEntity
  8
0
100
AcDbLine
 10
3.967
 20
2.888
 30
0.0
 11
3.948
 21
2.894
 31
0.0
  0
LINE
  5
433
330
18
100
AcDbEntity
  8
0
100
AcDbLine
 10
3.967
 20
2.978
 30
0.0
 11
3.967
 21
2.888
 31
0.0
  0
LINE
  5
434
330
18
100
AcDbEntity
  8
0
100
AcDbLine
 10
3.553
 20
3.099
 30
0.0
 11
3.576
 21
3.071
 31
0.0
  0
LINE
  5
435
330
18
100
AcDbEntity
  8
0
100
AcDbLine
 10
3.553
 20
3.204
 30
0.0
 11
3.553
 21
3.099
 31
0.0
  0
LINE
  5
436
330
18
100
AcDbEntity
  8
0
100
AcDbLine
 10
3.576
 20
2.558
 30
0.0
 11
3.421
 21
2.286
 31
0.0
  0
ARC
  5
437
330
18
100
AcDbEntity
  8
0
100
AcDbCircle
 10
3.568
 20
2.561
 30
0.0
 40
0.009
100
AcDbArc
 50
339.551
 51
0.0
  0
LINE
  5
438
330
18
100
AcDbEntity
  8
0
100
AcDbLine
 10
3.576
 20
2.569
 30
0.0
 11
3.576
 21
2.561
 31
0.0
  0
ARC
  5
439
330
18
100
AcDbEntity
  8
0
100
AcDbCircle
 10
3.568
 20
2.569
 30
0.0
 40
0.009
100
AcDbArc
 50
0.0
 51
56.871
  0
LINE
  5
43A
330
18
100
AcDbEntity
  8
0
100
AcDbLine
 10
3.521
 20
2.61
 30
0.0
 11
3.573
 21
2.576
 31
0.0
  0
ARC
  5
43B
330
18
100
AcDbEntity
  8
0
100
AcDbCircle
 10
3.526
 20
2.617
 30
0.0
 40
0.009
100
AcDbArc
 50
180.0
 51
236.871
  0
LINE
  5
43C
330
18
100
AcDbEntity
  8
0
100
AcDbLine
 10
3.517
 20
2.664
 30
0.0
 11
3.517
 21
2.617
 31
0.0
  0
ARC
  5
43D
330
18
100
AcDbEntity
  8
0
100
AcDbCircle
 10
3.526
 20
2.664
 30
0.0
 40
0.009
100
AcDbArc
 50
128.601
 51
180.0
  0
LINE
  5
43E
330
18
100
AcDbEntity
  8
0
100
AcDbLine
 10
3.573
 20
2.713
 30
0.0
 11
3.52
 21
2.67
 31
0.0
  0
ARC
  5
43F
330
18
100
AcDbEntity
  8
0
100
AcDbCircle
 10
3.568
 20
2.719
 30
0.0
 40
0.009
100
AcDbArc
 50
308.601
 51
0.0
  0
LINE
  5
440
330
18
100
AcDbEntity
  8
0
100
AcDbLine
 10
3.576
 20
2.854
 30
0.0
 11
3.576
 21
2.719
 31
0.0
  0
ARC
  5
441
330
18
100
AcDbEntity
  8
0
100
AcDbCircle
 10
3.568
 20
2.854
 30
0.0
 40
0.009
100
AcDbArc
 50
0.0
 51
56.871
  0
LINE
  5
442
330
18
100
AcDbEntity
  8
0
100
AcDbLine
 10
3.521
 20
2.895
 30
0.0
 11
3.573
 21
2.861
 31
0.0
  0
ARC
  5
443
330
18
100
AcDbEntity
  8
0
100
AcDbCircle
 10
3.526
 20
2.902
 30
0.0
 40
0.009
100
AcDbArc
 50
180.0
 51
236.871
  0
LINE
  5
444
330
18
100
AcDbEntity
  8
0
100
AcDbLine
 10
3.517
 20
2.949
 30
0.0
 11
3.517
 21
2.902
 31
0.0
  0
ARC
  5
445
330
18
100
AcDbEntity
  8
0
100
AcDbCircle
 10
3.526
 20
2.949
 30
0.0
 40
0.009
100
AcDbArc
 50
128.601
 51
180.0
  0
LINE
  5
446
330
18
100
AcDbEntity
  8
0
100
AcDbLine
 10
3.573
 20
2.998
 30
0.0
 11
3.52
 21
2.955
 31
0.0
  0
ARC
  5
447
330
18
100
AcDbEntity
  8
0
100
AcDbCircle
 10
3.568
 20
3.004
 30
0.0
 40
0.009
100
AcDbArc
 50
308.601
 51
0.0
  0
LINE
  5
448
330
18
100
AcDbEntity
  8
0
100
AcDbLine
 10
3.576
 20
3.131
 30
0.0
 11
3.576
 21
3.004
 31
0.0
  0
ARC
  5
449
330
18
100
AcDbEntity
  8
0
100
AcDbCircle
 10
3.585
 20
3.131
 30
0.0
 40
0.009
100
AcDbArc
 50
104.832
 51
180.0
  0
LINE
  5
44A
330
18
100
AcDbEntity
  8
0
100
AcDbLine
 10
3.691
 20
3.168
 30
0.0
 11
3.583
 21
3.139
 31
0.0
  0
LINE
  5
44B
330
18
100
AcDbEntity
  8
0
100
AcDbLine
 10
3.583
 20
2.554
 30
0.0
 11
3.427
 21
2.284
 31
0.0
  0
ARC
  5
44C
330
18
100
AcDbEntity
  8
0
100
AcDbCircle
 10
3.575
 20
2.557
 30
0.0
 40
0.009
100
AcDbArc
 50
339.551
 51
0.0
  0
LINE
  5
44D
330
18
100
AcDbEntity
  8
0
100
AcDbLine
 10
3.584
 20
2.564
 30
0.0
 11
3.584
 21
2.557
 31
0.0
  0
ARC
  5
44E
330
18
100
AcDbEntity
  8
0
100
AcDbCircle
 10
3.575
 20
2.564
 30
0.0
 40
0.009
100
AcDbArc
 50
0.0
 51
56.871
  0
LINE
  5
44F
330
18
100
AcDbEntity
  8
0
100
AcDbLine
 10
3.529
 20
2.605
 30
0.0
 11
3.58
 21
2.572
 31
0.0
  0
ARC
  5
450
330
18
100
AcDbEntity
  8
0
100
AcDbCircle
 10
3.533
 20
2.613
 30
0.0
 40
0.009
100
AcDbArc
 50
180.0
 51
236.871
  0
LINE
  5
451
330
18
100
AcDbEntity
  8
0
100
AcDbLine
 10
3.525
 20
2.659
 30
0.0
 11
3.525
 21
2.613
 31
0.0
  0
ARC
  5
452
330
18
100
AcDbEntity
  8
0
100
AcDbCircle
 10
3.533
 20
2.659
 30
0.0
 40
0.009
100
AcDbArc
 50
128.601
 51
180.0
  0
LINE
  5
453
330
18
100
AcDbEntity
  8
0
100
AcDbLine
 10
3.581
 20
2.708
 30
0.0
 11
3.528
 21
2.666
 31
0.0
  0
ARC
  5
454
330
18
100
AcDbEntity
  8
0
100
AcDbCircle
 10
3.575
 20
2.715
 30
0.0
 40
0.009
100
AcDbArc
 50
308.601
 51
0.0
  0
LINE
  5
455
330
18
100
AcDbEntity
  8
0
100
AcDbLine
 10
3.584
 20
2.849
 30
0.0
 11
3.584
 21
2.715
 31
0.0
  0
ARC
  5
456
330
18
100
AcDbEntity
  8
0
100
AcDbCircle
 10
3.575
 20
2.849
 30
0.0
 40
0.009
100
AcDbArc
 50
0.0
 51
56.871
  0
LINE
  5
457
330
18
100
AcDbEntity
  8
0
100
AcDbLine
 10
3.529
 20
2.89
 30
0.0
 11
3.58
 21
2.857
 31
0.0
  0
ARC
  5
458
330
18
100
AcDbEntity
  8
0
100
AcDbCircle
 10
3.533
 20
2.898
 30
0.0
 40
0.009
100
AcDbArc
 50
180.0
 51
236.871
  0
LINE
  5
459
330
18
100
AcDbEntity
  8
0
100
AcDbLine
 10
3.525
 20
2.944
 30
0.0
 11
3.525
 21
2.898
 31
0.0
  0
ARC
  5
45A
330
18
100
AcDbEntity
  8
0
100
AcDbCircle
 10
3.533
 20
2.944
 30
0.0
 40
0.009
100
AcDbArc
 50
128.601
 51
180.0
  0
LINE
  5
45B
330
18
100
AcDbEntity
  8
0
100
AcDbLine
 10
3.581
 20
2.993
 30
0.0
 11
3.528
 21
2.951
 31
0.0
  0
ARC
  5
45C
330
18
100
AcDbEntity
  8
0
100
AcDbCircle
 10
3.575
 20
3.0
 30
0.0
 40
0.009
100
AcDbArc
 50
308.601
 51
0.0
  0
LINE
  5
45D
330
18
100
AcDbEntity
  8
0
100
AcDbLine
 10
3.584
 20
3.126
 30
0.0
 11
3.584
 21
3.0
 31
0.0
  0
ARC
  5
45E
330
18
100
AcDbEntity
  8
0
100
AcDbCircle
 10
3.593
 20
3.126
 30
0.0
 40
0.009
100
AcDbArc
 50
104.832
 51
180.0
  0
LINE
  5
45F
330
18
100
AcDbEntity
  8
0
100
AcDbLine
 10
3.703
 20
3.164
 30
0.0
 11
3.591
 21
3.135
 31
0.0
  0
LINE
  5
460
330
18
100
AcDbEntity
  8
0
100
AcDbLine
 10
3.887
 20
3.116
 30
0.0
 11
4.073
 21
3.067
 31
0.0
  0
LINE
  5
461
330
18
100
AcDbEntity
  8
0
100
AcDbLine
 10
3.909
 20
2.278
 30
0.0
 11
3.666
 21
2.171
 31
0.0
  0
LINE
  5
462
330
18
100
AcDbEntity
  8
0
100
AcDbLine
 10
3.553
 20
3.204
 30
0.0
 11
3.703
 21
3.164
 31
0.0
  0
LINE
  5
463
330
18
100
AcDbEntity
  8
0
100
AcDbLine
 10
2.411
 20
3.357
 30
0.0
 11
2.411
 21
3.283
 31
0.0
  0
LINE
  5
464
330
18
100
AcDbEntity
  8
0
100
AcDbLine
 10
2.411
 20
3.283
 30
0.0
 11
2.396
 21
3.288
 31
0.0
  0
LINE
  5
465
330
18
100
AcDbEntity
  8
0
100
AcDbLine
 10
2.396
 20
3.288
 30
0.0
 11
2.396
 21
3.365
 31
0.0
  0
LINE
  5
466
330
18
100
AcDbEntity
  8
0
100
AcDbLine
 10
2.396
 20
3.365
 30
0.0
 11
2.411
 21
3.336
 31
0.0
  0
LINE
  5
467
330
18
100
AcDbEntity
  8
0
100
AcDbLine
 10
2.363
 20
3.403
 30
0.0
 11
2.363
 21
2.889
 31
0.0
  0
LINE
  5
468
330
18
100
AcDbEntity
  8
0
100
AcDbLine
 10
2.351
 20
3.403
 30
0.0
 11
2.351
 21
2.889
 31
0.0
  0
LINE
  5
469
330
18
100
AcDbEntity
  8
0
100
AcDbLine
 10
2.356
 20
3.467
 30
0.0
 11
2.239
 21
3.456
 31
0.0
  0
ARC
  5
46A
330
18
100
AcDbEntity
  8
0
100
AcDbCircle
 10
2.241
 20
3.449
 30
0.0
 40
0.007
100
AcDbArc
 50
104.832
 51
180.0
  0
LINE
  5
46B
330
18
100
AcDbEntity
  8
0
100
AcDbLine
 10
2.234
 20
3.449
 30
0.0
 11
2.234
 21
3.311
 31
0.0
  0
ARC
  5
46C
330
18
100
AcDbEntity
  8
0
100
AcDbCircle
 10
2.227
 20
3.311
 30
0.0
 40
0.007
100
AcDbArc
 50
308.601
 51
0.0
  0
LINE
  5
46D
330
18
100
AcDbEntity
  8
0
100
AcDbLine
 10
2.231
 20
3.305
 30
0.0
 11
2.188
 21
3.271
 31
0.0
  0
ARC
  5
46E
330
18
100
AcDbEntity
  8
0
100
AcDbCircle
 10
2.192
 20
3.265
 30
0.0
 40
0.007
100
AcDbArc
 50
128.601
 51
180.0
  0
LINE
  5
46F
330
18
100
AcDbEntity
  8
0
100
AcDbLine
 10
2.185
 20
3.265
 30
0.0
 11
2.185
 21
3.227
 31
0.0
  0
ARC
  5
470
330
18
100
AcDbEntity
  8
0
100
AcDbCircle
 10
2.192
 20
3.227
 30
0.0
 40
0.007
100
AcDbArc
 50
180.0
 51
236.871
  0
LINE
  5
471
330
18
100
AcDbEntity
  8
0
100
AcDbLine
 10
2.188
 20
3.222
 30
0.0
 11
2.23
 21
3.194
 31
0.0
  0
ARC
  5
472
330
18
100
AcDbEntity
  8
0
100
AcDbCircle
 10
2.227
 20
3.188
 30
0.0
 40
0.007
100
AcDbArc
 50
0.0
 51
56.871
  0
LINE
  5
473
330
18
100
AcDbEntity
  8
0
100
AcDbLine
 10
2.234
 20
3.188
 30
0.0
 11
2.234
 21
3.079
 31
0.0
  0
ARC
  5
474
330
18
100
AcDbEntity
  8
0
100
AcDbCircle
 10
2.227
 20
3.079
 30
0.0
 40
0.007
100
AcDbArc
 50
308.601
 51
0.0
  0
LINE
  5
475
330
18
100
AcDbEntity
  8
0
100
AcDbLine
 10
2.231
 20
3.073
 30
0.0
 11
2.188
 21
3.039
 31
0.0
  0
ARC
  5
476
330
18
100
AcDbEntity
  8
0
100
AcDbCircle
 10
2.192
 20
3.033
 30
0.0
 40
0.007
100
AcDbArc
 50
128.601
 51
180.0
  0
LINE
  5
477
330
18
100
AcDbEntity
  8
0
100
AcDbLine
 10
2.185
 20
3.033
 30
0.0
 11
2.185
 21
2.995
 31
0.0
  0
ARC
  5
478
330
18
100
AcDbEntity
  8
0
100
AcDbCircle
 10
2.192
 20
2.995
 30
0.0
 40
0.007
100
AcDbArc
 50
180.0
 51
236.871
  0
LINE
  5
479
330
18
100
AcDbEntity
  8
0
100
AcDbLine
 10
2.188
 20
2.989
 30
0.0
 11
2.23
 21
2.962
 31
0.0
  0
ARC
  5
47A
330
18
100
AcDbEntity
  8
0
100
AcDbCircle
 10
2.227
 20
2.956
 30
0.0
 40
0.007
100
AcDbArc
 50
0.0
 51
56.871
  0
LINE
  5
47B
330
18
100
AcDbEntity
  8
0
100
AcDbLine
 10
2.234
 20
2.956
 30
0.0
 11
2.234
 21
2.95
 31
0.0
  0
ARC
  5
47C
330
18
100
AcDbEntity
  8
0
100
AcDbCircle
 10
2.227
 20
2.95
 30
0.0
 40
0.007
100
AcDbArc
 50
339.551
 51
0.0
  0
LINE
  5
47D
330
18
100
AcDbEntity
  8
0
100
AcDbLine
 10
2.233
 20
2.947
 30
0.0
 11
2.107
 21
2.733
 31
0.0
  0
LINE
  5
47E
330
18
100
AcDbEntity
  8
0
100
AcDbLine
 10
2.353
 20
3.471
 30
0.0
 11
2.233
 21
3.459
 31
0.0
  0
ARC
  5
47F
330
18
100
AcDbEntity
  8
0
100
AcDbCircle
 10
2.235
 20
3.452
 30
0.0
 40
0.007
100
AcDbArc
 50
104.832
 51
180.0
  0
LINE
  5
480
330
18
100
AcDbEntity
  8
0
100
AcDbLine
 10
2.228
 20
3.452
 30
0.0
 11
2.228
 21
3.315
 31
0.0
  0
ARC
  5
481
330
18
100
AcDbEntity
  8
0
100
AcDbCircle
 10
2.22
 20
3.315
 30
0.0
 40
0.007
100
AcDbArc
 50
308.601
 51
0.0
  0
LINE
  5
482
330
18
100
AcDbEntity
  8
0
100
AcDbLine
 10
2.225
 20
3.309
 30
0.0
 11
2.182
 21
3.275
 31
0.0
  0
ARC
  5
483
330
18
100
AcDbEntity
  8
0
100
AcDbCircle
 10
2.186
 20
3.269
 30
0.0
 40
0.007
100
AcDbArc
 50
128.601
 51
180.0
  0
LINE
  5
484
330
18
100
AcDbEntity
  8
0
100
AcDbLine
 10
2.179
 20
3.269
 30
0.0
 11
2.179
 21
3.231
 31
0.0
  0
ARC
  5
485
330
18
100
AcDbEntity
  8
0
100
AcDbCircle
 10
2.186
 20
3.231
 30
0.0
 40
0.007
100
AcDbArc
 50
180.0
 51
236.871
  0
LINE
  5
486
330
18
100
AcDbEntity
  8
0
100
AcDbLine
 10
2.182
 20
3.225
 30
0.0
 11
2.224
 21
3.198
 31
0.0
  0
ARC
  5
487
330
18
100
AcDbEntity
  8
0
100
AcDbCircle
 10
2.22
 20
3.192
 30
0.0
 40
0.007
100
AcDbArc
 50
0.0
 51
56.871
  0
LINE
  5
488
330
18
100
AcDbEntity
  8
0
100
AcDbLine
 10
2.228
 20
3.192
 30
0.0
 11
2.228
 21
3.082
 31
0.0
  0
ARC
  5
489
330
18
100
AcDbEntity
  8
0
100
AcDbCircle
 10
2.22
 20
3.082
 30
0.0
 40
0.007
100
AcDbArc
 50
308.601
 51
0.0
  0
LINE
  5
48A
330
18
100
AcDbEntity
  8
0
100
AcDbLine
 10
2.225
 20
3.077
 30
0.0
 11
2.182
 21
3.042
 31
0.0
  0
ARC
  5
48B
330
18
100
AcDbEntity
  8
0
100
AcDbCircle
 10
2.186
 20
3.037
 30
0.0
 40
0.007
100
AcDbArc
 50
128.601
 51
180.0
  0
LINE
  5
48C
330
18
100
AcDbEntity
  8
0
100
AcDbLine
 10
2.179
 20
3.037
 30
0.0
 11
2.179
 21
2.999
 31
0.0
  0
ARC
  5
48D
330
18
100
AcDbEntity
  8
0
100
AcDbCircle
 10
2.186
 20
2.999
 30
0.0
 40
0.007
100
AcDbArc
 50
180.0
 51
236.871
  0
LINE
  5
48E
330
18
100
AcDbEntity
  8
0
100
AcDbLine
 10
2.182
 20
2.993
 30
0.0
 11
2.224
 21
2.965
 31
0.0
  0
ARC
  5
48F
330
18
100
AcDbEntity
  8
0
100
AcDbCircle
 10
2.22
 20
2.959
 30
0.0
 40
0.007
100
AcDbArc
 50
0.0
 51
56.871
  0
LINE
  5
490
330
18
100
AcDbEntity
  8
0
100
AcDbLine
 10
2.228
 20
2.959
 30
0.0
 11
2.228
 21
2.953
 31
0.0
  0
ARC
  5
491
330
18
100
AcDbEntity
  8
0
100
AcDbCircle
 10
2.22
 20
2.953
 30
0.0
 40
0.007
100
AcDbArc
 50
339.551
 51
0.0
  0
LINE
  5
492
330
18
100
AcDbEntity
  8
0
100
AcDbLine
 10
2.227
 20
2.951
 30
0.0
 11
2.101
 21
2.736
 31
0.0
  0
LINE
  5
493
330
18
100
AcDbEntity
  8
0
100
AcDbLine
 10
2.052
 20
2.734
 30
0.0
 11
2.085
 21
2.725
 31
0.0
  0
LINE
  5
494
330
18
100
AcDbEntity
  8
0
100
AcDbLine
 10
2.102
 20
2.725
 30
0.0
 11
2.342
 21
2.772
 31
0.0
  0
LINE
  5
495
330
18
100
AcDbEntity
  8
0
100
AcDbLine
 10
2.357
 20
2.785
 30
0.0
 11
2.375
 21
2.84
 31
0.0
  0
ARC
  5
496
330
18
100
AcDbEntity
  8
0
100
AcDbCircle
 10
2.394
 20
2.834
 30
0.0
 40
0.02
100
AcDbArc
 50
123.051
 51
161.471
  0
ARC
  5
497
330
18
100
AcDbEntity
  8
0
100
AcDbCircle
 10
2.338
 20
2.792
 30
0.0
 40
0.02
100
AcDbArc
 50
281.129
 51
341.471
  0
ARC
  5
498
330
18
100
AcDbEntity
  8
0
100
AcDbCircle
 10
2.09
 20
2.745
 30
0.0
 40
0.02
100
AcDbArc
 50
255.3140000000001
 51
329.415
  0
ARC
  5
499
330
18
100
AcDbEntity
  8
0
100
AcDbCircle
 10
2.096
 20
2.753
 30
0.0
 40
0.029
100
AcDbArc
 50
258.536
 51
281.084
  0
LINE
  5
49A
330
18
100
AcDbEntity
  8
0
100
AcDbLine
 10
2.068
 20
2.737
 30
0.0
 11
2.09
 21
2.731
 31
0.0
  0
ARC
  5
49B
330
18
100
AcDbEntity
  8
0
100
AcDbCircle
 10
2.092
 20
2.741
 30
0.0
 40
0.01
100
AcDbArc
 50
255.3140000000001
 51
329.579
  0
LINE
  5
49C
330
18
100
AcDbEntity
  8
0
100
AcDbLine
 10
2.358
 20
2.787
 30
0.0
 11
2.366
 21
2.788
 31
0.0
  0
LINE
  5
49D
330
18
100
AcDbEntity
  8
0
100
AcDbLine
 10
3.732
 20
2.359
 30
0.0
 11
3.703
 21
2.369
 31
0.0
  0
LINE
  5
49E
330
18
100
AcDbEntity
  8
0
100
AcDbLine
 10
3.504
 20
2.431
 30
0.0
 11
2.366
 21
2.788
 31
0.0
  0
LINE
  5
49F
330
18
100
AcDbEntity
  8
0
100
AcDbLine
 10
8.772
 20
1.79
 30
0.0
 11
8.761000000000001
 21
1.719
 31
0.0
  0
LINE
  5
4A0
330
18
100
AcDbEntity
  8
0
100
AcDbLine
 10
8.761000000000001
 20
1.719
 30
0.0
 11
8.75
 21
1.681
 31
0.0
  0
LINE
  5
4A1
330
18
100
AcDbEntity
  8
0
100
AcDbLine
 10
8.75
 20
1.681
 30
0.0
 11
8.746
 21
1.619
 31
0.0
  0
LINE
  5
4A2
330
18
100
AcDbEntity
  8
0
100
AcDbLine
 10
8.746
 20
1.619
 30
0.0
 11
8.726000000000001
 21
1.552
 31
0.0
  0
LINE
  5
4A3
330
18
100
AcDbEntity
  8
0
100
AcDbLine
 10
8.812000000000001
 20
1.812
 30
0.0
 11
8.807
 21
1.735
 31
0.0
  0
LINE
  5
4A4
330
18
100
AcDbEntity
  8
0
100
AcDbLine
 10
8.807
 20
1.735
 30
0.0
 11
8.805
 21
1.673
 31
0.0
  0
LINE
  5
4A5
330
18
100
AcDbEntity
  8
0
100
AcDbLine
 10
8.805
 20
1.673
 30
0.0
 11
8.781000000000001
 21
1.573
 31
0.0
  0
LINE
  5
4A6
330
18
100
AcDbEntity
  8
0
100
AcDbLine
 10
8.781000000000001
 20
1.573
 30
0.0
 11
8.761000000000001
 21
1.466
 31
0.0
  0
LINE
  5
4A7
330
18
100
AcDbEntity
  8
0
100
AcDbLine
 10
8.761000000000001
 20
1.466
 30
0.0
 11
8.747
 21
1.39
 31
0.0
  0
LINE
  5
4A8
330
18
100
AcDbEntity
  8
0
100
AcDbLine
 10
8.747
 20
1.39
 30
0.0
 11
8.726000000000001
 21
1.299
 31
0.0
  0
LINE
  5
4A9
330
18
100
AcDbEntity
  8
0
100
AcDbLine
 10
8.843999999999999
 20
1.83
 30
0.0
 11
8.835000000000001
 21
1.673
 31
0.0
  0
LINE
  5
4AA
330
18
100
AcDbEntity
  8
0
100
AcDbLine
 10
8.835000000000001
 20
1.673
 30
0.0
 11
8.812999999999999
 21
1.566
 31
0.0
  0
LINE
  5
4AB
330
18
100
AcDbEntity
  8
0
100
AcDbLine
 10
8.812999999999999
 20
1.566
 30
0.0
 11
8.802
 21
1.413
 31
0.0
  0
LINE
  5
4AC
330
18
100
AcDbEntity
  8
0
100
AcDbLine
 10
8.802
 20
1.413
 30
0.0
 11
8.792
 21
1.258
 31
0.0
  0
LINE
  5
4AD
330
18
100
AcDbEntity
  8
0
100
AcDbLine
 10
8.792
 20
1.258
 30
0.0
 11
8.779
 21
1.087
 31
0.0
  0
LINE
  5
4AE
330
18
100
AcDbEntity
  8
0
100
AcDbLine
 10
8.779
 20
1.087
 30
0.0
 11
8.769
 21
0.9359999999999999
 31
0.0
  0
LINE
  5
4AF
330
18
100
AcDbEntity
  8
0
100
AcDbLine
 10
8.769
 20
0.9359999999999999
 30
0.0
 11
8.749000000000001
 21
0.764
 31
0.0
  0
LINE
  5
4B0
330
18
100
AcDbEntity
  8
0
100
AcDbLine
 10
8.749000000000001
 20
0.764
 30
0.0
 11
8.726000000000001
 21
0.6629999999999999
 31
0.0
  0
LINE
  5
4B1
330
18
100
AcDbEntity
  8
0
100
AcDbLine
 10
8.881
 20
1.85
 30
0.0
 11
8.875
 21
1.585
 31
0.0
  0
LINE
  5
4B2
330
18
100
AcDbEntity
  8
0
100
AcDbLine
 10
8.875
 20
1.585
 30
0.0
 11
8.874000000000001
 21
1.471
 31
0.0
  0
LINE
  5
4B3
330
18
100
AcDbEntity
  8
0
100
AcDbLine
 10
8.874000000000001
 20
1.471
 30
0.0
 11
8.866
 21
1.353
 31
0.0
  0
LINE
  5
4B4
330
18
100
AcDbEntity
  8
0
100
AcDbLine
 10
8.866
 20
1.353
 30
0.0
 11
8.855
 21
1.252
 31
0.0
  0
LINE
  5
4B5
330
18
100
AcDbEntity
  8
0
100
AcDbLine
 10
8.855
 20
1.252
 30
0.0
 11
8.862
 21
1.12
 31
0.0
  0
LINE
  5
4B6
330
18
100
AcDbEntity
  8
0
100
AcDbLine
 10
8.862
 20
1.12
 30
0.0
 11
8.843
 21
0.9570000000000001
 31
0.0
  0
LINE
  5
4B7
330
18
100
AcDbEntity
  8
0
100
AcDbLine
 10
8.843
 20
0.9570000000000001
 30
0.0
 11
8.832000000000001
 21
0.797
 31
0.0
  0
LINE
  5
4B8
330
18
100
AcDbEntity
  8
0
100
AcDbLine
 10
8.832000000000001
 20
0.797
 30
0.0
 11
8.812000000000001
 21
0.672
 31
0.0
  0
LINE
  5
4B9
330
18
100
AcDbEntity
  8
0
100
AcDbLine
 10
8.812000000000001
 20
0.672
 30
0.0
 11
8.812000000000001
 21
0.672
 31
0.0
  0
LINE
  5
4BA
330
18
100
AcDbEntity
  8
0
100
AcDbLine
 10
8.812000000000001
 20
0.672
 30
0.0
 11
8.792
 21
0.5629999999999999
 31
0.0
  0
LINE
  5
4BB
330
18
100
AcDbEntity
  8
0
100
AcDbLine
 10
8.792
 20
0.5629999999999999
 30
0.0
 11
8.789999999999999
 21
0.4379999999999999
 31
0.0
  0
LINE
  5
4BC
330
18
100
AcDbEntity
  8
0
100
AcDbLine
 10
8.789999999999999
 20
0.4379999999999999
 30
0.0
 11
8.787000000000001
 21
0.416
 31
0.0
  0
LINE
  5
4BD
330
18
100
AcDbEntity
  8
0
100
AcDbLine
 10
8.935000000000001
 20
1.384
 30
0.0
 11
8.922000000000001
 21
1.145
 31
0.0
  0
LINE
  5
4BE
330
18
100
AcDbEntity
  8
0
100
AcDbLine
 10
8.922000000000001
 20
1.145
 30
0.0
 11
8.916
 21
1.011
 31
0.0
  0
LINE
  5
4BF
330
18
100
AcDbEntity
  8
0
100
AcDbLine
 10
8.916
 20
1.011
 30
0.0
 11
8.896000000000001
 21
0.863
 31
0.0
  0
LINE
  5
4C0
330
18
100
AcDbEntity
  8
0
100
AcDbLine
 10
8.896000000000001
 20
0.863
 30
0.0
 11
8.898
 21
0.738
 31
0.0
  0
LINE
  5
4C1
330
18
100
AcDbEntity
  8
0
100
AcDbLine
 10
8.898
 20
0.738
 30
0.0
 11
8.884
 21
0.629
 31
0.0
  0
LINE
  5
4C2
330
18
100
AcDbEntity
  8
0
100
AcDbLine
 10
8.884
 20
0.629
 30
0.0
 11
8.878
 21
0.5550000000000001
 31
0.0
  0
LINE
  5
4C3
330
18
100
AcDbEntity
  8
0
100
AcDbLine
 10
8.878
 20
0.5550000000000001
 30
0.0
 11
8.869
 21
0.465
 31
0.0
  0
LINE
  5
4C4
330
18
100
AcDbEntity
  8
0
100
AcDbLine
 10
8.869
 20
0.465
 30
0.0
 11
8.866
 21
0.459
 31
0.0
  0
LINE
  5
4C5
330
18
100
AcDbEntity
  8
0
100
AcDbLine
 10
8.898999999999999
 20
0.476
 30
0.0
 11
8.935000000000001
 21
0.601
 31
0.0
  0
LINE
  5
4C6
330
18
100
AcDbEntity
  8
0
100
AcDbLine
 10
8.981
 20
1.904
 30
0.0
 11
8.999000000000001
 21
1.852
 31
0.0
  0
LINE
  5
4C7
330
18
100
AcDbEntity
  8
0
100
AcDbLine
 10
8.999000000000001
 20
1.852
 30
0.0
 11
9.023
 21
1.762
 31
0.0
  0
LINE
  5
4C8
330
18
100
AcDbEntity
  8
0
100
AcDbLine
 10
9.023
 20
1.762
 30
0.0
 11
9.062000000000001
 21
1.674
 31
0.0
  0
LINE
  5
4C9
330
18
100
AcDbEntity
  8
0
100
AcDbLine
 10
9.062000000000001
 20
1.674
 30
0.0
 11
9.116
 21
1.601
 31
0.0
  0
LINE
  5
4CA
330
18
100
AcDbEntity
  8
0
100
AcDbLine
 10
9.116
 20
1.601
 30
0.0
 11
9.132999999999999
 21
1.531
 31
0.0
  0
LINE
  5
4CB
330
18
100
AcDbEntity
  8
0
100
AcDbLine
 10
9.132999999999999
 20
1.531
 30
0.0
 11
9.144
 21
1.462
 31
0.0
  0
LINE
  5
4CC
330
18
100
AcDbEntity
  8
0
100
AcDbLine
 10
9.033
 20
1.932
 30
0.0
 11
9.056000000000001
 21
1.857
 31
0.0
  0
LINE
  5
4CD
330
18
100
AcDbEntity
  8
0
100
AcDbLine
 10
9.056000000000001
 20
1.857
 30
0.0
 11
9.103
 21
1.778
 31
0.0
  0
LINE
  5
4CE
330
18
100
AcDbEntity
  8
0
100
AcDbLine
 10
9.103
 20
1.778
 30
0.0
 11
9.125
 21
1.726
 31
0.0
  0
LINE
  5
4CF
330
18
100
AcDbEntity
  8
0
100
AcDbLine
 10
9.125
 20
1.726
 30
0.0
 11
9.144
 21
1.686
 31
0.0
  0
LINE
  5
4D0
330
18
100
AcDbEntity
  8
0
100
AcDbLine
 10
9.082000000000001
 20
1.959
 30
0.0
 11
9.103
 21
1.897
 31
0.0
  0
LINE
  5
4D1
330
18
100
AcDbEntity
  8
0
100
AcDbLine
 10
9.103
 20
1.897
 30
0.0
 11
9.131
 21
1.851
 31
0.0
  0
LINE
  5
4D2
330
18
100
AcDbEntity
  8
0
100
AcDbLine
 10
9.131
 20
1.851
 30
0.0
 11
9.144
 21
1.823
 31
0.0
  0
LINE
  5
4D3
330
18
100
AcDbEntity
  8
0
100
AcDbLine
 10
8.935000000000001
 20
1.828
 30
0.0
 11
8.970000000000001
 21
1.729
 31
0.0
  0
LINE
  5
4D4
330
18
100
AcDbEntity
  8
0
100
AcDbLine
 10
8.970000000000001
 20
1.729
 30
0.0
 11
8.994999999999999
 21
1.658
 31
0.0
  0
LINE
  5
4D5
330
18
100
AcDbEntity
  8
0
100
AcDbLine
 10
8.994999999999999
 20
1.658
 30
0.0
 11
9.029999999999999
 21
1.577
 31
0.0
  0
LINE
  5
4D6
330
18
100
AcDbEntity
  8
0
100
AcDbLine
 10
9.029999999999999
 20
1.577
 30
0.0
 11
9.061
 21
1.477
 31
0.0
  0
LINE
  5
4D7
330
18
100
AcDbEntity
  8
0
100
AcDbLine
 10
9.061
 20
1.477
 30
0.0
 11
9.087999999999999
 21
1.404
 31
0.0
  0
LINE
  5
4D8
330
18
100
AcDbEntity
  8
0
100
AcDbLine
 10
9.087999999999999
 20
1.404
 30
0.0
 11
9.116
 21
1.279
 31
0.0
  0
LINE
  5
4D9
330
18
100
AcDbEntity
  8
0
100
AcDbLine
 10
9.116
 20
1.279
 30
0.0
 11
9.131
 21
1.207
 31
0.0
  0
LINE
  5
4DA
330
18
100
AcDbEntity
  8
0
100
AcDbLine
 10
9.131
 20
1.207
 30
0.0
 11
9.144
 21
1.14
 31
0.0
  0
LINE
  5
4DB
330
18
100
AcDbEntity
  8
0
100
AcDbLine
 10
8.935000000000001
 20
1.643
 30
0.0
 11
8.992000000000001
 21
1.484
 31
0.0
  0
LINE
  5
4DC
330
18
100
AcDbEntity
  8
0
100
AcDbLine
 10
8.992000000000001
 20
1.484
 30
0.0
 11
9.027000000000001
 21
1.405
 31
0.0
  0
LINE
  5
4DD
330
18
100
AcDbEntity
  8
0
100
AcDbLine
 10
9.027000000000001
 20
1.405
 30
0.0
 11
9.049
 21
1.273
 31
0.0
  0
LINE
  5
4DE
330
18
100
AcDbEntity
  8
0
100
AcDbLine
 10
9.049
 20
1.273
 30
0.0
 11
9.049
 21
1.25
 31
0.0
  0
LINE
  5
4DF
330
18
100
AcDbEntity
  8
0
100
AcDbLine
 10
9.049
 20
1.25
 30
0.0
 11
9.074999999999999
 21
1.169
 31
0.0
  0
LINE
  5
4E0
330
18
100
AcDbEntity
  8
0
100
AcDbLine
 10
9.074999999999999
 20
1.169
 30
0.0
 11
9.102
 21
1.04
 31
0.0
  0
LINE
  5
4E1
330
18
100
AcDbEntity
  8
0
100
AcDbLine
 10
9.102
 20
1.04
 30
0.0
 11
9.122999999999999
 21
0.9520000000000001
 31
0.0
  0
LINE
  5
4E2
330
18
100
AcDbEntity
  8
0
100
AcDbLine
 10
9.122999999999999
 20
0.9520000000000001
 30
0.0
 11
9.144
 21
0.853
 31
0.0
  0
LINE
  5
4E3
330
18
100
AcDbEntity
  8
0
100
AcDbLine
 10
9.144
 20
0.853
 30
0.0
 11
9.144
 21
0.843
 31
0.0
  0
LINE
  5
4E4
330
18
100
AcDbEntity
  8
0
100
AcDbLine
 10
8.935000000000001
 20
1.479
 30
0.0
 11
8.978999999999999
 21
1.285
 31
0.0
  0
LINE
  5
4E5
330
18
100
AcDbEntity
  8
0
100
AcDbLine
 10
8.978999999999999
 20
1.285
 30
0.0
 11
9.011000000000001
 21
1.15
 31
0.0
  0
LINE
  5
4E6
330
18
100
AcDbEntity
  8
0
100
AcDbLine
 10
9.011000000000001
 20
1.15
 30
0.0
 11
9.048
 21
1.001
 31
0.0
  0
LINE
  5
4E7
330
18
100
AcDbEntity
  8
0
100
AcDbLine
 10
9.048
 20
1.001
 30
0.0
 11
9.066000000000001
 21
0.883
 31
0.0
  0
LINE
  5
4E8
330
18
100
AcDbEntity
  8
0
100
AcDbLine
 10
9.066000000000001
 20
0.883
 30
0.0
 11
9.091000000000001
 21
0.7829999999999999
 31
0.0
  0
LINE
  5
4E9
330
18
100
AcDbEntity
  8
0
100
AcDbLine
 10
9.091000000000001
 20
0.7829999999999999
 30
0.0
 11
9.096
 21
0.737
 31
0.0
  0
LINE
  5
4EA
330
18
100
AcDbEntity
  8
0
100
AcDbLine
 10
9.096
 20
0.737
 30
0.0
 11
9.106
 21
0.647
 31
0.0
  0
LINE
  5
4EB
330
18
100
AcDbEntity
  8
0
100
AcDbLine
 10
9.106
 20
0.647
 30
0.0
 11
9.118
 21
0.594
 31
0.0
  0
LINE
  5
4EC
330
18
100
AcDbEntity
  8
0
100
AcDbLine
 10
8.935000000000001
 20
1.215
 30
0.0
 11
8.970000000000001
 21
1.051
 31
0.0
  0
LINE
  5
4ED
330
18
100
AcDbEntity
  8
0
100
AcDbLine
 10
8.970000000000001
 20
1.051
 30
0.0
 11
9.0
 21
0.8909999999999999
 31
0.0
  0
LINE
  5
4EE
330
18
100
AcDbEntity
  8
0
100
AcDbLine
 10
9.0
 20
0.8909999999999999
 30
0.0
 11
9.016
 21
0.75
 31
0.0
  0
LINE
  5
4EF
330
18
100
AcDbEntity
  8
0
100
AcDbLine
 10
9.016
 20
0.75
 30
0.0
 11
9.027999999999999
 21
0.672
 31
0.0
  0
LINE
  5
4F0
330
18
100
AcDbEntity
  8
0
100
AcDbLine
 10
9.027999999999999
 20
0.672
 30
0.0
 11
9.037000000000001
 21
0.597
 31
0.0
  0
LINE
  5
4F1
330
18
100
AcDbEntity
  8
0
100
AcDbLine
 10
9.037000000000001
 20
0.597
 30
0.0
 11
9.035
 21
0.55
 31
0.0
  0
LINE
  5
4F2
330
18
100
AcDbEntity
  8
0
100
AcDbLine
 10
8.935000000000001
 20
0.8440000000000001
 30
0.0
 11
8.960000000000001
 21
0.69
 31
0.0
  0
LINE
  5
4F3
330
18
100
AcDbEntity
  8
0
100
AcDbLine
 10
8.960000000000001
 20
0.69
 30
0.0
 11
8.98
 21
0.5560000000000001
 31
0.0
  0
LINE
  5
4F4
330
18
100
AcDbEntity
  8
0
100
AcDbLine
 10
8.98
 20
0.5560000000000001
 30
0.0
 11
8.977
 21
0.518
 31
0.0
  0
LINE
  5
4F5
330
18
100
AcDbEntity
  8
0
100
AcDbLine
 10
9.277999999999999
 20
2.065
 30
0.0
 11
9.273999999999999
 21
1.912
 31
0.0
  0
LINE
  5
4F6
330
18
100
AcDbEntity
  8
0
100
AcDbLine
 10
9.273999999999999
 20
1.912
 30
0.0
 11
9.279999999999999
 21
1.726
 31
0.0
  0
LINE
  5
4F7
330
18
100
AcDbEntity
  8
0
100
AcDbLine
 10
9.279999999999999
 20
1.726
 30
0.0
 11
9.285
 21
1.532
 31
0.0
  0
LINE
  5
4F8
330
18
100
AcDbEntity
  8
0
100
AcDbLine
 10
9.285
 20
1.532
 30
0.0
 11
9.282
 21
1.419
 31
0.0
  0
LINE
  5
4F9
330
18
100
AcDbEntity
  8
0
100
AcDbLine
 10
9.282
 20
1.419
 30
0.0
 11
9.273
 21
1.263
 31
0.0
  0
LINE
  5
4FA
330
18
100
AcDbEntity
  8
0
100
AcDbLine
 10
9.273
 20
1.263
 30
0.0
 11
9.267000000000001
 21
1.134
 31
0.0
  0
LINE
  5
4FB
330
18
100
AcDbEntity
  8
0
100
AcDbLine
 10
9.267000000000001
 20
1.134
 30
0.0
 11
9.259
 21
1.044
 31
0.0
  0
LINE
  5
4FC
330
18
100
AcDbEntity
  8
0
100
AcDbLine
 10
9.259
 20
1.044
 30
0.0
 11
9.250999999999999
 21
0.9159999999999999
 31
0.0
  0
LINE
  5
4FD
330
18
100
AcDbEntity
  8
0
100
AcDbLine
 10
9.250999999999999
 20
0.9159999999999999
 30
0.0
 11
9.246
 21
0.851
 31
0.0
  0
LINE
  5
4FE
330
18
100
AcDbEntity
  8
0
100
AcDbLine
 10
9.246
 20
0.851
 30
0.0
 11
9.228
 21
0.733
 31
0.0
  0
LINE
  5
4FF
330
18
100
AcDbEntity
  8
0
100
AcDbLine
 10
9.228
 20
0.733
 30
0.0
 11
9.212999999999999
 21
0.664
 31
0.0
  0
LINE
  5
500
330
18
100
AcDbEntity
  8
0
100
AcDbLine
 10
9.212999999999999
 20
0.664
 30
0.0
 11
9.196
 21
0.636
 31
0.0
  0
LINE
  5
501
330
18
100
AcDbEntity
  8
0
100
AcDbLine
 10
9.241
 20
2.045
 30
0.0
 11
9.232999999999999
 21
1.861
 31
0.0
  0
LINE
  5
502
330
18
100
AcDbEntity
  8
0
100
AcDbLine
 10
9.232999999999999
 20
1.861
 30
0.0
 11
9.232999999999999
 21
1.706
 31
0.0
  0
LINE
  5
503
330
18
100
AcDbEntity
  8
0
100
AcDbLine
 10
9.232999999999999
 20
1.706
 30
0.0
 11
9.234
 21
1.566
 31
0.0
  0
LINE
  5
504
330
18
100
AcDbEntity
  8
0
100
AcDbLine
 10
9.234
 20
1.566
 30
0.0
 11
9.228999999999999
 21
1.395
 31
0.0
  0
LINE
  5
505
330
18
100
AcDbEntity
  8
0
100
AcDbLine
 10
9.228999999999999
 20
1.395
 30
0.0
 11
9.216000000000001
 21
1.249
 31
0.0
  0
LINE
  5
506
330
18
100
AcDbEntity
  8
0
100
AcDbLine
 10
9.216000000000001
 20
1.249
 30
0.0
 11
9.202999999999999
 21
1.101
 31
0.0
  0
LINE
  5
507
330
18
100
AcDbEntity
  8
0
100
AcDbLine
 10
9.202999999999999
 20
1.101
 30
0.0
 11
9.195
 21
0.973
 31
0.0
  0
LINE
  5
508
330
18
100
AcDbEntity
  8
0
100
AcDbLine
 10
9.195
 20
0.973
 30
0.0
 11
9.172000000000001
 21
0.863
 31
0.0
  0
LINE
  5
509
330
18
100
AcDbEntity
  8
0
100
AcDbLine
 10
9.172000000000001
 20
0.863
 30
0.0
 11
9.144
 21
0.753
 31
0.0
  0
LINE
  5
50A
330
18
100
AcDbEntity
  8
0
100
AcDbLine
 10
9.318
 20
2.087
 30
0.0
 11
9.323
 21
1.907
 31
0.0
  0
LINE
  5
50B
330
18
100
AcDbEntity
  8
0
100
AcDbLine
 10
9.323
 20
1.907
 30
0.0
 11
9.324
 21
1.72
 31
0.0
  0
LINE
  5
50C
330
18
100
AcDbEntity
  8
0
100
AcDbLine
 10
9.324
 20
1.72
 30
0.0
 11
9.327
 21
1.607
 31
0.0
  0
LINE
  5
50D
330
18
100
AcDbEntity
  8
0
100
AcDbLine
 10
9.327
 20
1.607
 30
0.0
 11
9.321
 21
1.433
 31
0.0
  0
LINE
  5
50E
330
18
100
AcDbEntity
  8
0
100
AcDbLine
 10
9.321
 20
1.433
 30
0.0
 11
9.312999999999999
 21
1.292
 31
0.0
  0
LINE
  5
50F
330
18
100
AcDbEntity
  8
0
100
AcDbLine
 10
9.312999999999999
 20
1.292
 30
0.0
 11
9.307
 21
1.132
 31
0.0
  0
LINE
  5
510
330
18
100
AcDbEntity
  8
0
100
AcDbLine
 10
9.307
 20
1.132
 30
0.0
 11
9.305
 21
0.988
 31
0.0
  0
LINE
  5
511
330
18
100
AcDbEntity
  8
0
100
AcDbLine
 10
9.305
 20
0.988
 30
0.0
 11
9.302
 21
0.887
 31
0.0
  0
LINE
  5
512
330
18
100
AcDbEntity
  8
0
100
AcDbLine
 10
9.302
 20
0.887
 30
0.0
 11
9.302
 21
0.773
 31
0.0
  0
LINE
  5
513
330
18
100
AcDbEntity
  8
0
100
AcDbLine
 10
9.302
 20
0.773
 30
0.0
 11
9.295999999999999
 21
0.69
 31
0.0
  0
LINE
  5
514
330
18
100
AcDbEntity
  8
0
100
AcDbLine
 10
9.193999999999999
 20
2.019
 30
0.0
 11
9.191000000000001
 21
1.892
 31
0.0
  0
LINE
  5
515
330
18
100
AcDbEntity
  8
0
100
AcDbLine
 10
9.191000000000001
 20
1.892
 30
0.0
 11
9.191000000000001
 21
1.793
 31
0.0
  0
LINE
  5
516
330
18
100
AcDbEntity
  8
0
100
AcDbLine
 10
9.191000000000001
 20
1.793
 30
0.0
 11
9.19
 21
1.656
 31
0.0
  0
LINE
  5
517
330
18
100
AcDbEntity
  8
0
100
AcDbLine
 10
9.19
 20
1.656
 30
0.0
 11
9.183999999999999
 21
1.488
 31
0.0
  0
LINE
  5
518
330
18
100
AcDbEntity
  8
0
100
AcDbLine
 10
9.183999999999999
 20
1.488
 30
0.0
 11
9.170999999999999
 21
1.307
 31
0.0
  0
LINE
  5
519
330
18
100
AcDbEntity
  8
0
100
AcDbLine
 10
9.170999999999999
 20
1.307
 30
0.0
 11
9.164999999999999
 21
1.224
 31
0.0
  0
LINE
  5
51A
330
18
100
AcDbEntity
  8
0
100
AcDbLine
 10
9.164999999999999
 20
1.224
 30
0.0
 11
9.144
 21
1.096
 31
0.0
  0
LINE
  5
51B
330
18
100
AcDbEntity
  8
0
100
AcDbLine
 10
0.985
 20
3.268
 30
0.0
 11
0.961
 21
3.214
 31
0.0
  0
LINE
  5
51C
330
18
100
AcDbEntity
  8
0
100
AcDbLine
 10
0.961
 20
3.214
 30
0.0
 11
0.924
 21
3.189
 31
0.0
  0
LINE
  5
51D
330
18
100
AcDbEntity
  8
0
100
AcDbLine
 10
0.924
 20
3.189
 30
0.0
 11
0.892
 21
3.161
 31
0.0
  0
LINE
  5
51E
330
18
100
AcDbEntity
  8
0
100
AcDbLine
 10
0.892
 20
3.161
 30
0.0
 11
0.9300000000000001
 21
3.115
 31
0.0
  0
LINE
  5
51F
330
18
100
AcDbEntity
  8
0
100
AcDbLine
 10
0.9300000000000001
 20
3.115
 30
0.0
 11
0.946
 21
3.081
 31
0.0
  0
LINE
  5
520
330
18
100
AcDbEntity
  8
0
100
AcDbLine
 10
0.946
 20
3.081
 30
0.0
 11
0.965
 21
3.049
 31
0.0
  0
LINE
  5
521
330
18
100
AcDbEntity
  8
0
100
AcDbLine
 10
0.965
 20
3.049
 30
0.0
 11
0.894
 21
2.987
 31
0.0
  0
LINE
  5
522
330
18
100
AcDbEntity
  8
0
100
AcDbLine
 10
0.894
 20
2.987
 30
0.0
 11
0.883
 21
2.909
 31
0.0
  0
LINE
  5
523
330
18
100
AcDbEntity
  8
0
100
AcDbLine
 10
0.883
 20
2.909
 30
0.0
 11
0.867
 21
2.844
 31
0.0
  0
LINE
  5
524
330
18
100
AcDbEntity
  8
0
100
AcDbLine
 10
0.867
 20
2.844
 30
0.0
 11
0.846
 21
2.735
 31
0.0
  0
LINE
  5
525
330
18
100
AcDbEntity
  8
0
100
AcDbLine
 10
0.846
 20
2.735
 30
0.0
 11
0.8290000000000001
 21
2.695
 31
0.0
  0
LINE
  5
526
330
18
100
AcDbEntity
  8
0
100
AcDbLine
 10
0.985
 20
3.403
 30
0.0
 11
0.9520000000000001
 21
3.293
 31
0.0
  0
LINE
  5
527
330
18
100
AcDbEntity
  8
0
100
AcDbLine
 10
0.9520000000000001
 20
3.293
 30
0.0
 11
0.914
 21
3.236
 31
0.0
  0
LINE
  5
528
330
18
100
AcDbEntity
  8
0
100
AcDbLine
 10
0.914
 20
3.236
 30
0.0
 11
0.8390000000000001
 21
3.186
 31
0.0
  0
LINE
  5
529
330
18
100
AcDbEntity
  8
0
100
AcDbLine
 10
0.8390000000000001
 20
3.186
 30
0.0
 11
0.92
 21
3.072
 31
0.0
  0
LINE
  5
52A
330
18
100
AcDbEntity
  8
0
100
AcDbLine
 10
0.92
 20
3.072
 30
0.0
 11
0.857
 21
3.008
 31
0.0
  0
LINE
  5
52B
330
18
100
AcDbEntity
  8
0
100
AcDbLine
 10
0.857
 20
3.008
 30
0.0
 11
0.847
 21
2.967
 31
0.0
  0
LINE
  5
52C
330
18
100
AcDbEntity
  8
0
100
AcDbLine
 10
0.847
 20
2.967
 30
0.0
 11
0.8370000000000001
 21
2.883
 31
0.0
  0
LINE
  5
52D
330
18
100
AcDbEntity
  8
0
100
AcDbLine
 10
0.8370000000000001
 20
2.883
 30
0.0
 11
0.8290000000000001
 21
2.864
 31
0.0
  0
LINE
  5
52E
330
18
100
AcDbEntity
  8
0
100
AcDbLine
 10
0.9640000000000001
 20
3.518
 30
0.0
 11
0.946
 21
3.432
 31
0.0
  0
LINE
  5
52F
330
18
100
AcDbEntity
  8
0
100
AcDbLine
 10
0.946
 20
3.432
 30
0.0
 11
0.9209999999999999
 21
3.346
 31
0.0
  0
LINE
  5
530
330
18
100
AcDbEntity
  8
0
100
AcDbLine
 10
0.9209999999999999
 20
3.346
 30
0.0
 11
0.882
 21
3.265
 31
0.0
  0
LINE
  5
531
330
18
100
AcDbEntity
  8
0
100
AcDbLine
 10
0.882
 20
3.265
 30
0.0
 11
0.871
 21
3.256
 31
0.0
  0
LINE
  5
532
330
18
100
AcDbEntity
  8
0
100
AcDbLine
 10
0.871
 20
3.256
 30
0.0
 11
0.79
 21
3.208
 31
0.0
  0
LINE
  5
533
330
18
100
AcDbEntity
  8
0
100
AcDbLine
 10
0.79
 20
3.208
 30
0.0
 11
0.873
 21
3.096
 31
0.0
  0
LINE
  5
534
330
18
100
AcDbEntity
  8
0
100
AcDbLine
 10
0.873
 20
3.096
 30
0.0
 11
0.8290000000000001
 21
3.02
 31
0.0
  0
LINE
  5
535
330
18
100
AcDbEntity
  8
0
100
AcDbLine
 10
0.909
 20
3.536
 30
0.0
 11
0.884
 21
3.432
 31
0.0
  0
LINE
  5
536
330
18
100
AcDbEntity
  8
0
100
AcDbLine
 10
0.884
 20
3.432
 30
0.0
 11
0.856
 21
3.353
 31
0.0
  0
LINE
  5
537
330
18
100
AcDbEntity
  8
0
100
AcDbLine
 10
0.856
 20
3.353
 30
0.0
 11
0.826
 21
3.274
 31
0.0
  0
LINE
  5
538
330
18
100
AcDbEntity
  8
0
100
AcDbLine
 10
0.861
 20
3.552
 30
0.0
 11
0.8290000000000001
 21
3.452
 31
0.0
  0
LINE
  5
539
330
18
100
AcDbEntity
  8
0
100
AcDbLine
 10
0.991
 20
3.035
 30
0.0
 11
0.948
 21
2.958
 31
0.0
  0
LINE
  5
53A
330
18
100
AcDbEntity
  8
0
100
AcDbLine
 10
0.948
 20
2.958
 30
0.0
 11
0.94
 21
2.893
 31
0.0
  0
LINE
  5
53B
330
18
100
AcDbEntity
  8
0
100
AcDbLine
 10
0.94
 20
2.893
 30
0.0
 11
0.9229999999999999
 21
2.784
 31
0.0
  0
LINE
  5
53C
330
18
100
AcDbEntity
  8
0
100
AcDbLine
 10
0.9229999999999999
 20
2.784
 30
0.0
 11
0.894
 21
2.661
 31
0.0
  0
LINE
  5
53D
330
18
100
AcDbEntity
  8
0
100
AcDbLine
 10
0.894
 20
2.661
 30
0.0
 11
0.882
 21
2.607
 31
0.0
  0
LINE
  5
53E
330
18
100
AcDbEntity
  8
0
100
AcDbLine
 10
0.985
 20
2.828
 30
0.0
 11
0.9690000000000001
 21
2.699
 31
0.0
  0
LINE
  5
53F
330
18
100
AcDbEntity
  8
0
100
AcDbLine
 10
0.9690000000000001
 20
2.699
 30
0.0
 11
0.9490000000000001
 21
2.608
 31
0.0
  0
LINE
  5
540
330
18
100
AcDbEntity
  8
0
100
AcDbLine
 10
0.9490000000000001
 20
2.608
 30
0.0
 11
0.9390000000000001
 21
2.576
 31
0.0
  0
ARC
  5
541
330
18
100
AcDbEntity
  8
0
100
AcDbCircle
 10
5.97
 20
1.907
 30
0.0
 40
0.06
100
AcDbArc
 50
179.111
 51
189.2
  0
ARC
  5
542
330
18
100
AcDbEntity
  8
0
100
AcDbCircle
 10
5.946000000000001
 20
1.904
 30
0.0
 40
0.035
100
AcDbArc
 50
189.2
 51
202.357
  0
ARC
  5
543
330
18
100
AcDbEntity
  8
0
100
AcDbCircle
 10
5.93
 20
1.897
 30
0.0
 40
0.019
100
AcDbArc
 50
202.357
 51
225.152
  0
ARC
  5
544
330
18
100
AcDbEntity
  8
0
100
AcDbCircle
 10
5.921
 20
1.888
 30
0.0
 40
0.005
100
AcDbArc
 50
225.152
 51
269.111
  0
ARC
  5
545
330
18
100
AcDbEntity
  8
0
100
AcDbCircle
 10
5.921
 20
1.888
 30
0.0
 40
0.005
100
AcDbArc
 50
269.111
 51
313.07
  0
ARC
  5
546
330
18
100
AcDbEntity
  8
0
100
AcDbCircle
 10
5.911000000000001
 20
1.898
 30
0.0
 40
0.019
100
AcDbArc
 50
313.07
 51
335.866
  0
ARC
  5
547
330
18
100
AcDbEntity
  8
0
100
AcDbCircle
 10
5.896
 20
1.904
 30
0.0
 40
0.035
100
AcDbArc
 50
335.866
 51
349.023
  0
ARC
  5
548
330
18
100
AcDbEntity
  8
0
100
AcDbCircle
 10
5.872000000000001
 20
1.909
 30
0.0
 40
0.06
100
AcDbArc
 50
349.023
 51
359.111
  0
ARC
  5
549
330
18
100
AcDbEntity
  8
0
100
AcDbCircle
 10
5.872000000000001
 20
1.909
 30
0.0
 40
0.06
100
AcDbArc
 50
359.111
 51
9.199999999999999
  0
ARC
  5
54A
330
18
100
AcDbEntity
  8
0
100
AcDbCircle
 10
5.896
 20
1.913
 30
0.0
 40
0.035
100
AcDbArc
 50
9.199999999999999
 51
22.357
  0
ARC
  5
54B
330
18
100
AcDbEntity
  8
0
100
AcDbCircle
 10
5.912000000000001
 20
1.919
 30
0.0
 40
0.019
100
AcDbArc
 50
22.357
 51
45.152
  0
ARC
  5
54C
330
18
100
AcDbEntity
  8
0
100
AcDbCircle
 10
5.921
 20
1.929
 30
0.0
 40
0.005
100
AcDbArc
 50
45.152
 51
89.111
  0
ARC
  5
54D
330
18
100
AcDbEntity
  8
0
100
AcDbCircle
 10
5.921
 20
1.929
 30
0.0
 40
0.005
100
AcDbArc
 50
89.111
 51
133.07
  0
ARC
  5
54E
330
18
100
AcDbEntity
  8
0
100
AcDbCircle
 10
5.931
 20
1.919
 30
0.0
 40
0.019
100
AcDbArc
 50
133.07
 51
155.866
  0
ARC
  5
54F
330
18
100
AcDbEntity
  8
0
100
AcDbCircle
 10
5.946000000000001
 20
1.912
 30
0.0
 40
0.035
100
AcDbArc
 50
155.866
 51
169.023
  0
ARC
  5
550
330
18
100
AcDbEntity
  8
0
100
AcDbCircle
 10
5.97
 20
1.907
 30
0.0
 40
0.06
100
AcDbArc
 50
169.023
 51
179.111
  0
ARC
  5
551
330
18
100
AcDbEntity
  8
0
100
AcDbCircle
 10
5.97
 20
2.233
 30
0.0
 40
0.06
100
AcDbArc
 50
179.111
 51
189.2
  0
ARC
  5
552
330
18
100
AcDbEntity
  8
0
100
AcDbCircle
 10
5.946000000000001
 20
2.229
 30
0.0
 40
0.035
100
AcDbArc
 50
189.2
 51
202.357
  0
ARC
  5
553
330
18
100
AcDbEntity
  8
0
100
AcDbCircle
 10
5.93
 20
2.223
 30
0.0
 40
0.019
100
AcDbArc
 50
202.357
 51
225.152
  0
ARC
  5
554
330
18
100
AcDbEntity
  8
0
100
AcDbCircle
 10
5.921
 20
2.213
 30
0.0
 40
0.005
100
AcDbArc
 50
225.152
 51
269.111
  0
ARC
  5
555
330
18
100
AcDbEntity
  8
0
100
AcDbCircle
 10
5.921
 20
2.213
 30
0.0
 40
0.005
100
AcDbArc
 50
269.111
 51
313.07
  0
ARC
  5
556
330
18
100
AcDbEntity
  8
0
100
AcDbCircle
 10
5.911000000000001
 20
2.223
 30
0.0
 40
0.019
100
AcDbArc
 50
313.07
 51
335.866
  0
ARC
  5
557
330
18
100
AcDbEntity
  8
0
100
AcDbCircle
 10
5.896
 20
2.23
 30
0.0
 40
0.035
100
AcDbArc
 50
335.866
 51
349.023
  0
ARC
  5
558
330
18
100
AcDbEntity
  8
0
100
AcDbCircle
 10
5.872000000000001
 20
2.235
 30
0.0
 40
0.06
100
AcDbArc
 50
349.023
 51
359.111
  0
ARC
  5
559
330
18
100
AcDbEntity
  8
0
100
AcDbCircle
 10
5.872000000000001
 20
2.235
 30
0.0
 40
0.06
100
AcDbArc
 50
359.111
 51
9.199999999999999
  0
ARC
  5
55A
330
18
100
AcDbEntity
  8
0
100
AcDbCircle
 10
5.896
 20
2.239
 30
0.0
 40
0.035
100
AcDbArc
 50
9.199999999999999
 51
22.357
  0
ARC
  5
55B
330
18
100
AcDbEntity
  8
0
100
AcDbCircle
 10
5.912000000000001
 20
2.245
 30
0.0
 40
0.019
100
AcDbArc
 50
22.357
 51
45.152
  0
ARC
  5
55C
330
18
100
AcDbEntity
  8
0
100
AcDbCircle
 10
5.921
 20
2.255
 30
0.0
 40
0.005
100
AcDbArc
 50
45.152
 51
89.111
  0
ARC
  5
55D
330
18
100
AcDbEntity
  8
0
100
AcDbCircle
 10
5.921
 20
2.255
 30
0.0
 40
0.005
100
AcDbArc
 50
89.111
 51
133.07
  0
ARC
  5
55E
330
18
100
AcDbEntity
  8
0
100
AcDbCircle
 10
5.931
 20
2.245
 30
0.0
 40
0.019
100
AcDbArc
 50
133.07
 51
155.866
  0
ARC
  5
55F
330
18
100
AcDbEntity
  8
0
100
AcDbCircle
 10
5.946000000000001
 20
2.238
 30
0.0
 40
0.035
100
AcDbArc
 50
155.866
 51
169.023
  0
ARC
  5
560
330
18
100
AcDbEntity
  8
0
100
AcDbCircle
 10
5.97
 20
2.233
 30
0.0
 40
0.06
100
AcDbArc
 50
169.023
 51
179.111
  0
ARC
  5
561
330
18
100
AcDbEntity
  8
0
100
AcDbCircle
 10
5.74
 20
2.34
 30
0.0
 40
0.06
100
AcDbArc
 50
179.111
 51
189.2
  0
ARC
  5
562
330
18
100
AcDbEntity
  8
0
100
AcDbCircle
 10
5.716
 20
2.336
 30
0.0
 40
0.035
100
AcDbArc
 50
189.2
 51
202.357
  0
ARC
  5
563
330
18
100
AcDbEntity
  8
0
100
AcDbCircle
 10
5.7
 20
2.33
 30
0.0
 40
0.019
100
AcDbArc
 50
202.357
 51
225.152
  0
ARC
  5
564
330
18
100
AcDbEntity
  8
0
100
AcDbCircle
 10
5.691
 20
2.32
 30
0.0
 40
0.005
100
AcDbArc
 50
225.152
 51
269.111
  0
ARC
  5
565
330
18
100
AcDbEntity
  8
0
100
AcDbCircle
 10
5.691
 20
2.32
 30
0.0
 40
0.005
100
AcDbArc
 50
269.111
 51
313.07
  0
ARC
  5
566
330
18
100
AcDbEntity
  8
0
100
AcDbCircle
 10
5.681
 20
2.33
 30
0.0
 40
0.019
100
AcDbArc
 50
313.07
 51
335.866
  0
ARC
  5
567
330
18
100
AcDbEntity
  8
0
100
AcDbCircle
 10
5.666
 20
2.337
 30
0.0
 40
0.035
100
AcDbArc
 50
335.866
 51
349.023
  0
ARC
  5
568
330
18
100
AcDbEntity
  8
0
100
AcDbCircle
 10
5.642
 20
2.342
 30
0.0
 40
0.06
100
AcDbArc
 50
349.023
 51
359.111
  0
ARC
  5
569
330
18
100
AcDbEntity
  8
0
100
AcDbCircle
 10
5.642
 20
2.342
 30
0.0
 40
0.06
100
AcDbArc
 50
359.111
 51
9.199999999999999
  0
ARC
  5
56A
330
18
100
AcDbEntity
  8
0
100
AcDbCircle
 10
5.666
 20
2.346
 30
0.0
 40
0.035
100
AcDbArc
 50
9.199999999999999
 51
22.357
  0
ARC
  5
56B
330
18
100
AcDbEntity
  8
0
100
AcDbCircle
 10
5.682
 20
2.352
 30
0.0
 40
0.019
100
AcDbArc
 50
22.357
 51
45.152
  0
ARC
  5
56C
330
18
100
AcDbEntity
  8
0
100
AcDbCircle
 10
5.691
 20
2.361
 30
0.0
 40
0.005
100
AcDbArc
 50
45.152
 51
89.111
  0
ARC
  5
56D
330
18
100
AcDbEntity
  8
0
100
AcDbCircle
 10
5.691
 20
2.361
 30
0.0
 40
0.005
100
AcDbArc
 50
89.111
 51
133.07
  0
ARC
  5
56E
330
18
100
AcDbEntity
  8
0
100
AcDbCircle
 10
5.701000000000001
 20
2.352
 30
0.0
 40
0.019
100
AcDbArc
 50
133.07
 51
155.866
  0
ARC
  5
56F
330
18
100
AcDbEntity
  8
0
100
AcDbCircle
 10
5.716
 20
2.345
 30
0.0
 40
0.035
100
AcDbArc
 50
155.866
 51
169.023
  0
ARC
  5
570
330
18
100
AcDbEntity
  8
0
100
AcDbCircle
 10
5.74
 20
2.34
 30
0.0
 40
0.06
100
AcDbArc
 50
169.023
 51
179.111
  0
ARC
  5
571
330
18
100
AcDbEntity
  8
0
100
AcDbCircle
 10
5.74
 20
2.014
 30
0.0
 40
0.06
100
AcDbArc
 50
179.111
 51
189.2
  0
ARC
  5
572
330
18
100
AcDbEntity
  8
0
100
AcDbCircle
 10
5.716
 20
2.01
 30
0.0
 40
0.035
100
AcDbArc
 50
189.2
 51
202.357
  0
ARC
  5
573
330
18
100
AcDbEntity
  8
0
100
AcDbCircle
 10
5.7
 20
2.004
 30
0.0
 40
0.019
100
AcDbArc
 50
202.357
 51
225.152
  0
ARC
  5
574
330
18
100
AcDbEntity
  8
0
100
AcDbCircle
 10
5.691
 20
1.994
 30
0.0
 40
0.005
100
AcDbArc
 50
225.152
 51
269.111
  0
ARC
  5
575
330
18
100
AcDbEntity
  8
0
100
AcDbCircle
 10
5.691
 20
1.994
 30
0.0
 40
0.005
100
AcDbArc
 50
269.111
 51
313.07
  0
ARC
  5
576
330
18
100
AcDbEntity
  8
0
100
AcDbCircle
 10
5.681
 20
2.004
 30
0.0
 40
0.019
100
AcDbArc
 50
313.07
 51
335.866
  0
ARC
  5
577
330
18
100
AcDbEntity
  8
0
100
AcDbCircle
 10
5.666
 20
2.011
 30
0.0
 40
0.035
100
AcDbArc
 50
335.866
 51
349.023
  0
ARC
  5
578
330
18
100
AcDbEntity
  8
0
100
AcDbCircle
 10
5.642
 20
2.016
 30
0.0
 40
0.06
100
AcDbArc
 50
349.023
 51
359.111
  0
ARC
  5
579
330
18
100
AcDbEntity
  8
0
100
AcDbCircle
 10
5.642
 20
2.016
 30
0.0
 40
0.06
100
AcDbArc
 50
359.111
 51
9.199999999999999
  0
ARC
  5
57A
330
18
100
AcDbEntity
  8
0
100
AcDbCircle
 10
5.666
 20
2.02
 30
0.0
 40
0.035
100
AcDbArc
 50
9.199999999999999
 51
22.357
  0
ARC
  5
57B
330
18
100
AcDbEntity
  8
0
100
AcDbCircle
 10
5.682
 20
2.026
 30
0.0
 40
0.019
100
AcDbArc
 50
22.357
 51
45.152
  0
ARC
  5
57C
330
18
100
AcDbEntity
  8
0
100
AcDbCircle
 10
5.691
 20
2.036
 30
0.0
 40
0.005
100
AcDbArc
 50
45.152
 51
89.111
  0
ARC
  5
57D
330
18
100
AcDbEntity
  8
0
100
AcDbCircle
 10
5.691
 20
2.036
 30
0.0
 40
0.005
100
AcDbArc
 50
89.111
 51
133.07
  0
ARC
  5
57E
330
18
100
AcDbEntity
  8
0
100
AcDbCircle
 10
5.701000000000001
 20
2.026
 30
0.0
 40
0.019
100
AcDbArc
 50
133.07
 51
155.866
  0
ARC
  5
57F
330
18
100
AcDbEntity
  8
0
100
AcDbCircle
 10
5.716
 20
2.019
 30
0.0
 40
0.035
100
AcDbArc
 50
155.866
 51
169.023
  0
ARC
  5
580
330
18
100
AcDbEntity
  8
0
100
AcDbCircle
 10
5.74
 20
2.014
 30
0.0
 40
0.06
100
AcDbArc
 50
169.023
 51
179.111
  0
ARC
  5
581
330
18
100
AcDbEntity
  8
0
100
AcDbCircle
 10
6.115
 20
1.835
 30
0.0
 40
0.08
100
AcDbArc
 50
350.8
 51
0.8890000000000001
  0
ARC
  5
582
330
18
100
AcDbEntity
  8
0
100
AcDbCircle
 10
6.148
 20
1.83
 30
0.0
 40
0.047
100
AcDbArc
 50
337.643
 51
350.8
  0
ARC
  5
583
330
18
100
AcDbEntity
  8
0
100
AcDbCircle
 10
6.167999999999999
 20
1.822
 30
0.0
 40
0.025
100
AcDbArc
 50
314.848
 51
337.643
  0
ARC
  5
584
330
18
100
AcDbEntity
  8
0
100
AcDbCircle
 10
6.181
 20
1.809
 30
0.0
 40
0.007
100
AcDbArc
 50
270.889
 51
314.848
  0
ARC
  5
585
330
18
100
AcDbEntity
  8
0
100
AcDbCircle
 10
6.181
 20
1.809
 30
0.0
 40
0.007
100
AcDbArc
 50
226.93
 51
270.889
  0
ARC
  5
586
330
18
100
AcDbEntity
  8
0
100
AcDbCircle
 10
6.193
 20
1.822
 30
0.0
 40
0.025
100
AcDbArc
 50
204.134
 51
226.93
  0
ARC
  5
587
330
18
100
AcDbEntity
  8
0
100
AcDbCircle
 10
6.212999999999999
 20
1.831
 30
0.0
 40
0.047
100
AcDbArc
 50
190.977
 51
204.134
  0
ARC
  5
588
330
18
100
AcDbEntity
  8
0
100
AcDbCircle
 10
6.246
 20
1.837
 30
0.0
 40
0.08
100
AcDbArc
 50
180.889
 51
190.977
  0
ARC
  5
589
330
18
100
AcDbEntity
  8
0
100
AcDbCircle
 10
6.246
 20
1.837
 30
0.0
 40
0.08
100
AcDbArc
 50
170.8
 51
180.889
  0
ARC
  5
58A
330
18
100
AcDbEntity
  8
0
100
AcDbCircle
 10
6.212999999999999
 20
1.843
 30
0.0
 40
0.047
100
AcDbArc
 50
157.643
 51
170.8
  0
ARC
  5
58B
330
18
100
AcDbEntity
  8
0
100
AcDbCircle
 10
6.193
 20
1.851
 30
0.0
 40
0.025
100
AcDbArc
 50
134.848
 51
157.643
  0
ARC
  5
58C
330
18
100
AcDbEntity
  8
0
100
AcDbCircle
 10
6.18
 20
1.864
 30
0.0
 40
0.007
100
AcDbArc
 50
90.88899999999998
 51
134.848
  0
ARC
  5
58D
330
18
100
AcDbEntity
  8
0
100
AcDbCircle
 10
6.18
 20
1.864
 30
0.0
 40
0.007
100
AcDbArc
 50
46.93
 51
90.88899999999998
  0
ARC
  5
58E
330
18
100
AcDbEntity
  8
0
100
AcDbCircle
 10
6.167999999999999
 20
1.851
 30
0.0
 40
0.025
100
AcDbArc
 50
24.134
 51
46.93
  0
ARC
  5
58F
330
18
100
AcDbEntity
  8
0
100
AcDbCircle
 10
6.147
 20
1.842
 30
0.0
 40
0.047
100
AcDbArc
 50
10.977
 51
24.134
  0
ARC
  5
590
330
18
100
AcDbEntity
  8
0
100
AcDbCircle
 10
6.115
 20
1.835
 30
0.0
 40
0.08
100
AcDbArc
 50
0.8890000000000001
 51
10.977
  0
ARC
  5
591
330
18
100
AcDbEntity
  8
0
100
AcDbCircle
 10
6.126
 20
1.835
 30
0.0
 40
0.08
100
AcDbArc
 50
350.8
 51
0.8890000000000001
  0
ARC
  5
592
330
18
100
AcDbEntity
  8
0
100
AcDbCircle
 10
6.158
 20
1.83
 30
0.0
 40
0.047
100
AcDbArc
 50
337.643
 51
350.8
  0
ARC
  5
593
330
18
100
AcDbEntity
  8
0
100
AcDbCircle
 10
6.178999999999999
 20
1.822
 30
0.0
 40
0.025
100
AcDbArc
 50
314.848
 51
337.643
  0
ARC
  5
594
330
18
100
AcDbEntity
  8
0
100
AcDbCircle
 10
6.191
 20
1.809
 30
0.0
 40
0.007
100
AcDbArc
 50
270.889
 51
314.848
  0
ARC
  5
595
330
18
100
AcDbEntity
  8
0
100
AcDbCircle
 10
6.191
 20
1.809
 30
0.0
 40
0.007
100
AcDbArc
 50
226.93
 51
270.889
  0
ARC
  5
596
330
18
100
AcDbEntity
  8
0
100
AcDbCircle
 10
6.204
 20
1.822
 30
0.0
 40
0.025
100
AcDbArc
 50
225.3
 51
226.93
  0
ARC
  5
597
330
18
100
AcDbEntity
  8
0
100
AcDbCircle
 10
6.202999999999999
 20
1.851
 30
0.0
 40
0.025
100
AcDbArc
 50
134.848
 51
135.952
  0
ARC
  5
598
330
18
100
AcDbEntity
  8
0
100
AcDbCircle
 10
6.191
 20
1.864
 30
0.0
 40
0.007
100
AcDbArc
 50
90.88899999999998
 51
134.848
  0
ARC
  5
599
330
18
100
AcDbEntity
  8
0
100
AcDbCircle
 10
6.191
 20
1.864
 30
0.0
 40
0.007
100
AcDbArc
 50
46.93
 51
90.88899999999998
  0
ARC
  5
59A
330
18
100
AcDbEntity
  8
0
100
AcDbCircle
 10
6.178
 20
1.851
 30
0.0
 40
0.025
100
AcDbArc
 50
24.134
 51
46.93
  0
ARC
  5
59B
330
18
100
AcDbEntity
  8
0
100
AcDbCircle
 10
6.158
 20
1.842
 30
0.0
 40
0.047
100
AcDbArc
 50
10.977
 51
24.134
  0
ARC
  5
59C
330
18
100
AcDbEntity
  8
0
100
AcDbCircle
 10
6.126
 20
1.835
 30
0.0
 40
0.08
100
AcDbArc
 50
0.8890000000000001
 51
10.977
  0
ARC
  5
59D
330
18
100
AcDbEntity
  8
0
100
AcDbCircle
 10
4.038
 20
2.496
 30
0.0
 40
0.022
100
AcDbArc
 50
134.848
 51
135.952
  0
ARC
  5
59E
330
18
100
AcDbEntity
  8
0
100
AcDbCircle
 10
4.027
 20
2.508
 30
0.0
 40
0.006
100
AcDbArc
 50
90.88899999999998
 51
134.848
  0
ARC
  5
59F
330
18
100
AcDbEntity
  8
0
100
AcDbCircle
 10
4.027
 20
2.508
 30
0.0
 40
0.006
100
AcDbArc
 50
46.93
 51
90.88899999999998
  0
ARC
  5
5A0
330
18
100
AcDbEntity
  8
0
100
AcDbCircle
 10
4.016
 20
2.496
 30
0.0
 40
0.022
100
AcDbArc
 50
24.134
 51
46.93
  0
ARC
  5
5A1
330
18
100
AcDbEntity
  8
0
100
AcDbCircle
 10
3.998
 20
2.488
 30
0.0
 40
0.041
100
AcDbArc
 50
10.977
 51
24.134
  0
ARC
  5
5A2
330
18
100
AcDbEntity
  8
0
100
AcDbCircle
 10
3.97
 20
2.483
 30
0.0
 40
0.07
100
AcDbArc
 50
0.8890000000000001
 51
10.977
  0
ARC
  5
5A3
330
18
100
AcDbEntity
  8
0
100
AcDbCircle
 10
3.97
 20
2.483
 30
0.0
 40
0.07
100
AcDbArc
 50
350.8
 51
0.8890000000000001
  0
ARC
  5
5A4
330
18
100
AcDbEntity
  8
0
100
AcDbCircle
 10
3.998
 20
2.478
 30
0.0
 40
0.041
100
AcDbArc
 50
337.643
 51
350.8
  0
ARC
  5
5A5
330
18
100
AcDbEntity
  8
0
100
AcDbCircle
 10
4.016
 20
2.471
 30
0.0
 40
0.022
100
AcDbArc
 50
314.848
 51
337.643
  0
ARC
  5
5A6
330
18
100
AcDbEntity
  8
0
100
AcDbCircle
 10
4.027
 20
2.459
 30
0.0
 40
0.006
100
AcDbArc
 50
270.889
 51
314.848
  0
ARC
  5
5A7
330
18
100
AcDbEntity
  8
0
100
AcDbCircle
 10
4.027
 20
2.459
 30
0.0
 40
0.006
100
AcDbArc
 50
226.93
 51
270.889
  0
ARC
  5
5A8
330
18
100
AcDbEntity
  8
0
100
AcDbCircle
 10
4.038
 20
2.471
 30
0.0
 40
0.022
100
AcDbArc
 50
225.3
 51
226.93
  0
ARC
  5
5A9
330
18
100
AcDbEntity
  8
0
100
AcDbCircle
 10
3.961
 20
2.483
 30
0.0
 40
0.07
100
AcDbArc
 50
350.8
 51
0.8890000000000001
  0
ARC
  5
5AA
330
18
100
AcDbEntity
  8
0
100
AcDbCircle
 10
3.989
 20
2.478
 30
0.0
 40
0.041
100
AcDbArc
 50
337.643
 51
350.8
  0
ARC
  5
5AB
330
18
100
AcDbEntity
  8
0
100
AcDbCircle
 10
4.007
 20
2.471
 30
0.0
 40
0.022
100
AcDbArc
 50
314.848
 51
337.643
  0
ARC
  5
5AC
330
18
100
AcDbEntity
  8
0
100
AcDbCircle
 10
4.018
 20
2.459
 30
0.0
 40
0.006
100
AcDbArc
 50
270.889
 51
314.848
  0
ARC
  5
5AD
330
18
100
AcDbEntity
  8
0
100
AcDbCircle
 10
4.018
 20
2.459
 30
0.0
 40
0.006
100
AcDbArc
 50
226.93
 51
270.889
  0
ARC
  5
5AE
330
18
100
AcDbEntity
  8
0
100
AcDbCircle
 10
4.029
 20
2.471
 30
0.0
 40
0.022
100
AcDbArc
 50
204.134
 51
226.93
  0
ARC
  5
5AF
330
18
100
AcDbEntity
  8
0
100
AcDbCircle
 10
4.047
 20
2.479
 30
0.0
 40
0.041
100
AcDbArc
 50
190.977
 51
204.134
  0
ARC
  5
5B0
330
18
100
AcDbEntity
  8
0
100
AcDbCircle
 10
4.075
 20
2.484
 30
0.0
 40
0.07
100
AcDbArc
 50
180.889
 51
190.977
  0
ARC
  5
5B1
330
18
100
AcDbEntity
  8
0
100
AcDbCircle
 10
4.075
 20
2.484
 30
0.0
 40
0.07
100
AcDbArc
 50
170.8
 51
180.889
  0
ARC
  5
5B2
330
18
100
AcDbEntity
  8
0
100
AcDbCircle
 10
4.047
 20
2.489
 30
0.0
 40
0.041
100
AcDbArc
 50
157.643
 51
170.8
  0
ARC
  5
5B3
330
18
100
AcDbEntity
  8
0
100
AcDbCircle
 10
4.029
 20
2.496
 30
0.0
 40
0.022
100
AcDbArc
 50
134.848
 51
157.643
  0
ARC
  5
5B4
330
18
100
AcDbEntity
  8
0
100
AcDbCircle
 10
4.017
 20
2.508
 30
0.0
 40
0.006
100
AcDbArc
 50
90.88899999999998
 51
134.848
  0
ARC
  5
5B5
330
18
100
AcDbEntity
  8
0
100
AcDbCircle
 10
4.017
 20
2.508
 30
0.0
 40
0.006
100
AcDbArc
 50
46.93
 51
90.88899999999998
  0
ARC
  5
5B6
330
18
100
AcDbEntity
  8
0
100
AcDbCircle
 10
4.007
 20
2.496
 30
0.0
 40
0.022
100
AcDbArc
 50
24.134
 51
46.93
  0
ARC
  5
5B7
330
18
100
AcDbEntity
  8
0
100
AcDbCircle
 10
3.989
 20
2.488
 30
0.0
 40
0.041
100
AcDbArc
 50
10.977
 51
24.134
  0
ARC
  5
5B8
330
18
100
AcDbEntity
  8
0
100
AcDbCircle
 10
3.961
 20
2.483
 30
0.0
 40
0.07
100
AcDbArc
 50
0.8890000000000001
 51
10.977
  0
ARC
  5
5B9
330
18
100
AcDbEntity
  8
0
100
AcDbCircle
 10
3.632
 20
2.639
 30
0.0
 40
0.053
100
AcDbArc
 50
179.111
 51
189.2
  0
ARC
  5
5BA
330
18
100
AcDbEntity
  8
0
100
AcDbCircle
 10
3.611
 20
2.636
 30
0.0
 40
0.031
100
AcDbArc
 50
189.2
 51
202.357
  0
ARC
  5
5BB
330
18
100
AcDbEntity
  8
0
100
AcDbCircle
 10
3.598
 20
2.63
 30
0.0
 40
0.016
100
AcDbArc
 50
202.357
 51
225.152
  0
ARC
  5
5BC
330
18
100
AcDbEntity
  8
0
100
AcDbCircle
 10
3.589
 20
2.622
 30
0.0
 40
0.005
100
AcDbArc
 50
225.152
 51
269.111
  0
ARC
  5
5BD
330
18
100
AcDbEntity
  8
0
100
AcDbCircle
 10
3.589
 20
2.622
 30
0.0
 40
0.005
100
AcDbArc
 50
269.111
 51
313.07
  0
ARC
  5
5BE
330
18
100
AcDbEntity
  8
0
100
AcDbCircle
 10
3.581
 20
2.631
 30
0.0
 40
0.016
100
AcDbArc
 50
313.07
 51
335.866
  0
ARC
  5
5BF
330
18
100
AcDbEntity
  8
0
100
AcDbCircle
 10
3.568
 20
2.637
 30
0.0
 40
0.031
100
AcDbArc
 50
335.866
 51
349.023
  0
ARC
  5
5C0
330
18
100
AcDbEntity
  8
0
100
AcDbCircle
 10
3.547
 20
2.641
 30
0.0
 40
0.053
100
AcDbArc
 50
349.023
 51
359.111
  0
ARC
  5
5C1
330
18
100
AcDbEntity
  8
0
100
AcDbCircle
 10
3.547
 20
2.641
 30
0.0
 40
0.053
100
AcDbArc
 50
359.111
 51
9.199999999999999
  0
ARC
  5
5C2
330
18
100
AcDbEntity
  8
0
100
AcDbCircle
 10
3.568
 20
2.644
 30
0.0
 40
0.031
100
AcDbArc
 50
9.199999999999999
 51
22.357
  0
ARC
  5
5C3
330
18
100
AcDbEntity
  8
0
100
AcDbCircle
 10
3.581
 20
2.65
 30
0.0
 40
0.016
100
AcDbArc
 50
22.357
 51
45.152
  0
ARC
  5
5C4
330
18
100
AcDbEntity
  8
0
100
AcDbCircle
 10
3.59
 20
2.658
 30
0.0
 40
0.005
100
AcDbArc
 50
45.152
 51
89.111
  0
ARC
  5
5C5
330
18
100
AcDbEntity
  8
0
100
AcDbCircle
 10
3.59
 20
2.658
 30
0.0
 40
0.005
100
AcDbArc
 50
89.111
 51
133.07
  0
ARC
  5
5C6
330
18
100
AcDbEntity
  8
0
100
AcDbCircle
 10
3.598
 20
2.649
 30
0.0
 40
0.016
100
AcDbArc
 50
133.07
 51
155.866
  0
ARC
  5
5C7
330
18
100
AcDbEntity
  8
0
100
AcDbCircle
 10
3.611
 20
2.644
 30
0.0
 40
0.031
100
AcDbArc
 50
155.866
 51
169.023
  0
ARC
  5
5C8
330
18
100
AcDbEntity
  8
0
100
AcDbCircle
 10
3.632
 20
2.639
 30
0.0
 40
0.053
100
AcDbArc
 50
169.023
 51
179.111
  0
ARC
  5
5C9
330
18
100
AcDbEntity
  8
0
100
AcDbCircle
 10
3.632
 20
2.924
 30
0.0
 40
0.053
100
AcDbArc
 50
179.111
 51
189.2
  0
ARC
  5
5CA
330
18
100
AcDbEntity
  8
0
100
AcDbCircle
 10
3.611
 20
2.921
 30
0.0
 40
0.031
100
AcDbArc
 50
189.2
 51
202.357
  0
ARC
  5
5CB
330
18
100
AcDbEntity
  8
0
100
AcDbCircle
 10
3.598
 20
2.915
 30
0.0
 40
0.016
100
AcDbArc
 50
202.357
 51
225.152
  0
ARC
  5
5CC
330
18
100
AcDbEntity
  8
0
100
AcDbCircle
 10
3.589
 20
2.907
 30
0.0
 40
0.005
100
AcDbArc
 50
225.152
 51
269.111
  0
ARC
  5
5CD
330
18
100
AcDbEntity
  8
0
100
AcDbCircle
 10
3.589
 20
2.907
 30
0.0
 40
0.005
100
AcDbArc
 50
269.111
 51
313.07
  0
ARC
  5
5CE
330
18
100
AcDbEntity
  8
0
100
AcDbCircle
 10
3.581
 20
2.916
 30
0.0
 40
0.016
100
AcDbArc
 50
313.07
 51
335.866
  0
ARC
  5
5CF
330
18
100
AcDbEntity
  8
0
100
AcDbCircle
 10
3.568
 20
2.922
 30
0.0
 40
0.031
100
AcDbArc
 50
335.866
 51
349.023
  0
ARC
  5
5D0
330
18
100
AcDbEntity
  8
0
100
AcDbCircle
 10
3.547
 20
2.926
 30
0.0
 40
0.053
100
AcDbArc
 50
349.023
 51
359.111
  0
ARC
  5
5D1
330
18
100
AcDbEntity
  8
0
100
AcDbCircle
 10
3.547
 20
2.926
 30
0.0
 40
0.053
100
AcDbArc
 50
359.111
 51
9.199999999999999
  0
ARC
  5
5D2
330
18
100
AcDbEntity
  8
0
100
AcDbCircle
 10
3.568
 20
2.929
 30
0.0
 40
0.031
100
AcDbArc
 50
9.199999999999999
 51
22.357
  0
ARC
  5
5D3
330
18
100
AcDbEntity
  8
0
100
AcDbCircle
 10
3.581
 20
2.935
 30
0.0
 40
0.016
100
AcDbArc
 50
22.357
 51
45.152
  0
ARC
  5
5D4
330
18
100
AcDbEntity
  8
0
100
AcDbCircle
 10
3.59
 20
2.943
 30
0.0
 40
0.005
100
AcDbArc
 50
45.152
 51
89.111
  0
ARC
  5
5D5
330
18
100
AcDbEntity
  8
0
100
AcDbCircle
 10
3.59
 20
2.943
 30
0.0
 40
0.005
100
AcDbArc
 50
89.111
 51
133.07
  0
ARC
  5
5D6
330
18
100
AcDbEntity
  8
0
100
AcDbCircle
 10
3.598
 20
2.934
 30
0.0
 40
0.016
100
AcDbArc
 50
133.07
 51
155.866
  0
ARC
  5
5D7
330
18
100
AcDbEntity
  8
0
100
AcDbCircle
 10
3.611
 20
2.928
 30
0.0
 40
0.031
100
AcDbArc
 50
155.866
 51
169.023
  0
ARC
  5
5D8
330
18
100
AcDbEntity
  8
0
100
AcDbCircle
 10
3.632
 20
2.924
 30
0.0
 40
0.053
100
AcDbArc
 50
169.023
 51
179.111
  0
ARC
  5
5D9
330
18
100
AcDbEntity
  8
0
100
AcDbCircle
 10
3.834
 20
2.831
 30
0.0
 40
0.053
100
AcDbArc
 50
179.111
 51
189.2
  0
ARC
  5
5DA
330
18
100
AcDbEntity
  8
0
100
AcDbCircle
 10
3.812
 20
2.827
 30
0.0
 40
0.031
100
AcDbArc
 50
189.2
 51
202.357
  0
ARC
  5
5DB
330
18
100
AcDbEntity
  8
0
100
AcDbCircle
 10
3.799
 20
2.822
 30
0.0
 40
0.016
100
AcDbArc
 50
202.357
 51
225.152
  0
ARC
  5
5DC
330
18
100
AcDbEntity
  8
0
100
AcDbCircle
 10
3.791
 20
2.813
 30
0.0
 40
0.005
100
AcDbArc
 50
225.152
 51
269.111
  0
ARC
  5
5DD
330
18
100
AcDbEntity
  8
0
100
AcDbCircle
 10
3.791
 20
2.813
 30
0.0
 40
0.005
100
AcDbArc
 50
269.111
 51
313.07
  0
ARC
  5
5DE
330
18
100
AcDbEntity
  8
0
100
AcDbCircle
 10
3.782
 20
2.822
 30
0.0
 40
0.016
100
AcDbArc
 50
313.07
 51
335.866
  0
ARC
  5
5DF
330
18
100
AcDbEntity
  8
0
100
AcDbCircle
 10
3.769
 20
2.828
 30
0.0
 40
0.031
100
AcDbArc
 50
335.866
 51
349.023
  0
ARC
  5
5E0
330
18
100
AcDbEntity
  8
0
100
AcDbCircle
 10
3.748
 20
2.832
 30
0.0
 40
0.053
100
AcDbArc
 50
349.023
 51
359.111
  0
ARC
  5
5E1
330
18
100
AcDbEntity
  8
0
100
AcDbCircle
 10
3.748
 20
2.832
 30
0.0
 40
0.053
100
AcDbArc
 50
359.111
 51
9.199999999999999
  0
ARC
  5
5E2
330
18
100
AcDbEntity
  8
0
100
AcDbCircle
 10
3.769
 20
2.836
 30
0.0
 40
0.031
100
AcDbArc
 50
9.199999999999999
 51
22.357
  0
ARC
  5
5E3
330
18
100
AcDbEntity
  8
0
100
AcDbCircle
 10
3.783
 20
2.841
 30
0.0
 40
0.016
100
AcDbArc
 50
22.357
 51
45.152
  0
ARC
  5
5E4
330
18
100
AcDbEntity
  8
0
100
AcDbCircle
 10
3.791
 20
2.85
 30
0.0
 40
0.005
100
AcDbArc
 50
45.152
 51
89.111
  0
ARC
  5
5E5
330
18
100
AcDbEntity
  8
0
100
AcDbCircle
 10
3.791
 20
2.85
 30
0.0
 40
0.005
100
AcDbArc
 50
89.111
 51
133.07
  0
ARC
  5
5E6
330
18
100
AcDbEntity
  8
0
100
AcDbCircle
 10
3.799
 20
2.841
 30
0.0
 40
0.016
100
AcDbArc
 50
133.07
 51
155.866
  0
ARC
  5
5E7
330
18
100
AcDbEntity
  8
0
100
AcDbCircle
 10
3.812
 20
2.835
 30
0.0
 40
0.031
100
AcDbArc
 50
155.866
 51
169.023
  0
ARC
  5
5E8
330
18
100
AcDbEntity
  8
0
100
AcDbCircle
 10
3.834
 20
2.831
 30
0.0
 40
0.053
100
AcDbArc
 50
169.023
 51
179.111
  0
ARC
  5
5E9
330
18
100
AcDbEntity
  8
0
100
AcDbCircle
 10
3.834
 20
2.546
 30
0.0
 40
0.053
100
AcDbArc
 50
179.111
 51
189.2
  0
ARC
  5
5EA
330
18
100
AcDbEntity
  8
0
100
AcDbCircle
 10
3.812
 20
2.542
 30
0.0
 40
0.031
100
AcDbArc
 50
189.2
 51
202.357
  0
ARC
  5
5EB
330
18
100
AcDbEntity
  8
0
100
AcDbCircle
 10
3.799
 20
2.537
 30
0.0
 40
0.016
100
AcDbArc
 50
202.357
 51
225.152
  0
ARC
  5
5EC
330
18
100
AcDbEntity
  8
0
100
AcDbCircle
 10
3.791
 20
2.529
 30
0.0
 40
0.005
100
AcDbArc
 50
225.152
 51
269.111
  0
ARC
  5
5ED
330
18
100
AcDbEntity
  8
0
100
AcDbCircle
 10
3.791
 20
2.529
 30
0.0
 40
0.005
100
AcDbArc
 50
269.111
 51
313.07
  0
ARC
  5
5EE
330
18
100
AcDbEntity
  8
0
100
AcDbCircle
 10
3.782
 20
2.537
 30
0.0
 40
0.016
100
AcDbArc
 50
313.07
 51
335.866
  0
ARC
  5
5EF
330
18
100
AcDbEntity
  8
0
100
AcDbCircle
 10
3.769
 20
2.543
 30
0.0
 40
0.031
100
AcDbArc
 50
335.866
 51
349.023
  0
ARC
  5
5F0
330
18
100
AcDbEntity
  8
0
100
AcDbCircle
 10
3.748
 20
2.547
 30
0.0
 40
0.053
100
AcDbArc
 50
349.023
 51
359.111
  0
ARC
  5
5F1
330
18
100
AcDbEntity
  8
0
100
AcDbCircle
 10
3.748
 20
2.547
 30
0.0
 40
0.053
100
AcDbArc
 50
359.111
 51
9.199999999999999
  0
ARC
  5
5F2
330
18
100
AcDbEntity
  8
0
100
AcDbCircle
 10
3.769
 20
2.551
 30
0.0
 40
0.031
100
AcDbArc
 50
9.199999999999999
 51
22.357
  0
ARC
  5
5F3
330
18
100
AcDbEntity
  8
0
100
AcDbCircle
 10
3.783
 20
2.556
 30
0.0
 40
0.016
100
AcDbArc
 50
22.357
 51
45.152
  0
ARC
  5
5F4
330
18
100
AcDbEntity
  8
0
100
AcDbCircle
 10
3.791
 20
2.565
 30
0.0
 40
0.005
100
AcDbArc
 50
45.152
 51
89.111
  0
ARC
  5
5F5
330
18
100
AcDbEntity
  8
0
100
AcDbCircle
 10
3.791
 20
2.565
 30
0.0
 40
0.005
100
AcDbArc
 50
89.111
 51
133.07
  0
ARC
  5
5F6
330
18
100
AcDbEntity
  8
0
100
AcDbCircle
 10
3.799
 20
2.556
 30
0.0
 40
0.016
100
AcDbArc
 50
133.07
 51
155.866
  0
ARC
  5
5F7
330
18
100
AcDbEntity
  8
0
100
AcDbCircle
 10
3.812
 20
2.55
 30
0.0
 40
0.031
100
AcDbArc
 50
155.866
 51
169.023
  0
ARC
  5
5F8
330
18
100
AcDbEntity
  8
0
100
AcDbCircle
 10
3.834
 20
2.546
 30
0.0
 40
0.053
100
AcDbArc
 50
169.023
 51
179.111
  0
ARC
  5
5F9
330
18
100
AcDbEntity
  8
0
100
AcDbCircle
 10
6.202999999999999
 20
2.093
 30
0.0
 40
0.025
100
AcDbArc
 50
134.848
 51
135.952
  0
ARC
  5
5FA
330
18
100
AcDbEntity
  8
0
100
AcDbCircle
 10
6.191
 20
2.106
 30
0.0
 40
0.007
100
AcDbArc
 50
90.88899999999998
 51
134.848
  0
ARC
  5
5FB
330
18
100
AcDbEntity
  8
0
100
AcDbCircle
 10
6.191
 20
2.106
 30
0.0
 40
0.007
100
AcDbArc
 50
46.93
 51
90.88899999999998
  0
ARC
  5
5FC
330
18
100
AcDbEntity
  8
0
100
AcDbCircle
 10
6.178
 20
2.093
 30
0.0
 40
0.025
100
AcDbArc
 50
24.134
 51
46.93
  0
ARC
  5
5FD
330
18
100
AcDbEntity
  8
0
100
AcDbCircle
 10
6.158
 20
2.084
 30
0.0
 40
0.047
100
AcDbArc
 50
10.977
 51
24.134
  0
ARC
  5
5FE
330
18
100
AcDbEntity
  8
0
100
AcDbCircle
 10
6.126
 20
2.077
 30
0.0
 40
0.08
100
AcDbArc
 50
0.8890000000000001
 51
10.977
  0
ARC
  5
5FF
330
18
100
AcDbEntity
  8
0
100
AcDbCircle
 10
6.126
 20
2.077
 30
0.0
 40
0.08
100
AcDbArc
 50
350.8
 51
0.8890000000000001
  0
ARC
  5
600
330
18
100
AcDbEntity
  8
0
100
AcDbCircle
 10
6.158
 20
2.072
 30
0.0
 40
0.047
100
AcDbArc
 50
337.643
 51
350.8
  0
ARC
  5
601
330
18
100
AcDbEntity
  8
0
100
AcDbCircle
 10
6.178999999999999
 20
2.064
 30
0.0
 40
0.025
100
AcDbArc
 50
314.848
 51
337.643
  0
ARC
  5
602
330
18
100
AcDbEntity
  8
0
100
AcDbCircle
 10
6.191
 20
2.051
 30
0.0
 40
0.007
100
AcDbArc
 50
270.889
 51
314.848
  0
ARC
  5
603
330
18
100
AcDbEntity
  8
0
100
AcDbCircle
 10
6.191
 20
2.051
 30
0.0
 40
0.007
100
AcDbArc
 50
226.93
 51
270.889
  0
ARC
  5
604
330
18
100
AcDbEntity
  8
0
100
AcDbCircle
 10
6.204
 20
2.064
 30
0.0
 40
0.025
100
AcDbArc
 50
225.3
 51
226.93
  0
ARC
  5
605
330
18
100
AcDbEntity
  8
0
100
AcDbCircle
 10
6.115
 20
2.077
 30
0.0
 40
0.08
100
AcDbArc
 50
350.8
 51
0.8890000000000001
  0
ARC
  5
606
330
18
100
AcDbEntity
  8
0
100
AcDbCircle
 10
6.148
 20
2.072
 30
0.0
 40
0.047
100
AcDbArc
 50
337.643
 51
350.8
  0
ARC
  5
607
330
18
100
AcDbEntity
  8
0
100
AcDbCircle
 10
6.167999999999999
 20
2.064
 30
0.0
 40
0.025
100
AcDbArc
 50
314.848
 51
337.643
  0
ARC
  5
608
330
18
100
AcDbEntity
  8
0
100
AcDbCircle
 10
6.181
 20
2.051
 30
0.0
 40
0.007
100
AcDbArc
 50
270.889
 51
314.848
  0
ARC
  5
609
330
18
100
AcDbEntity
  8
0
100
AcDbCircle
 10
6.181
 20
2.051
 30
0.0
 40
0.007
100
AcDbArc
 50
226.93
 51
270.889
  0
ARC
  5
60A
330
18
100
AcDbEntity
  8
0
100
AcDbCircle
 10
6.193
 20
2.064
 30
0.0
 40
0.025
100
AcDbArc
 50
204.134
 51
226.93
  0
ARC
  5
60B
330
18
100
AcDbEntity
  8
0
100
AcDbCircle
 10
6.212999999999999
 20
2.073
 30
0.0
 40
0.047
100
AcDbArc
 50
190.977
 51
204.134
  0
ARC
  5
60C
330
18
100
AcDbEntity
  8
0
100
AcDbCircle
 10
6.246
 20
2.079
 30
0.0
 40
0.08
100
AcDbArc
 50
180.889
 51
190.977
  0
ARC
  5
60D
330
18
100
AcDbEntity
  8
0
100
AcDbCircle
 10
6.246
 20
2.079
 30
0.0
 40
0.08
100
AcDbArc
 50
170.8
 51
180.889
  0
ARC
  5
60E
330
18
100
AcDbEntity
  8
0
100
AcDbCircle
 10
6.212999999999999
 20
2.085
 30
0.0
 40
0.047
100
AcDbArc
 50
157.643
 51
170.8
  0
ARC
  5
60F
330
18
100
AcDbEntity
  8
0
100
AcDbCircle
 10
6.193
 20
2.093
 30
0.0
 40
0.025
100
AcDbArc
 50
134.848
 51
157.643
  0
ARC
  5
610
330
18
100
AcDbEntity
  8
0
100
AcDbCircle
 10
6.18
 20
2.106
 30
0.0
 40
0.007
100
AcDbArc
 50
90.88899999999998
 51
134.848
  0
ARC
  5
611
330
18
100
AcDbEntity
  8
0
100
AcDbCircle
 10
6.18
 20
2.106
 30
0.0
 40
0.007
100
AcDbArc
 50
46.93
 51
90.88899999999998
  0
ARC
  5
612
330
18
100
AcDbEntity
  8
0
100
AcDbCircle
 10
6.167999999999999
 20
2.093
 30
0.0
 40
0.025
100
AcDbArc
 50
24.134
 51
46.93
  0
ARC
  5
613
330
18
100
AcDbEntity
  8
0
100
AcDbCircle
 10
6.147
 20
2.084
 30
0.0
 40
0.047
100
AcDbArc
 50
10.977
 51
24.134
  0
ARC
  5
614
330
18
100
AcDbEntity
  8
0
100
AcDbCircle
 10
6.115
 20
2.077
 30
0.0
 40
0.08
100
AcDbArc
 50
0.8890000000000001
 51
10.977
  0
ARC
  5
615
330
18
100
AcDbEntity
  8
0
100
AcDbCircle
 10
6.202999999999999
 20
2.41
 30
0.0
 40
0.025
100
AcDbArc
 50
134.848
 51
135.952
  0
ARC
  5
616
330
18
100
AcDbEntity
  8
0
100
AcDbCircle
 10
6.191
 20
2.423
 30
0.0
 40
0.007
100
AcDbArc
 50
90.88899999999998
 51
134.848
  0
ARC
  5
617
330
18
100
AcDbEntity
  8
0
100
AcDbCircle
 10
6.191
 20
2.423
 30
0.0
 40
0.007
100
AcDbArc
 50
46.93
 51
90.88899999999998
  0
ARC
  5
618
330
18
100
AcDbEntity
  8
0
100
AcDbCircle
 10
6.178
 20
2.41
 30
0.0
 40
0.025
100
AcDbArc
 50
24.134
 51
46.93
  0
ARC
  5
619
330
18
100
AcDbEntity
  8
0
100
AcDbCircle
 10
6.158
 20
2.401
 30
0.0
 40
0.047
100
AcDbArc
 50
10.977
 51
24.134
  0
ARC
  5
61A
330
18
100
AcDbEntity
  8
0
100
AcDbCircle
 10
6.126
 20
2.395
 30
0.0
 40
0.08
100
AcDbArc
 50
0.8890000000000001
 51
10.977
  0
ARC
  5
61B
330
18
100
AcDbEntity
  8
0
100
AcDbCircle
 10
6.126
 20
2.395
 30
0.0
 40
0.08
100
AcDbArc
 50
350.8
 51
0.8890000000000001
  0
ARC
  5
61C
330
18
100
AcDbEntity
  8
0
100
AcDbCircle
 10
6.158
 20
2.389
 30
0.0
 40
0.047
100
AcDbArc
 50
337.643
 51
350.8
  0
ARC
  5
61D
330
18
100
AcDbEntity
  8
0
100
AcDbCircle
 10
6.178999999999999
 20
2.381
 30
0.0
 40
0.025
100
AcDbArc
 50
314.848
 51
337.643
  0
ARC
  5
61E
330
18
100
AcDbEntity
  8
0
100
AcDbCircle
 10
6.191
 20
2.368
 30
0.0
 40
0.007
100
AcDbArc
 50
270.889
 51
314.848
  0
ARC
  5
61F
330
18
100
AcDbEntity
  8
0
100
AcDbCircle
 10
6.191
 20
2.368
 30
0.0
 40
0.007
100
AcDbArc
 50
226.93
 51
270.889
  0
ARC
  5
620
330
18
100
AcDbEntity
  8
0
100
AcDbCircle
 10
6.204
 20
2.381
 30
0.0
 40
0.025
100
AcDbArc
 50
225.3
 51
226.93
  0
ARC
  5
621
330
18
100
AcDbEntity
  8
0
100
AcDbCircle
 10
6.115
 20
2.395
 30
0.0
 40
0.08
100
AcDbArc
 50
350.8
 51
0.8890000000000001
  0
ARC
  5
622
330
18
100
AcDbEntity
  8
0
100
AcDbCircle
 10
6.148
 20
2.389
 30
0.0
 40
0.047
100
AcDbArc
 50
337.643
 51
350.8
  0
ARC
  5
623
330
18
100
AcDbEntity
  8
0
100
AcDbCircle
 10
6.167999999999999
 20
2.381
 30
0.0
 40
0.025
100
AcDbArc
 50
314.848
 51
337.643
  0
ARC
  5
624
330
18
100
AcDbEntity
  8
0
100
AcDbCircle
 10
6.181
 20
2.368
 30
0.0
 40
0.007
100
AcDbArc
 50
270.889
 51
314.848
  0
ARC
  5
625
330
18
100
AcDbEntity
  8
0
100
AcDbCircle
 10
6.181
 20
2.368
 30
0.0
 40
0.007
100
AcDbArc
 50
226.93
 51
270.889
  0
ARC
  5
626
330
18
100
AcDbEntity
  8
0
100
AcDbCircle
 10
6.193
 20
2.381
 30
0.0
 40
0.025
100
AcDbArc
 50
204.134
 51
226.93
  0
ARC
  5
627
330
18
100
AcDbEntity
  8
0
100
AcDbCircle
 10
6.212999999999999
 20
2.39
 30
0.0
 40
0.047
100
AcDbArc
 50
190.977
 51
204.134
  0
ARC
  5
628
330
18
100
AcDbEntity
  8
0
100
AcDbCircle
 10
6.246
 20
2.397
 30
0.0
 40
0.08
100
AcDbArc
 50
180.889
 51
190.977
  0
ARC
  5
629
330
18
100
AcDbEntity
  8
0
100
AcDbCircle
 10
6.246
 20
2.397
 30
0.0
 40
0.08
100
AcDbArc
 50
170.8
 51
180.889
  0
ARC
  5
62A
330
18
100
AcDbEntity
  8
0
100
AcDbCircle
 10
6.212999999999999
 20
2.402
 30
0.0
 40
0.047
100
AcDbArc
 50
157.643
 51
170.8
  0
ARC
  5
62B
330
18
100
AcDbEntity
  8
0
100
AcDbCircle
 10
6.193
 20
2.41
 30
0.0
 40
0.025
100
AcDbArc
 50
134.848
 51
157.643
  0
ARC
  5
62C
330
18
100
AcDbEntity
  8
0
100
AcDbCircle
 10
6.18
 20
2.423
 30
0.0
 40
0.007
100
AcDbArc
 50
90.88899999999998
 51
134.848
  0
ARC
  5
62D
330
18
100
AcDbEntity
  8
0
100
AcDbCircle
 10
6.18
 20
2.423
 30
0.0
 40
0.007
100
AcDbArc
 50
46.93
 51
90.88899999999998
  0
ARC
  5
62E
330
18
100
AcDbEntity
  8
0
100
AcDbCircle
 10
6.167999999999999
 20
2.41
 30
0.0
 40
0.025
100
AcDbArc
 50
24.134
 51
46.93
  0
ARC
  5
62F
330
18
100
AcDbEntity
  8
0
100
AcDbCircle
 10
6.147
 20
2.401
 30
0.0
 40
0.047
100
AcDbArc
 50
10.977
 51
24.134
  0
ARC
  5
630
330
18
100
AcDbEntity
  8
0
100
AcDbCircle
 10
6.115
 20
2.395
 30
0.0
 40
0.08
100
AcDbArc
 50
0.8890000000000001
 51
10.977
  0
ARC
  5
631
330
18
100
AcDbEntity
  8
0
100
AcDbCircle
 10
2.273
 20
3.017
 30
0.0
 40
0.043
100
AcDbArc
 50
179.111
 51
189.2
  0
ARC
  5
632
330
18
100
AcDbEntity
  8
0
100
AcDbCircle
 10
2.256
 20
3.014
 30
0.0
 40
0.025
100
AcDbArc
 50
189.2
 51
202.357
  0
ARC
  5
633
330
18
100
AcDbEntity
  8
0
100
AcDbCircle
 10
2.245
 20
3.01
 30
0.0
 40
0.013
100
AcDbArc
 50
202.357
 51
225.152
  0
ARC
  5
634
330
18
100
AcDbEntity
  8
0
100
AcDbCircle
 10
2.238
 20
3.003
 30
0.0
 40
0.004
100
AcDbArc
 50
225.152
 51
269.111
  0
ARC
  5
635
330
18
100
AcDbEntity
  8
0
100
AcDbCircle
 10
2.238
 20
3.003
 30
0.0
 40
0.004
100
AcDbArc
 50
269.111
 51
313.07
  0
ARC
  5
636
330
18
100
AcDbEntity
  8
0
100
AcDbCircle
 10
2.231
 20
3.01
 30
0.0
 40
0.013
100
AcDbArc
 50
313.07
 51
335.866
  0
ARC
  5
637
330
18
100
AcDbEntity
  8
0
100
AcDbCircle
 10
2.221
 20
3.015
 30
0.0
 40
0.025
100
AcDbArc
 50
335.866
 51
349.023
  0
ARC
  5
638
330
18
100
AcDbEntity
  8
0
100
AcDbCircle
 10
2.203
 20
3.018
 30
0.0
 40
0.043
100
AcDbArc
 50
349.023
 51
359.111
  0
ARC
  5
639
330
18
100
AcDbEntity
  8
0
100
AcDbCircle
 10
2.203
 20
3.018
 30
0.0
 40
0.043
100
AcDbArc
 50
359.111
 51
9.199999999999999
  0
ARC
  5
63A
330
18
100
AcDbEntity
  8
0
100
AcDbCircle
 10
2.221
 20
3.021
 30
0.0
 40
0.025
100
AcDbArc
 50
9.199999999999999
 51
22.357
  0
ARC
  5
63B
330
18
100
AcDbEntity
  8
0
100
AcDbCircle
 10
2.232
 20
3.025
 30
0.0
 40
0.013
100
AcDbArc
 50
22.357
 51
45.152
  0
ARC
  5
63C
330
18
100
AcDbEntity
  8
0
100
AcDbCircle
 10
2.238
 20
3.032
 30
0.0
 40
0.004
100
AcDbArc
 50
45.152
 51
89.111
  0
ARC
  5
63D
330
18
100
AcDbEntity
  8
0
100
AcDbCircle
 10
2.238
 20
3.032
 30
0.0
 40
0.004
100
AcDbArc
 50
89.111
 51
133.07
  0
ARC
  5
63E
330
18
100
AcDbEntity
  8
0
100
AcDbCircle
 10
2.245
 20
3.025
 30
0.0
 40
0.013
100
AcDbArc
 50
133.07
 51
155.866
  0
ARC
  5
63F
330
18
100
AcDbEntity
  8
0
100
AcDbCircle
 10
2.256
 20
3.02
 30
0.0
 40
0.025
100
AcDbArc
 50
155.866
 51
169.023
  0
ARC
  5
640
330
18
100
AcDbEntity
  8
0
100
AcDbCircle
 10
2.273
 20
3.017
 30
0.0
 40
0.043
100
AcDbArc
 50
169.023
 51
179.111
  0
ARC
  5
641
330
18
100
AcDbEntity
  8
0
100
AcDbCircle
 10
2.273
 20
3.249
 30
0.0
 40
0.043
100
AcDbArc
 50
179.111
 51
189.2
  0
ARC
  5
642
330
18
100
AcDbEntity
  8
0
100
AcDbCircle
 10
2.256
 20
3.246
 30
0.0
 40
0.025
100
AcDbArc
 50
189.2
 51
202.357
  0
ARC
  5
643
330
18
100
AcDbEntity
  8
0
100
AcDbCircle
 10
2.245
 20
3.242
 30
0.0
 40
0.013
100
AcDbArc
 50
202.357
 51
225.152
  0
ARC
  5
644
330
18
100
AcDbEntity
  8
0
100
AcDbCircle
 10
2.238
 20
3.235
 30
0.0
 40
0.004
100
AcDbArc
 50
225.152
 51
269.111
  0
ARC
  5
645
330
18
100
AcDbEntity
  8
0
100
AcDbCircle
 10
2.238
 20
3.235
 30
0.0
 40
0.004
100
AcDbArc
 50
269.111
 51
313.07
  0
ARC
  5
646
330
18
100
AcDbEntity
  8
0
100
AcDbCircle
 10
2.231
 20
3.242
 30
0.0
 40
0.013
100
AcDbArc
 50
313.07
 51
335.866
  0
ARC
  5
647
330
18
100
AcDbEntity
  8
0
100
AcDbCircle
 10
2.221
 20
3.247
 30
0.0
 40
0.025
100
AcDbArc
 50
335.866
 51
349.023
  0
ARC
  5
648
330
18
100
AcDbEntity
  8
0
100
AcDbCircle
 10
2.203
 20
3.25
 30
0.0
 40
0.043
100
AcDbArc
 50
349.023
 51
359.111
  0
ARC
  5
649
330
18
100
AcDbEntity
  8
0
100
AcDbCircle
 10
2.203
 20
3.25
 30
0.0
 40
0.043
100
AcDbArc
 50
359.111
 51
9.199999999999999
  0
ARC
  5
64A
330
18
100
AcDbEntity
  8
0
100
AcDbCircle
 10
2.221
 20
3.253
 30
0.0
 40
0.025
100
AcDbArc
 50
9.199999999999999
 51
22.357
  0
ARC
  5
64B
330
18
100
AcDbEntity
  8
0
100
AcDbCircle
 10
2.232
 20
3.258
 30
0.0
 40
0.013
100
AcDbArc
 50
22.357
 51
45.152
  0
ARC
  5
64C
330
18
100
AcDbEntity
  8
0
100
AcDbCircle
 10
2.238
 20
3.264
 30
0.0
 40
0.004
100
AcDbArc
 50
45.152
 51
89.111
  0
ARC
  5
64D
330
18
100
AcDbEntity
  8
0
100
AcDbCircle
 10
2.238
 20
3.264
 30
0.0
 40
0.004
100
AcDbArc
 50
89.111
 51
133.07
  0
ARC
  5
64E
330
18
100
AcDbEntity
  8
0
100
AcDbCircle
 10
2.245
 20
3.257
 30
0.0
 40
0.013
100
AcDbArc
 50
133.07
 51
155.866
  0
ARC
  5
64F
330
18
100
AcDbEntity
  8
0
100
AcDbCircle
 10
2.256
 20
3.253
 30
0.0
 40
0.025
100
AcDbArc
 50
155.866
 51
169.023
  0
ARC
  5
650
330
18
100
AcDbEntity
  8
0
100
AcDbCircle
 10
2.273
 20
3.249
 30
0.0
 40
0.043
100
AcDbArc
 50
169.023
 51
179.111
  0
ARC
  5
651
330
18
100
AcDbEntity
  8
0
100
AcDbCircle
 10
2.406
 20
2.953
 30
0.0
 40
0.057
100
AcDbArc
 50
350.8
 51
0.8890000000000001
  0
ARC
  5
652
330
18
100
AcDbEntity
  8
0
100
AcDbCircle
 10
2.429
 20
2.949
 30
0.0
 40
0.034
100
AcDbArc
 50
337.643
 51
350.8
  0
ARC
  5
653
330
18
100
AcDbEntity
  8
0
100
AcDbCircle
 10
2.444
 20
2.943
 30
0.0
 40
0.018
100
AcDbArc
 50
314.848
 51
337.643
  0
ARC
  5
654
330
18
100
AcDbEntity
  8
0
100
AcDbCircle
 10
2.453
 20
2.934
 30
0.0
 40
0.005
100
AcDbArc
 50
270.889
 51
314.848
  0
ARC
  5
655
330
18
100
AcDbEntity
  8
0
100
AcDbCircle
 10
2.453
 20
2.934
 30
0.0
 40
0.005
100
AcDbArc
 50
226.93
 51
270.889
  0
ARC
  5
656
330
18
100
AcDbEntity
  8
0
100
AcDbCircle
 10
2.462
 20
2.944
 30
0.0
 40
0.018
100
AcDbArc
 50
204.134
 51
226.93
  0
ARC
  5
657
330
18
100
AcDbEntity
  8
0
100
AcDbCircle
 10
2.476
 20
2.95
 30
0.0
 40
0.034
100
AcDbArc
 50
190.977
 51
204.134
  0
ARC
  5
658
330
18
100
AcDbEntity
  8
0
100
AcDbCircle
 10
2.499
 20
2.955
 30
0.0
 40
0.057
100
AcDbArc
 50
180.889
 51
190.977
  0
ARC
  5
659
330
18
100
AcDbEntity
  8
0
100
AcDbCircle
 10
2.499
 20
2.955
 30
0.0
 40
0.057
100
AcDbArc
 50
170.8
 51
180.889
  0
ARC
  5
65A
330
18
100
AcDbEntity
  8
0
100
AcDbCircle
 10
2.476
 20
2.958
 30
0.0
 40
0.034
100
AcDbArc
 50
157.643
 51
170.8
  0
ARC
  5
65B
330
18
100
AcDbEntity
  8
0
100
AcDbCircle
 10
2.462
 20
2.964
 30
0.0
 40
0.018
100
AcDbArc
 50
134.848
 51
157.643
  0
ARC
  5
65C
330
18
100
AcDbEntity
  8
0
100
AcDbCircle
 10
2.452
 20
2.974
 30
0.0
 40
0.005
100
AcDbArc
 50
90.88899999999998
 51
134.848
  0
ARC
  5
65D
330
18
100
AcDbEntity
  8
0
100
AcDbCircle
 10
2.452
 20
2.974
 30
0.0
 40
0.005
100
AcDbArc
 50
46.93
 51
90.88899999999998
  0
ARC
  5
65E
330
18
100
AcDbEntity
  8
0
100
AcDbCircle
 10
2.444
 20
2.964
 30
0.0
 40
0.018
100
AcDbArc
 50
24.134
 51
46.93
  0
ARC
  5
65F
330
18
100
AcDbEntity
  8
0
100
AcDbCircle
 10
2.429
 20
2.958
 30
0.0
 40
0.034
100
AcDbArc
 50
10.977
 51
24.134
  0
ARC
  5
660
330
18
100
AcDbEntity
  8
0
100
AcDbCircle
 10
2.406
 20
2.953
 30
0.0
 40
0.057
100
AcDbArc
 50
0.8890000000000001
 51
10.977
  0
ARC
  5
661
330
18
100
AcDbEntity
  8
0
100
AcDbCircle
 10
2.414
 20
2.953
 30
0.0
 40
0.057
100
AcDbArc
 50
350.8
 51
0.8890000000000001
  0
ARC
  5
662
330
18
100
AcDbEntity
  8
0
100
AcDbCircle
 10
2.437
 20
2.949
 30
0.0
 40
0.034
100
AcDbArc
 50
337.643
 51
350.8
  0
ARC
  5
663
330
18
100
AcDbEntity
  8
0
100
AcDbCircle
 10
2.451
 20
2.943
 30
0.0
 40
0.018
100
AcDbArc
 50
314.848
 51
337.643
  0
ARC
  5
664
330
18
100
AcDbEntity
  8
0
100
AcDbCircle
 10
2.461
 20
2.934
 30
0.0
 40
0.005
100
AcDbArc
 50
270.889
 51
314.848
  0
ARC
  5
665
330
18
100
AcDbEntity
  8
0
100
AcDbCircle
 10
2.461
 20
2.934
 30
0.0
 40
0.005
100
AcDbArc
 50
226.93
 51
270.889
  0
ARC
  5
666
330
18
100
AcDbEntity
  8
0
100
AcDbCircle
 10
2.469
 20
2.944
 30
0.0
 40
0.018
100
AcDbArc
 50
225.3
 51
226.93
  0
ARC
  5
667
330
18
100
AcDbEntity
  8
0
100
AcDbCircle
 10
2.469
 20
2.964
 30
0.0
 40
0.018
100
AcDbArc
 50
134.848
 51
135.952
  0
ARC
  5
668
330
18
100
AcDbEntity
  8
0
100
AcDbCircle
 10
2.46
 20
2.974
 30
0.0
 40
0.005
100
AcDbArc
 50
90.88899999999998
 51
134.848
  0
ARC
  5
669
330
18
100
AcDbEntity
  8
0
100
AcDbCircle
 10
2.46
 20
2.974
 30
0.0
 40
0.005
100
AcDbArc
 50
46.93
 51
90.88899999999998
  0
ARC
  5
66A
330
18
100
AcDbEntity
  8
0
100
AcDbCircle
 10
2.451
 20
2.964
 30
0.0
 40
0.018
100
AcDbArc
 50
24.134
 51
46.93
  0
ARC
  5
66B
330
18
100
AcDbEntity
  8
0
100
AcDbCircle
 10
2.437
 20
2.958
 30
0.0
 40
0.034
100
AcDbArc
 50
10.977
 51
24.134
  0
ARC
  5
66C
330
18
100
AcDbEntity
  8
0
100
AcDbCircle
 10
2.414
 20
2.953
 30
0.0
 40
0.057
100
AcDbArc
 50
0.8890000000000001
 51
10.977
  0
LINE
  5
66D
330
18
100
AcDbEntity
  8
0
100
AcDbLine
 10
2.356
 20
3.467
 30
0.0
 11
2.498
 21
3.43
 31
0.0
  0
LINE
  5
66E
330
18
100
AcDbEntity
  8
0
100
AcDbLine
 10
2.498
 20
3.43
 30
0.0
 11
2.498
 21
3.343
 31
0.0
  0
ARC
  5
66F
330
18
100
AcDbEntity
  8
0
100
AcDbCircle
 10
2.477
 20
3.343
 30
0.0
 40
0.021
100
AcDbArc
 50
303.813
 51
0.0
  0
LINE
  5
670
330
18
100
AcDbEntity
  8
0
100
AcDbLine
 10
2.488
 20
3.325
 30
0.0
 11
2.459
 21
3.306
 31
0.0
  0
ARC
  5
671
330
18
100
AcDbEntity
  8
0
100
AcDbCircle
 10
2.471
 20
3.288
 30
0.0
 40
0.021
100
AcDbArc
 50
123.813
 51
180.0
  0
LINE
  5
672
330
18
100
AcDbEntity
  8
0
100
AcDbLine
 10
2.45
 20
3.288
 30
0.0
 11
2.45
 21
3.268
 31
0.0
  0
ARC
  5
673
330
18
100
AcDbEntity
  8
0
100
AcDbCircle
 10
2.471
 20
3.268
 30
0.0
 40
0.021
100
AcDbArc
 50
180.0
 51
234.817
  0
LINE
  5
674
330
18
100
AcDbEntity
  8
0
100
AcDbLine
 10
2.459
 20
3.25
 30
0.0
 11
2.489
 21
3.229
 31
0.0
  0
ARC
  5
675
330
18
100
AcDbEntity
  8
0
100
AcDbCircle
 10
2.477
 20
3.211
 30
0.0
 40
0.021
100
AcDbArc
 50
0.0
 51
54.81700000000001
  0
LINE
  5
676
330
18
100
AcDbEntity
  8
0
100
AcDbLine
 10
2.498
 20
3.211
 30
0.0
 11
2.498
 21
3.108
 31
0.0
  0
ARC
  5
677
330
18
100
AcDbEntity
  8
0
100
AcDbCircle
 10
2.477
 20
3.108
 30
0.0
 40
0.021
100
AcDbArc
 50
300.639
 51
0.0
  0
LINE
  5
678
330
18
100
AcDbEntity
  8
0
100
AcDbLine
 10
2.487
 20
3.089
 30
0.0
 11
2.46
 21
3.073
 31
0.0
  0
ARC
  5
679
330
18
100
AcDbEntity
  8
0
100
AcDbCircle
 10
2.471
 20
3.055
 30
0.0
 40
0.021
100
AcDbArc
 50
120.639
 51
180.0
  0
LINE
  5
67A
330
18
100
AcDbEntity
  8
0
100
AcDbLine
 10
2.45
 20
3.055
 30
0.0
 11
2.45
 21
3.032
 31
0.0
  0
ARC
  5
67B
330
18
100
AcDbEntity
  8
0
100
AcDbCircle
 10
2.471
 20
3.032
 30
0.0
 40
0.021
100
AcDbArc
 50
180.0
 51
236.815
  0
LINE
  5
67C
330
18
100
AcDbEntity
  8
0
100
AcDbLine
 10
2.459
 20
3.014
 30
0.0
 11
2.488
 21
2.995
 31
0.0
  0
ARC
  5
67D
330
18
100
AcDbEntity
  8
0
100
AcDbCircle
 10
2.477
 20
2.977
 30
0.0
 40
0.021
100
AcDbArc
 50
0.0
 51
56.815
  0
LINE
  5
67E
330
18
100
AcDbEntity
  8
0
100
AcDbLine
 10
2.498
 20
2.977
 30
0.0
 11
2.498
 21
2.937
 31
0.0
  0
ARC
  5
67F
330
18
100
AcDbEntity
  8
0
100
AcDbCircle
 10
2.477
 20
2.937
 30
0.0
 40
0.021
100
AcDbArc
 50
303.051
 51
0.0
  0
LINE
  5
680
330
18
100
AcDbEntity
  8
0
100
AcDbLine
 10
2.488
 20
2.919
 30
0.0
 11
2.383
 21
2.85
 31
0.0
  0
LINE
  5
681
330
18
100
AcDbEntity
  8
0
100
AcDbLine
 10
2.353
 20
3.471
 30
0.0
 11
2.503
 21
3.431
 31
0.0
  0
LINE
  5
682
330
18
100
AcDbEntity
  8
0
100
AcDbLine
 10
2.503
 20
3.431
 30
0.0
 11
2.503
 21
3.345
 31
0.0
  0
ARC
  5
683
330
18
100
AcDbEntity
  8
0
100
AcDbCircle
 10
2.482
 20
3.345
 30
0.0
 40
0.021
100
AcDbArc
 50
303.813
 51
0.0
  0
LINE
  5
684
330
18
100
AcDbEntity
  8
0
100
AcDbLine
 10
2.493
 20
3.327
 30
0.0
 11
2.464
 21
3.307
 31
0.0
  0
ARC
  5
685
330
18
100
AcDbEntity
  8
0
100
AcDbCircle
 10
2.476
 20
3.29
 30
0.0
 40
0.021
100
AcDbArc
 50
123.813
 51
180.0
  0
LINE
  5
686
330
18
100
AcDbEntity
  8
0
100
AcDbLine
 10
2.455
 20
3.29
 30
0.0
 11
2.455
 21
3.269
 31
0.0
  0
ARC
  5
687
330
18
100
AcDbEntity
  8
0
100
AcDbCircle
 10
2.476
 20
3.269
 30
0.0
 40
0.021
100
AcDbArc
 50
180.0
 51
234.817
  0
LINE
  5
688
330
18
100
AcDbEntity
  8
0
100
AcDbLine
 10
2.464
 20
3.252
 30
0.0
 11
2.494
 21
3.231
 31
0.0
  0
ARC
  5
689
330
18
100
AcDbEntity
  8
0
100
AcDbCircle
 10
2.482
 20
3.213
 30
0.0
 40
0.021
100
AcDbArc
 50
0.0
 51
54.81700000000001
  0
LINE
  5
68A
330
18
100
AcDbEntity
  8
0
100
AcDbLine
 10
2.503
 20
3.213
 30
0.0
 11
2.503
 21
3.11
 31
0.0
  0
ARC
  5
68B
330
18
100
AcDbEntity
  8
0
100
AcDbCircle
 10
2.482
 20
3.11
 30
0.0
 40
0.021
100
AcDbArc
 50
300.639
 51
0.0
  0
LINE
  5
68C
330
18
100
AcDbEntity
  8
0
100
AcDbLine
 10
2.492
 20
3.091
 30
0.0
 11
2.465
 21
3.075
 31
0.0
  0
ARC
  5
68D
330
18
100
AcDbEntity
  8
0
100
AcDbCircle
 10
2.476
 20
3.056
 30
0.0
 40
0.021
100
AcDbArc
 50
120.639
 51
180.0
  0
LINE
  5
68E
330
18
100
AcDbEntity
  8
0
100
AcDbLine
 10
2.455
 20
3.056
 30
0.0
 11
2.455
 21
3.034
 31
0.0
  0
ARC
  5
68F
330
18
100
AcDbEntity
  8
0
100
AcDbCircle
 10
2.476
 20
3.034
 30
0.0
 40
0.021
100
AcDbArc
 50
180.0
 51
236.815
  0
LINE
  5
690
330
18
100
AcDbEntity
  8
0
100
AcDbLine
 10
2.464
 20
3.016
 30
0.0
 11
2.493
 21
2.997
 31
0.0
  0
ARC
  5
691
330
18
100
AcDbEntity
  8
0
100
AcDbCircle
 10
2.482
 20
2.979
 30
0.0
 40
0.021
100
AcDbArc
 50
0.0
 51
56.815
  0
LINE
  5
692
330
18
100
AcDbEntity
  8
0
100
AcDbLine
 10
2.503
 20
2.979
 30
0.0
 11
2.503
 21
2.938
 31
0.0
  0
ARC
  5
693
330
18
100
AcDbEntity
  8
0
100
AcDbCircle
 10
2.482
 20
2.938
 30
0.0
 40
0.021
100
AcDbArc
 50
303.051
 51
0.0
  0
LINE
  5
694
330
18
100
AcDbEntity
  8
0
100
AcDbLine
 10
2.493
 20
2.92
 30
0.0
 11
2.378
 21
2.845
 31
0.0
  0
ARC
  5
695
330
18
100
AcDbEntity
  8
0
100
AcDbCircle
 10
3.961
 20
2.688
 30
0.0
 40
0.07
100
AcDbArc
 50
350.8
 51
0.8890000000000001
  0
ARC
  5
696
330
18
100
AcDbEntity
  8
0
100
AcDbCircle
 10
3.989
 20
2.684
 30
0.0
 40
0.041
100
AcDbArc
 50
337.643
 51
350.8
  0
ARC
  5
697
330
18
100
AcDbEntity
  8
0
100
AcDbCircle
 10
4.007
 20
2.676
 30
0.0
 40
0.022
100
AcDbArc
 50
314.848
 51
337.643
  0
ARC
  5
698
330
18
100
AcDbEntity
  8
0
100
AcDbCircle
 10
4.018
 20
2.665
 30
0.0
 40
0.006
100
AcDbArc
 50
270.889
 51
314.848
  0
ARC
  5
699
330
18
100
AcDbEntity
  8
0
100
AcDbCircle
 10
4.018
 20
2.665
 30
0.0
 40
0.006
100
AcDbArc
 50
226.93
 51
270.889
  0
ARC
  5
69A
330
18
100
AcDbEntity
  8
0
100
AcDbCircle
 10
4.029
 20
2.677
 30
0.0
 40
0.022
100
AcDbArc
 50
204.134
 51
226.93
  0
ARC
  5
69B
330
18
100
AcDbEntity
  8
0
100
AcDbCircle
 10
4.047
 20
2.685
 30
0.0
 40
0.041
100
AcDbArc
 50
190.977
 51
204.134
  0
ARC
  5
69C
330
18
100
AcDbEntity
  8
0
100
AcDbCircle
 10
4.075
 20
2.69
 30
0.0
 40
0.07
100
AcDbArc
 50
180.889
 51
190.977
  0
ARC
  5
69D
330
18
100
AcDbEntity
  8
0
100
AcDbCircle
 10
4.075
 20
2.69
 30
0.0
 40
0.07
100
AcDbArc
 50
170.8
 51
180.889
  0
ARC
  5
69E
330
18
100
AcDbEntity
  8
0
100
AcDbCircle
 10
4.047
 20
2.695
 30
0.0
 40
0.041
100
AcDbArc
 50
157.643
 51
170.8
  0
ARC
  5
69F
330
18
100
AcDbEntity
  8
0
100
AcDbCircle
 10
4.029
 20
2.702
 30
0.0
 40
0.022
100
AcDbArc
 50
134.848
 51
157.643
  0
ARC
  5
6A0
330
18
100
AcDbEntity
  8
0
100
AcDbCircle
 10
4.017
 20
2.713
 30
0.0
 40
0.006
100
AcDbArc
 50
90.88899999999998
 51
134.848
  0
ARC
  5
6A1
330
18
100
AcDbEntity
  8
0
100
AcDbCircle
 10
4.017
 20
2.713
 30
0.0
 40
0.006
100
AcDbArc
 50
46.93
 51
90.88899999999998
  0
ARC
  5
6A2
330
18
100
AcDbEntity
  8
0
100
AcDbCircle
 10
4.007
 20
2.702
 30
0.0
 40
0.022
100
AcDbArc
 50
24.134
 51
46.93
  0
ARC
  5
6A3
330
18
100
AcDbEntity
  8
0
100
AcDbCircle
 10
3.989
 20
2.694
 30
0.0
 40
0.041
100
AcDbArc
 50
10.977
 51
24.134
  0
ARC
  5
6A4
330
18
100
AcDbEntity
  8
0
100
AcDbCircle
 10
3.961
 20
2.688
 30
0.0
 40
0.07
100
AcDbArc
 50
0.8890000000000001
 51
10.977
  0
ARC
  5
6A5
330
18
100
AcDbEntity
  8
0
100
AcDbCircle
 10
3.97
 20
2.688
 30
0.0
 40
0.07
100
AcDbArc
 50
350.8
 51
0.8890000000000001
  0
ARC
  5
6A6
330
18
100
AcDbEntity
  8
0
100
AcDbCircle
 10
3.998
 20
2.684
 30
0.0
 40
0.041
100
AcDbArc
 50
337.643
 51
350.8
  0
ARC
  5
6A7
330
18
100
AcDbEntity
  8
0
100
AcDbCircle
 10
4.016
 20
2.676
 30
0.0
 40
0.022
100
AcDbArc
 50
314.848
 51
337.643
  0
ARC
  5
6A8
330
18
100
AcDbEntity
  8
0
100
AcDbCircle
 10
4.027
 20
2.665
 30
0.0
 40
0.006
100
AcDbArc
 50
270.889
 51
314.848
  0
ARC
  5
6A9
330
18
100
AcDbEntity
  8
0
100
AcDbCircle
 10
4.027
 20
2.665
 30
0.0
 40
0.006
100
AcDbArc
 50
226.93
 51
270.889
  0
ARC
  5
6AA
330
18
100
AcDbEntity
  8
0
100
AcDbCircle
 10
4.038
 20
2.677
 30
0.0
 40
0.022
100
AcDbArc
 50
225.3
 51
226.93
  0
ARC
  5
6AB
330
18
100
AcDbEntity
  8
0
100
AcDbCircle
 10
4.038
 20
2.702
 30
0.0
 40
0.022
100
AcDbArc
 50
134.848
 51
135.952
  0
ARC
  5
6AC
330
18
100
AcDbEntity
  8
0
100
AcDbCircle
 10
4.027
 20
2.713
 30
0.0
 40
0.006
100
AcDbArc
 50
90.88899999999998
 51
134.848
  0
ARC
  5
6AD
330
18
100
AcDbEntity
  8
0
100
AcDbCircle
 10
4.027
 20
2.713
 30
0.0
 40
0.006
100
AcDbArc
 50
46.93
 51
90.88899999999998
  0
ARC
  5
6AE
330
18
100
AcDbEntity
  8
0
100
AcDbCircle
 10
4.016
 20
2.702
 30
0.0
 40
0.022
100
AcDbArc
 50
24.134
 51
46.93
  0
ARC
  5
6AF
330
18
100
AcDbEntity
  8
0
100
AcDbCircle
 10
3.998
 20
2.694
 30
0.0
 40
0.041
100
AcDbArc
 50
10.977
 51
24.134
  0
ARC
  5
6B0
330
18
100
AcDbEntity
  8
0
100
AcDbCircle
 10
3.97
 20
2.688
 30
0.0
 40
0.07
100
AcDbArc
 50
0.8890000000000001
 51
10.977
  0
ARC
  5
6B1
330
18
100
AcDbEntity
  8
0
100
AcDbCircle
 10
3.961
 20
2.98
 30
0.0
 40
0.07
100
AcDbArc
 50
350.8
 51
0.8890000000000001
  0
ARC
  5
6B2
330
18
100
AcDbEntity
  8
0
100
AcDbCircle
 10
3.989
 20
2.976
 30
0.0
 40
0.041
100
AcDbArc
 50
337.643
 51
350.8
  0
ARC
  5
6B3
330
18
100
AcDbEntity
  8
0
100
AcDbCircle
 10
4.007
 20
2.968
 30
0.0
 40
0.022
100
AcDbArc
 50
314.848
 51
337.643
  0
ARC
  5
6B4
330
18
100
AcDbEntity
  8
0
100
AcDbCircle
 10
4.018
 20
2.957
 30
0.0
 40
0.006
100
AcDbArc
 50
270.889
 51
314.848
  0
ARC
  5
6B5
330
18
100
AcDbEntity
  8
0
100
AcDbCircle
 10
4.018
 20
2.957
 30
0.0
 40
0.006
100
AcDbArc
 50
226.93
 51
270.889
  0
ARC
  5
6B6
330
18
100
AcDbEntity
  8
0
100
AcDbCircle
 10
4.029
 20
2.969
 30
0.0
 40
0.022
100
AcDbArc
 50
204.134
 51
226.93
  0
ARC
  5
6B7
330
18
100
AcDbEntity
  8
0
100
AcDbCircle
 10
4.047
 20
2.977
 30
0.0
 40
0.041
100
AcDbArc
 50
190.977
 51
204.134
  0
ARC
  5
6B8
330
18
100
AcDbEntity
  8
0
100
AcDbCircle
 10
4.075
 20
2.982
 30
0.0
 40
0.07
100
AcDbArc
 50
180.889
 51
190.977
  0
ARC
  5
6B9
330
18
100
AcDbEntity
  8
0
100
AcDbCircle
 10
4.075
 20
2.982
 30
0.0
 40
0.07
100
AcDbArc
 50
170.8
 51
180.889
  0
ARC
  5
6BA
330
18
100
AcDbEntity
  8
0
100
AcDbCircle
 10
4.047
 20
2.987
 30
0.0
 40
0.041
100
AcDbArc
 50
157.643
 51
170.8
  0
ARC
  5
6BB
330
18
100
AcDbEntity
  8
0
100
AcDbCircle
 10
4.029
 20
2.994
 30
0.0
 40
0.022
100
AcDbArc
 50
134.848
 51
157.643
  0
ARC
  5
6BC
330
18
100
AcDbEntity
  8
0
100
AcDbCircle
 10
4.017
 20
3.005
 30
0.0
 40
0.006
100
AcDbArc
 50
90.88899999999998
 51
134.848
  0
ARC
  5
6BD
330
18
100
AcDbEntity
  8
0
100
AcDbCircle
 10
4.017
 20
3.005
 30
0.0
 40
0.006
100
AcDbArc
 50
46.93
 51
90.88899999999998
  0
ARC
  5
6BE
330
18
100
AcDbEntity
  8
0
100
AcDbCircle
 10
4.007
 20
2.994
 30
0.0
 40
0.022
100
AcDbArc
 50
24.134
 51
46.93
  0
ARC
  5
6BF
330
18
100
AcDbEntity
  8
0
100
AcDbCircle
 10
3.989
 20
2.986
 30
0.0
 40
0.041
100
AcDbArc
 50
10.977
 51
24.134
  0
ARC
  5
6C0
330
18
100
AcDbEntity
  8
0
100
AcDbCircle
 10
3.961
 20
2.98
 30
0.0
 40
0.07
100
AcDbArc
 50
0.8890000000000001
 51
10.977
  0
ARC
  5
6C1
330
18
100
AcDbEntity
  8
0
100
AcDbCircle
 10
3.97
 20
2.98
 30
0.0
 40
0.07
100
AcDbArc
 50
350.8
 51
0.8890000000000001
  0
ARC
  5
6C2
330
18
100
AcDbEntity
  8
0
100
AcDbCircle
 10
3.998
 20
2.976
 30
0.0
 40
0.041
100
AcDbArc
 50
337.643
 51
350.8
  0
ARC
  5
6C3
330
18
100
AcDbEntity
  8
0
100
AcDbCircle
 10
4.016
 20
2.968
 30
0.0
 40
0.022
100
AcDbArc
 50
314.848
 51
337.643
  0
ARC
  5
6C4
330
18
100
AcDbEntity
  8
0
100
AcDbCircle
 10
4.027
 20
2.957
 30
0.0
 40
0.006
100
AcDbArc
 50
270.889
 51
314.848
  0
ARC
  5
6C5
330
18
100
AcDbEntity
  8
0
100
AcDbCircle
 10
4.027
 20
2.957
 30
0.0
 40
0.006
100
AcDbArc
 50
226.93
 51
270.889
  0
ARC
  5
6C6
330
18
100
AcDbEntity
  8
0
100
AcDbCircle
 10
4.038
 20
2.969
 30
0.0
 40
0.022
100
AcDbArc
 50
225.3
 51
226.93
  0
ARC
  5
6C7
330
18
100
AcDbEntity
  8
0
100
AcDbCircle
 10
4.038
 20
2.994
 30
0.0
 40
0.022
100
AcDbArc
 50
134.848
 51
135.952
  0
ARC
  5
6C8
330
18
100
AcDbEntity
  8
0
100
AcDbCircle
 10
4.027
 20
3.005
 30
0.0
 40
0.006
100
AcDbArc
 50
90.88899999999998
 51
134.848
  0
ARC
  5
6C9
330
18
100
AcDbEntity
  8
0
100
AcDbCircle
 10
4.027
 20
3.005
 30
0.0
 40
0.006
100
AcDbArc
 50
46.93
 51
90.88899999999998
  0
ARC
  5
6CA
330
18
100
AcDbEntity
  8
0
100
AcDbCircle
 10
4.016
 20
2.994
 30
0.0
 40
0.022
100
AcDbArc
 50
24.134
 51
46.93
  0
ARC
  5
6CB
330
18
100
AcDbEntity
  8
0
100
AcDbCircle
 10
3.998
 20
2.986
 30
0.0
 40
0.041
100
AcDbArc
 50
10.977
 51
24.134
  0
ARC
  5
6CC
330
18
100
AcDbEntity
  8
0
100
AcDbCircle
 10
3.97
 20
2.98
 30
0.0
 40
0.07
100
AcDbArc
 50
0.8890000000000001
 51
10.977
  0
ARC
  5
6CD
330
18
100
AcDbEntity
  8
0
100
AcDbCircle
 10
2.469
 20
3.129
 30
0.0
 40
0.018
100
AcDbArc
 50
134.848
 51
135.952
  0
ARC
  5
6CE
330
18
100
AcDbEntity
  8
0
100
AcDbCircle
 10
2.46
 20
3.139
 30
0.0
 40
0.005
100
AcDbArc
 50
90.88899999999998
 51
134.848
  0
ARC
  5
6CF
330
18
100
AcDbEntity
  8
0
100
AcDbCircle
 10
2.46
 20
3.139
 30
0.0
 40
0.005
100
AcDbArc
 50
46.93
 51
90.88899999999998
  0
ARC
  5
6D0
330
18
100
AcDbEntity
  8
0
100
AcDbCircle
 10
2.451
 20
3.129
 30
0.0
 40
0.018
100
AcDbArc
 50
24.134
 51
46.93
  0
ARC
  5
6D1
330
18
100
AcDbEntity
  8
0
100
AcDbCircle
 10
2.437
 20
3.123
 30
0.0
 40
0.034
100
AcDbArc
 50
10.977
 51
24.134
  0
ARC
  5
6D2
330
18
100
AcDbEntity
  8
0
100
AcDbCircle
 10
2.414
 20
3.118
 30
0.0
 40
0.057
100
AcDbArc
 50
0.8890000000000001
 51
10.977
  0
ARC
  5
6D3
330
18
100
AcDbEntity
  8
0
100
AcDbCircle
 10
2.414
 20
3.118
 30
0.0
 40
0.057
100
AcDbArc
 50
350.8
 51
0.8890000000000001
  0
ARC
  5
6D4
330
18
100
AcDbEntity
  8
0
100
AcDbCircle
 10
2.437
 20
3.114
 30
0.0
 40
0.034
100
AcDbArc
 50
337.643
 51
350.8
  0
ARC
  5
6D5
330
18
100
AcDbEntity
  8
0
100
AcDbCircle
 10
2.451
 20
3.108
 30
0.0
 40
0.018
100
AcDbArc
 50
314.848
 51
337.643
  0
ARC
  5
6D6
330
18
100
AcDbEntity
  8
0
100
AcDbCircle
 10
2.461
 20
3.099
 30
0.0
 40
0.005
100
AcDbArc
 50
270.889
 51
314.848
  0
ARC
  5
6D7
330
18
100
AcDbEntity
  8
0
100
AcDbCircle
 10
2.461
 20
3.099
 30
0.0
 40
0.005
100
AcDbArc
 50
226.93
 51
270.889
  0
ARC
  5
6D8
330
18
100
AcDbEntity
  8
0
100
AcDbCircle
 10
2.469
 20
3.109
 30
0.0
 40
0.018
100
AcDbArc
 50
225.3
 51
226.93
  0
ARC
  5
6D9
330
18
100
AcDbEntity
  8
0
100
AcDbCircle
 10
2.406
 20
3.118
 30
0.0
 40
0.057
100
AcDbArc
 50
350.8
 51
0.8890000000000001
  0
ARC
  5
6DA
330
18
100
AcDbEntity
  8
0
100
AcDbCircle
 10
2.429
 20
3.114
 30
0.0
 40
0.034
100
AcDbArc
 50
337.643
 51
350.8
  0
ARC
  5
6DB
330
18
100
AcDbEntity
  8
0
100
AcDbCircle
 10
2.444
 20
3.108
 30
0.0
 40
0.018
100
AcDbArc
 50
314.848
 51
337.643
  0
ARC
  5
6DC
330
18
100
AcDbEntity
  8
0
100
AcDbCircle
 10
2.453
 20
3.099
 30
0.0
 40
0.005
100
AcDbArc
 50
270.889
 51
314.848
  0
ARC
  5
6DD
330
18
100
AcDbEntity
  8
0
100
AcDbCircle
 10
2.453
 20
3.099
 30
0.0
 40
0.005
100
AcDbArc
 50
226.93
 51
270.889
  0
ARC
  5
6DE
330
18
100
AcDbEntity
  8
0
100
AcDbCircle
 10
2.462
 20
3.109
 30
0.0
 40
0.018
100
AcDbArc
 50
204.134
 51
226.93
  0
ARC
  5
6DF
330
18
100
AcDbEntity
  8
0
100
AcDbCircle
 10
2.476
 20
3.115
 30
0.0
 40
0.034
100
AcDbArc
 50
190.977
 51
204.134
  0
ARC
  5
6E0
330
18
100
AcDbEntity
  8
0
100
AcDbCircle
 10
2.499
 20
3.12
 30
0.0
 40
0.057
100
AcDbArc
 50
180.889
 51
190.977
  0
ARC
  5
6E1
330
18
100
AcDbEntity
  8
0
100
AcDbCircle
 10
2.499
 20
3.12
 30
0.0
 40
0.057
100
AcDbArc
 50
170.8
 51
180.889
  0
ARC
  5
6E2
330
18
100
AcDbEntity
  8
0
100
AcDbCircle
 10
2.476
 20
3.123
 30
0.0
 40
0.034
100
AcDbArc
 50
157.643
 51
170.8
  0
ARC
  5
6E3
330
18
100
AcDbEntity
  8
0
100
AcDbCircle
 10
2.462
 20
3.129
 30
0.0
 40
0.018
100
AcDbArc
 50
134.848
 51
157.643
  0
ARC
  5
6E4
330
18
100
AcDbEntity
  8
0
100
AcDbCircle
 10
2.452
 20
3.139
 30
0.0
 40
0.005
100
AcDbArc
 50
90.88899999999998
 51
134.848
  0
ARC
  5
6E5
330
18
100
AcDbEntity
  8
0
100
AcDbCircle
 10
2.452
 20
3.139
 30
0.0
 40
0.005
100
AcDbArc
 50
46.93
 51
90.88899999999998
  0
ARC
  5
6E6
330
18
100
AcDbEntity
  8
0
100
AcDbCircle
 10
2.444
 20
3.129
 30
0.0
 40
0.018
100
AcDbArc
 50
24.134
 51
46.93
  0
ARC
  5
6E7
330
18
100
AcDbEntity
  8
0
100
AcDbCircle
 10
2.429
 20
3.123
 30
0.0
 40
0.034
100
AcDbArc
 50
10.977
 51
24.134
  0
ARC
  5
6E8
330
18
100
AcDbEntity
  8
0
100
AcDbCircle
 10
2.406
 20
3.118
 30
0.0
 40
0.057
100
AcDbArc
 50
0.8890000000000001
 51
10.977
  0
ARC
  5
6E9
330
18
100
AcDbEntity
  8
0
100
AcDbCircle
 10
2.469
 20
3.362
 30
0.0
 40
0.018
100
AcDbArc
 50
134.848
 51
135.952
  0
ARC
  5
6EA
330
18
100
AcDbEntity
  8
0
100
AcDbCircle
 10
2.46
 20
3.371
 30
0.0
 40
0.005
100
AcDbArc
 50
90.88899999999998
 51
134.848
  0
ARC
  5
6EB
330
18
100
AcDbEntity
  8
0
100
AcDbCircle
 10
2.46
 20
3.371
 30
0.0
 40
0.005
100
AcDbArc
 50
46.93
 51
90.88899999999998
  0
ARC
  5
6EC
330
18
100
AcDbEntity
  8
0
100
AcDbCircle
 10
2.451
 20
3.361
 30
0.0
 40
0.018
100
AcDbArc
 50
24.134
 51
46.93
  0
ARC
  5
6ED
330
18
100
AcDbEntity
  8
0
100
AcDbCircle
 10
2.437
 20
3.355
 30
0.0
 40
0.034
100
AcDbArc
 50
10.977
 51
24.134
  0
ARC
  5
6EE
330
18
100
AcDbEntity
  8
0
100
AcDbCircle
 10
2.414
 20
3.35
 30
0.0
 40
0.057
100
AcDbArc
 50
0.8890000000000001
 51
10.977
  0
ARC
  5
6EF
330
18
100
AcDbEntity
  8
0
100
AcDbCircle
 10
2.414
 20
3.35
 30
0.0
 40
0.057
100
AcDbArc
 50
350.8
 51
0.8890000000000001
  0
ARC
  5
6F0
330
18
100
AcDbEntity
  8
0
100
AcDbCircle
 10
2.437
 20
3.347
 30
0.0
 40
0.034
100
AcDbArc
 50
337.643
 51
350.8
  0
ARC
  5
6F1
330
18
100
AcDbEntity
  8
0
100
AcDbCircle
 10
2.451
 20
3.341
 30
0.0
 40
0.018
100
AcDbArc
 50
314.848
 51
337.643
  0
ARC
  5
6F2
330
18
100
AcDbEntity
  8
0
100
AcDbCircle
 10
2.461
 20
3.331
 30
0.0
 40
0.005
100
AcDbArc
 50
270.889
 51
314.848
  0
ARC
  5
6F3
330
18
100
AcDbEntity
  8
0
100
AcDbCircle
 10
2.461
 20
3.331
 30
0.0
 40
0.005
100
AcDbArc
 50
226.93
 51
270.889
  0
ARC
  5
6F4
330
18
100
AcDbEntity
  8
0
100
AcDbCircle
 10
2.469
 20
3.341
 30
0.0
 40
0.018
100
AcDbArc
 50
225.3
 51
226.93
  0
ARC
  5
6F5
330
18
100
AcDbEntity
  8
0
100
AcDbCircle
 10
2.406
 20
3.35
 30
0.0
 40
0.057
100
AcDbArc
 50
350.8
 51
0.8890000000000001
  0
ARC
  5
6F6
330
18
100
AcDbEntity
  8
0
100
AcDbCircle
 10
2.429
 20
3.347
 30
0.0
 40
0.034
100
AcDbArc
 50
337.643
 51
350.8
  0
ARC
  5
6F7
330
18
100
AcDbEntity
  8
0
100
AcDbCircle
 10
2.444
 20
3.341
 30
0.0
 40
0.018
100
AcDbArc
 50
314.848
 51
337.643
  0
ARC
  5
6F8
330
18
100
AcDbEntity
  8
0
100
AcDbCircle
 10
2.453
 20
3.331
 30
0.0
 40
0.005
100
AcDbArc
 50
270.889
 51
314.848
  0
ARC
  5
6F9
330
18
100
AcDbEntity
  8
0
100
AcDbCircle
 10
2.453
 20
3.331
 30
0.0
 40
0.005
100
AcDbArc
 50
226.93
 51
270.889
  0
ARC
  5
6FA
330
18
100
AcDbEntity
  8
0
100
AcDbCircle
 10
2.462
 20
3.341
 30
0.0
 40
0.018
100
AcDbArc
 50
204.134
 51
226.93
  0
ARC
  5
6FB
330
18
100
AcDbEntity
  8
0
100
AcDbCircle
 10
2.476
 20
3.347
 30
0.0
 40
0.034
100
AcDbArc
 50
190.977
 51
204.134
  0
ARC
  5
6FC
330
18
100
AcDbEntity
  8
0
100
AcDbCircle
 10
2.499
 20
3.352
 30
0.0
 40
0.057
100
AcDbArc
 50
180.889
 51
190.977
  0
ARC
  5
6FD
330
18
100
AcDbEntity
  8
0
100
AcDbCircle
 10
2.499
 20
3.352
 30
0.0
 40
0.057
100
AcDbArc
 50
170.8
 51
180.889
  0
ARC
  5
6FE
330
18
100
AcDbEntity
  8
0
100
AcDbCircle
 10
2.476
 20
3.356
 30
0.0
 40
0.034
100
AcDbArc
 50
157.643
 51
170.8
  0
ARC
  5
6FF
330
18
100
AcDbEntity
  8
0
100
AcDbCircle
 10
2.462
 20
3.362
 30
0.0
 40
0.018
100
AcDbArc
 50
134.848
 51
157.643
  0
ARC
  5
700
330
18
100
AcDbEntity
  8
0
100
AcDbCircle
 10
2.452
 20
3.371
 30
0.0
 40
0.005
100
AcDbArc
 50
90.88899999999998
 51
134.848
  0
ARC
  5
701
330
18
100
AcDbEntity
  8
0
100
AcDbCircle
 10
2.452
 20
3.371
 30
0.0
 40
0.005
100
AcDbArc
 50
46.93
 51
90.88899999999998
  0
ARC
  5
702
330
18
100
AcDbEntity
  8
0
100
AcDbCircle
 10
2.444
 20
3.361
 30
0.0
 40
0.018
100
AcDbArc
 50
24.134
 51
46.93
  0
ARC
  5
703
330
18
100
AcDbEntity
  8
0
100
AcDbCircle
 10
2.429
 20
3.355
 30
0.0
 40
0.034
100
AcDbArc
 50
10.977
 51
24.134
  0
ARC
  5
704
330
18
100
AcDbEntity
  8
0
100
AcDbCircle
 10
2.406
 20
3.35
 30
0.0
 40
0.057
100
AcDbArc
 50
0.8890000000000001
 51
10.977
  0
TEXT
  5
705
330
18
100
AcDbEntity
  8
0
100
AcDbText
 10
1.292192
 20
1.30175
 30
0.0
 40
0.18
  1
Simpson Strong-Tie
100
AcDbText
  0
TEXT
  5
706
330
18
100
AcDbEntity
  8
0
100
AcDbText
 10
1.292192
 20
1.010321
 30
0.0
 40
0.18
  1
U26
100
AcDbText
  0
ENDSEC
  0
SECTION
  2
OBJECTS
  0
DICTIONARY
  5
C
330
0
100
AcDbDictionary
281
     1
  3
ACAD_COLOR
350
70C
  3
ACAD_GROUP
350
D
  3
ACAD_LAYOUT
350
15
  3
ACAD_MATERIAL
350
70E
  3
ACAD_MLINESTYLE
350
12
  3
ACAD_PLOTSETTINGS
350
14
  3
ACAD_PLOTSTYLENAME
350
E
  3
ACDBHEADERROUNDTRIPXREC
350
70B
  0
DICTIONARY
  5
70C
102
{ACAD_REACTORS
330
C
102
}
330
C
100
AcDbDictionary
281
     1
  0
DICTIONARY
  5
D
102
{ACAD_REACTORS
330
C
102
}
330
C
100
AcDbDictionary
281
     1
  0
DICTIONARY
  5
15
102
{ACAD_REACTORS
330
C
102
}
330
C
100
AcDbDictionary
281
     1
  3
Layout1
350
17
  3
Model
350
19
  0
DICTIONARY
  5
70E
102
{ACAD_REACTORS
330
C
102
}
330
C
100
AcDbDictionary
281
     1
  0
DICTIONARY
  5
12
102
{ACAD_REACTORS
330
C
102
}
330
C
100
AcDbDictionary
281
     1
  3
Standard
350
13
  0
DICTIONARY
  5
14
102
{ACAD_REACTORS
330
C
102
}
330
C
100
AcDbDictionary
281
     1
  0
ACDBDICTIONARYWDFLT
  5
E
102
{ACAD_REACTORS
330
C
102
}
330
C
100
AcDbDictionary
281
     1
  3
Normal
350
F
100
AcDbDictionaryWithDefault
340
F
  0
DICTIONARY
  5
70B
102
{ACAD_REACTORS
330
C
102
}
330
C
100
AcDbDictionary
281
     1
  3
COLORDICT
350
70D
  3
MATERIALDICT
350
70F
  0
LAYOUT
  5
17
102
{ACAD_REACTORS
330
15
102
}
102
{ACAD_XDICTIONARY
360
710
102
}
330
15
100
AcDbPlotSettings
  1

  2

  4

  6

 40
0.0
 41
0.0
 42
0.0
 43
0.0
 44
0.0
 45
0.0
 46
0.0
 47
0.0
 48
0.0
 49
0.0
140
0.0
141
0.0
142
1.0
143
1.0
 70
   688
 72
     0
 73
     0
 74
     5
  7

 75
    16
147
1.0
148
0.0
149
0.0
100
AcDbLayout
  1
Layout1
 70
     1
 71
     1
 10
0.0
 20
0.0
 11
12.0
 21
9.0
 12
0.0
 22
0.0
 32
0.0
 14
1.000000000000000E+20
 24
1.000000000000000E+20
 34
1.000000000000000E+20
 15
-1.000000000000000E+20
 25
-1.000000000000000E+20
 35
-1.000000000000000E+20
146
0.0
 13
0.0
 23
0.0
 33
0.0
 16
1.0
 26
0.0
 36
0.0
 17
0.0
 27
1.0
 37
0.0
 76
     0
330
16
  0
LAYOUT
  5
19
102
{ACAD_REACTORS
330
15
102
}
102
{ACAD_XDICTIONARY
360
712
102
}
330
15
100
AcDbPlotSettings
  1

  2

  4

  6

 40
0.0
 41
0.0
 42
0.0
 43
0.0
 44
0.0
 45
0.0
 46
0.0
 47
0.0
 48
0.0
 49
0.0
140
0.0
141
0.0
142
1.0
143
1.0
 70
  1712
 72
     0
 73
     0
 74
     0
  7

 75
     0
147
1.0
148
0.0
149
0.0
100
AcDbLayout
  1
Model
 70
     1
 71
     0
 10
0.0
 20
0.0
 11
0.0
 21
0.0
 12
0.0
 22
0.0
 32
0.0
 14
0.0
 24
0.0
 34
0.0
 15
0.0
 25
0.0
 35
0.0
146
0.0
 13
0.0
 23
0.0
 33
0.0
 16
1.0
 26
0.0
 36
0.0
 17
0.0
 27
1.0
 37
0.0
 76
     0
330
18
  0
MLINESTYLE
  5
13
102
{ACAD_REACTORS
330
12
102
}
330
12
100
AcDbMlineStyle
  2
Standard
 70
     0
  3

 62
   256
 51
90.0
 52
90.0
 71
     2
 49
0.5
 62
   256
  6
BYLAYER
 49
-0.5
 62
   256
  6
BYLAYER
  0
ACDBPLACEHOLDER
  5
F
102
{ACAD_REACTORS
330
E
102
}
330
E
  0
XRECORD
  5
70D
102
{ACAD_REACTORS
330
70B
102
}
330
70B
100
AcDbXrecord
340
70C
  0
XRECORD
  5
70F
102
{ACAD_REACTORS
330
70B
102
}
330
70B
100
AcDbXrecord
340
70E
  0
DICTIONARY
  5
710
330
17
100
AcDbDictionary
280
     1
281
     1
  3
ACAD_XREC_ROUNDTRIP
360
711
  0
DICTIONARY
  5
712
330
19
100
AcDbDictionary
280
     1
281
     1
  3
ACAD_XREC_ROUNDTRIP
360
713
  0
XRECORD
  5
711
102
{ACAD_REACTORS
330
710
102
}
330
710
100
AcDbXrecord
102
SHADEPLOT
 70
     0
102
SHADEPLOTRESLEVEL
 70
     0
102
SHADEPLOTCUSTOMDPI
 70
     0
  0
XRECORD
  5
713
102
{ACAD_REACTORS
330
712
102
}
330
712
100
AcDbXrecord
102
SHADEPLOT
 70
     0
102
SHADEPLOTRESLEVEL
 70
     0
102
SHADEPLOTCUSTOMDPI
 70
     0
  0
ENDSEC
  0
EOF
