  0
SECTION
  2
HEADER
  9
$ACADVER
  1
AC1015
  9
$ACADMAINTVER
 70
     6
  9
$DWGCODEPAGE
  3
ASCII
  9
$INSBASE
 10
0.0
 20
0.0
 30
0.0
  9
$EXTMIN
 10
0.711453
 20
1.203496333333333
 30
0.0
  9
$EXTMAX
 10
5.866695
 20
9.072925999999999
 30
0.0
  9
$LIMMIN
 10
0.0
 20
0.0
  9
$LIMMAX
 10
8.5
 20
11.0
  9
$ORTHOMODE
 70
     1
  9
$REGENMODE
 70
     0
  9
$FILLMODE
 70
     1
  9
$QTEXTMODE
 70
     0
  9
$MIRRTEXT
 70
     1
  9
$LTSCALE
 40
0.2
  9
$ATTMODE
 70
     1
  9
$TEXTSIZE
 40
0.2
  9
$TRACEWID
 40
0.05
  9
$TEXTSTYLE
  7
STANDARD
  9
$CLAYER
  8
0
  9
$CELTYPE
  6
ByLayer
  9
$CECOLOR
 62
   256
  9
$CELTSCALE
 40
1.0
  9
$DISPSILH
 70
     0
  9
$DIMSCALE
 40
1.0
  9
$DIMASZ
 40
0.2
  9
$DIMEXO
 40
0.0625
  9
$DIMDLI
 40
0.38
  9
$DIMRND
 40
0.0
  9
$DIMDLE
 40
0.0
  9
$DIMEXE
 40
0.075
  9
$DIMTP
 40
0.0
  9
$DIMTM
 40
0.0
  9
$DIMTXT
 40
0.1
  9
$DIMCEN
 40
0.09
  9
$DIMTSZ
 40
0.0
  9
$DIMTOL
 70
     0
  9
$DIMLIM
 70
     0
  9
$DIMTIH
 70
     0
  9
$DIMTOH
 70
     0
  9
$DIMSE1
 70
     0
  9
$DIMSE2
 70
     0
  9
$DIMTAD
 70
     1
  9
$DIMZIN
 70
     0
  9
$DIMBLK
  1

  9
$DIMASO
 70
     0
  9
$DIMSHO
 70
     1
  9
$DIMPOST
  1

  9
$DIMAPOST
  1

  9
$DIMALT
 70
     0
  9
$DIMALTD
 70
     2
  9
$DIMALTF
 40
25.4
  9
$DIMLFAC
 40
1.0
  9
$DIMTOFL
 70
     0
  9
$DIMTVP
 40
0.0
  9
$DIMTIX
 70
     0
  9
$DIMSOXD
 70
     0
  9
$DIMSAH
 70
     0
  9
$DIMBLK1
  1

  9
$DIMBLK2
  1

  9
$DIMSTYLE
  2
Standard
  9
$DIMCLRD
 70
     0
  9
$DIMCLRE
 70
     0
  9
$DIMCLRT
 70
     0
  9
$DIMTFAC
 40
1.0
  9
$DIMGAP
 40
0.09
  9
$DIMJUST
 70
     0
  9
$DIMSD1
 70
     0
  9
$DIMSD2
 70
     0
  9
$DIMTOLJ
 70
     1
  9
$DIMTZIN
 70
     0
  9
$DIMALTZ
 70
     0
  9
$DIMALTTZ
 70
     0
  9
$DIMUPT
 70
     0
  9
$DIMDEC
 70
     4
  9
$DIMTDEC
 70
     4
  9
$DIMALTU
 70
     2
  9
$DIMALTTD
 70
     2
  9
$DIMTXSTY
  7
STANDARD
  9
$DIMAUNIT
 70
     0
  9
$DIMADEC
 70
     0
  9
$DIMALTRND
 40
0.0
  9
$DIMAZIN
 70
     0
  9
$DIMDSEP
 70
    46
  9
$DIMATFIT
 70
     3
  9
$DIMFRAC
 70
     0
  9
$DIMLDRBLK
  1

  9
$DIMLUNIT
 70
     2
  9
$DIMLWD
 70
    -2
  9
$DIMLWE
 70
    -2
  9
$DIMTMOVE
 70
     0
  9
$LUNITS
 70
     2
  9
$LUPREC
 70
     4
  9
$SKETCHINC
 40
0.1
  9
$FILLETRAD
 40
0.05
  9
$AUNITS
 70
     0
  9
$AUPREC
 70
     0
  9
$MENU
  1
acad
  9
$ELEVATION
 40
0.0
  9
$PELEVATION
 40
0.0
  9
$THICKNESS
 40
0.0
  9
$LIMCHECK
 70
     0
  9
$CHAMFERA
 40
0.0
  9
$CHAMFERB
 40
0.0
  9
$CHAMFERC
 40
1.0
  9
$CHAMFERD
 40
0.0
  9
$SKPOLY
 70
     0
  9
$TDCREATE
 40
2453955.560337234
  9
$TDUCREATE
 40
2453955.893670567
  9
$TDUPDATE
 40
2453955.602003912
  9
$TDUUPDATE
 40
2453955.893670579
  9
$TDINDWG
 40
0.0000000116
  9
$TDUSRTIMER
 40
0.0000000116
  9
$USRTIMER
 70
     1
  9
$ANGBASE
 50
0.0
  9
$ANGDIR
 70
     0
  9
$PDMODE
 70
     0
  9
$PDSIZE
 40
0.0
  9
$PLINEWID
 40
0.0
  9
$SPLFRAME
 70
     0
  9
$SPLINETYPE
 70
     6
  9
$SPLINESEGS
 70
     8
  9
$HANDSEED
  5
41A
  9
$SURFTAB1
 70
     6
  9
$SURFTAB2
 70
     6
  9
$SURFTYPE
 70
     6
  9
$SURFU
 70
     6
  9
$SURFV
 70
     6
  9
$UCSBASE
  2

  9
$UCSNAME
  2

  9
$UCSORG
 10
0.0
 20
0.0
 30
0.0
  9
$UCSXDIR
 10
1.0
 20
0.0
 30
0.0
  9
$UCSYDIR
 10
0.0
 20
1.0
 30
0.0
  9
$UCSORTHOREF
  2

  9
$UCSORTHOVIEW
 70
     0
  9
$UCSORGTOP
 10
0.0
 20
0.0
 30
0.0
  9
$UCSORGBOTTOM
 10
0.0
 20
0.0
 30
0.0
  9
$UCSORGLEFT
 10
0.0
 20
0.0
 30
0.0
  9
$UCSORGRIGHT
 10
0.0
 20
0.0
 30
0.0
  9
$UCSORGFRONT
 10
0.0
 20
0.0
 30
0.0
  9
$UCSORGBACK
 10
0.0
 20
0.0
 30
0.0
  9
$PUCSBASE
  2

  9
$PUCSNAME
  2

  9
$PUCSORG
 10
0.0
 20
0.0
 30
0.0
  9
$PUCSXDIR
 10
1.0
 20
0.0
 30
0.0
  9
$PUCSYDIR
 10
0.0
 20
1.0
 30
0.0
  9
$PUCSORTHOREF
  2

  9
$PUCSORTHOVIEW
 70
     0
  9
$PUCSORGTOP
 10
0.0
 20
0.0
 30
0.0
  9
$PUCSORGBOTTOM
 10
0.0
 20
0.0
 30
0.0
  9
$PUCSORGLEFT
 10
0.0
 20
0.0
 30
0.0
  9
$PUCSORGRIGHT
 10
0.0
 20
0.0
 30
0.0
  9
$PUCSORGFRONT
 10
0.0
 20
0.0
 30
0.0
  9
$PUCSORGBACK
 10
0.0
 20
0.0
 30
0.0
  9
$USERI1
 70
     0
  9
$USERI2
 70
     0
  9
$USERI3
 70
     0
  9
$USERI4
 70
     0
  9
$USERI5
 70
     0
  9
$USERR1
 40
0.0
  9
$USERR2
 40
0.0
  9
$USERR3
 40
0.0
  9
$USERR4
 40
0.0
  9
$USERR5
 40
0.0
  9
$WORLDVIEW
 70
     1
  9
$SHADEDGE
 70
     3
  9
$SHADEDIF
 70
    70
  9
$TILEMODE
 70
     1
  9
$MAXACTVP
 70
    16
  9
$PINSBASE
 10
0.0
 20
0.0
 30
0.0
  9
$PLIMCHECK
 70
     0
  9
$PEXTMIN
 10
1.000000000000000E+20
 20
1.000000000000000E+20
 30
1.000000000000000E+20
  9
$PEXTMAX
 10
-1.000000000000000E+20
 20
-1.000000000000000E+20
 30
-1.000000000000000E+20
  9
$PLIMMIN
 10
0.0
 20
0.0
  9
$PLIMMAX
 10
12.0
 20
9.0
  9
$UNITMODE
 70
     0
  9
$VISRETAIN
 70
     0
  9
$PLINEGEN
 70
     0
  9
$PSLTSCALE
 70
     1
  9
$TREEDEPTH
 70
  3020
  9
$CMLSTYLE
  2
Standard
  9
$CMLJUST
 70
     0
  9
$CMLSCALE
 40
1.0
  9
$PROXYGRAPHICS
 70
     1
  9
$MEASUREMENT
 70
     0
  9
$CELWEIGHT
370
    -1
  9
$ENDCAPS
280
     0
  9
$JOINSTYLE
280
     0
  9
$LWDISPLAY
290
     0
  9
$INSUNITS
 70
     1
  9
$HYPERLINKBASE
  1

  9
$STYLESHEET
  1

  9
$XEDIT
290
     1
  9
$CEPSNTYPE
380
     0
  9
$PSTYLEMODE
290
     0
  9
$FINGERPRINTGUID
  2
{FAEB1C30-E019-11D5-929B-00C0DF256EC4}
  9
$VERSIONGUID
  2
{FAEB1C32-E019-11D5-929B-00C0DF256EC4}
  9
$EXTNAMES
290
     1
  9
$PSVPSCALE
 40
0.0
  9
$OLESTARTUP
290
     0
  0
ENDSEC
  0
SECTION
  2
CLASSES
  0
CLASS
  1
ACDBDICTIONARYWDFLT
  2
AcDbDictionaryWithDefault
  3
AutoCAD 2000
 90
        0
280
     0
281
     0
  0
CLASS
  1
ACDBPLACEHOLDER
  2
AcDbPlaceHolder
  3
ObjectDBX Classes
 90
        0
280
     0
281
     0
  0
CLASS
  1
LAYOUT
  2
AcDbLayout
  3
ObjectDBX Classes
 90
        0
280
     0
281
     0
  0
ENDSEC
  0
SECTION
  2
TABLES
  0
TABLE
  2
VPORT
  5
8
330
0
100
AcDbSymbolTable
 70
     2
  0
VPORT
  5
1E
330
8
100
AcDbSymbolTableRecord
100
AcDbViewportTableRecord
  2
*ACTIVE
 70
     0
 10
0.0
 20
0.0
 11
1.0
 21
1.0
 12
7.630750605326877
 22
5.5
 13
0.0
 23
0.0
 14
1.0
 24
1.0
 15
0.0
 25
0.0
 16
0.0
 26
0.0
 36
1.0
 17
0.0
 27
0.0
 37
0.0
 40
11.0
 41
0.7207678883071553
 42
50.0
 43
0.0
 44
0.0
 50
0.0
 51
0.0
 71
     0
 72
  2000
 73
     1
 74
     0
 75
     0
 76
     0
 77
     0
 78
     0
281
     0
 65
     1
110
0.0
120
0.0
130
0.0
111
1.0
121
0.0
131
0.0
112
0.0
122
1.0
132
0.0
 79
     0
146
0.0
  0
ENDTAB
  0
TABLE
  2
LTYPE
  5
5
330
0
100
AcDbSymbolTable
 70
     1
  0
LTYPE
  5
10
330
5
100
AcDbSymbolTableRecord
100
AcDbLinetypeTableRecord
  2
ByBlock
 70
     0
  3

 72
    65
 73
     0
 40
0.0
  0
LTYPE
  5
11
330
5
100
AcDbSymbolTableRecord
100
AcDbLinetypeTableRecord
  2
ByLayer
 70
     0
  3

 72
    65
 73
     0
 40
0.0
  0
LTYPE
  5
1B
330
5
100
AcDbSymbolTableRecord
100
AcDbLinetypeTableRecord
  2
CONTINUOUS
 70
     0
  3
Solid line
 72
    65
 73
     0
 40
0.0
  0
ENDTAB
  0
TABLE
  2
LAYER
  5
2
330
0
100
AcDbSymbolTable
 70
     1
  0
LAYER
  5
1C
330
2
100
AcDbSymbolTableRecord
100
AcDbLayerTableRecord
  2
0
 70
     0
 62
     7
  6
CONTINUOUS
370
    -3
390
F
  0
ENDTAB
  0
TABLE
  2
STYLE
  5
3
330
0
100
AcDbSymbolTable
 70
     1
  0
STYLE
  5
21
330
3
100
AcDbSymbolTableRecord
100
AcDbTextStyleTableRecord
  2
STANDARD
 70
     0
 40
0.0
 41
1.0
 50
0.0
 71
     0
 42
0.2
  3
ROMANS.SHX
  4

  0
ENDTAB
  0
TABLE
  2
VIEW
  5
6
330
0
100
AcDbSymbolTable
 70
     1
  0
VIEW
  5
20
330
6
100
AcDbSymbolTableRecord
100
AcDbViewTableRecord
  2
1
 70
     0
 40
8.927239
 10
4.976066
 20
5.072897
 41
12.264524
 11
0.0
 21
0.0
 31
1.0
 12
0.0
 22
0.0
 32
0.0
 42
50.0
 43
0.0
 44
0.0
 50
0.0
 71
     0
281
     0
 72
     0
  0
ENDTAB
  0
TABLE
  2
UCS
  5
7
330
0
100
AcDbSymbolTable
 70
     0
  0
ENDTAB
  0
TABLE
  2
APPID
  5
9
330
0
100
AcDbSymbolTable
 70
     1
  0
APPID
  5
1F
330
9
100
AcDbSymbolTableRecord
100
AcDbRegAppTableRecord
  2
ACAD
 70
     0
  0
ENDTAB
  0
TABLE
  2
DIMSTYLE
  5
A
330
0
100
AcDbSymbolTable
 70
     1
100
AcDbDimStyleTable
  0
DIMSTYLE
105
22
330
A
100
AcDbSymbolTableRecord
100
AcDbDimStyleTableRecord
  2
Standard
 70
     0
  3

  4

340
21
  0
ENDTAB
  0
TABLE
  2
BLOCK_RECORD
  5
1
330
0
100
AcDbSymbolTable
 70
     0
  0
BLOCK_RECORD
  5
18
330
1
100
AcDbSymbolTableRecord
100
AcDbBlockTableRecord
  2
*Model_Space
340
19
  0
BLOCK_RECORD
  5
16
330
1
100
AcDbSymbolTableRecord
100
AcDbBlockTableRecord
  2
*Paper_Space
340
17
  0
ENDTAB
  0
ENDSEC
  0
SECTION
  2
BLOCKS
  0
BLOCK
  5
40F
330
18
100
AcDbEntity
  8
0
100
AcDbBlockBegin
  2
*Model_Space
 70
     0
 10
0.0
 20
0.0
 30
0.0
  3
*Model_Space
  1

  4

  0
ENDBLK
  5
410
330
18
100
AcDbEntity
  8
0
100
AcDbBlockEnd
  0
BLOCK
  5
40D
330
16
100
AcDbEntity
 67
     1
  8
0
100
AcDbBlockBegin
  2
*Paper_Space
 70
     0
 10
0.0
 20
0.0
 30
0.0
  3
*Paper_Space
  1

  4

  0
ENDBLK
  5
40E
330
16
100
AcDbEntity
 67
     1
  8
0
100
AcDbBlockEnd
  0
ENDSEC
  0
SECTION
  2
ENTITIES
  0
LINE
  5
23
330
18
100
AcDbEntity
  8
0
100
AcDbLine
 10
4.577497
 20
2.120643
 30
0.0
 11
4.577497
 21
7.354879
 31
0.0
  0
LINE
  5
24
330
18
100
AcDbEntity
  8
0
100
AcDbLine
 10
5.866695
 20
2.840881
 30
0.0
 11
5.866695
 21
7.837316
 31
0.0
  0
LINE
  5
25
330
18
100
AcDbEntity
  8
0
100
AcDbLine
 10
4.577497
 20
7.354879
 30
0.0
 11
5.866695
 21
7.837316
 31
0.0
  0
LINE
  5
26
330
18
100
AcDbEntity
  8
0
100
AcDbLine
 10
5.866695
 20
7.837316
 30
0.0
 11
2.566747
 21
9.072925999999999
 31
0.0
  0
LINE
  5
27
330
18
100
AcDbEntity
  8
0
100
AcDbLine
 10
4.577497
 20
7.354879
 30
0.0
 11
1.277549
 21
8.590489
 31
0.0
  0
LINE
  5
28
330
18
100
AcDbEntity
  8
0
100
AcDbLine
 10
1.277549
 20
8.590489
 30
0.0
 11
1.800486
 21
8.78618
 31
0.0
  0
LINE
  5
29
330
18
100
AcDbEntity
  8
0
100
AcDbLine
 10
1.277549
 20
7.65975
 30
0.0
 11
1.277549
 21
8.590489
 31
0.0
  0
LINE
  5
2A
330
18
100
AcDbEntity
  8
0
100
AcDbLine
 10
3.183441
 20
7.876860000000001
 30
0.0
 11
3.183441
 21
7.313667999999999
 31
0.0
  0
LINE
  5
2B
330
18
100
AcDbEntity
  8
0
100
AcDbLine
 10
0.7617010000000001
 20
7.476291000000001
 30
0.0
 11
2.552396
 21
8.113144
 31
0.0
  0
LINE
  5
2C
330
18
100
AcDbEntity
  8
0
100
AcDbLine
 10
1.283417
 20
7.201124
 30
0.0
 11
3.183441
 21
7.876860000000001
 31
0.0
  0
LINE
  5
2D
330
18
100
AcDbEntity
  8
0
100
AcDbLine
 10
1.283417
 20
6.645819
 30
0.0
 11
3.183441
 21
7.313667999999999
 31
0.0
  0
LINE
  5
2E
330
18
100
AcDbEntity
  8
0
100
AcDbLine
 10
0.7617010000000001
 20
7.476291000000001
 30
0.0
 11
0.7617010000000001
 21
6.920985000000001
 31
0.0
  0
LINE
  5
2F
330
18
100
AcDbEntity
  8
0
100
AcDbLine
 10
1.283417
 20
7.201124
 30
0.0
 11
1.283417
 21
6.645819
 31
0.0
  0
LINE
  5
30
330
18
100
AcDbEntity
  8
0
100
AcDbLine
 10
2.230821
 20
6.926576
 30
0.0
 11
3.183441
 21
7.265372
 31
0.0
  0
LINE
  5
31
330
18
100
AcDbEntity
  8
0
100
AcDbLine
 10
2.230821
 20
6.926576
 30
0.0
 11
2.230821
 21
3.056286
 31
0.0
  0
LINE
  5
32
330
18
100
AcDbEntity
  8
0
100
AcDbLine
 10
1.968043
 20
6.881417
 30
0.0
 11
1.968043
 21
3.154679
 31
0.0
  0
LINE
  5
33
330
18
100
AcDbEntity
  8
0
100
AcDbLine
 10
3.183441
 20
7.265372
 30
0.0
 11
3.117288
 21
7.290141
 31
0.0
  0
LINE
  5
34
330
18
100
AcDbEntity
  8
0
100
AcDbLine
 10
3.183441
 20
7.265372
 30
0.0
 11
3.183441
 21
6.162167
 31
0.0
  0
LINE
  5
35
330
18
100
AcDbEntity
  8
0
100
AcDbLine
 10
2.230821
 20
6.926576
 30
0.0
 11
2.164668
 21
6.951346000000001
 31
0.0
  0
LINE
  5
36
330
18
100
AcDbEntity
  8
0
100
AcDbLine
 10
2.165126
 20
6.951175
 30
0.0
 11
2.165126
 21
3.080884
 31
0.0
  0
LINE
  5
37
330
18
100
AcDbEntity
  8
0
100
AcDbLine
 10
2.099432
 20
6.928145
 30
0.0
 11
2.099432
 21
3.105483
 31
0.0
  0
LINE
  5
38
330
18
100
AcDbEntity
  8
0
100
AcDbLine
 10
2.033737
 20
6.904781
 30
0.0
 11
2.033737
 21
3.130081
 31
0.0
  0
LINE
  5
39
330
18
100
AcDbEntity
  8
0
100
AcDbLine
 10
2.230821
 20
3.056286
 30
0.0
 11
1.968043
 21
3.154679
 31
0.0
  0
LINE
  5
3A
330
18
100
AcDbEntity
  8
0
100
AcDbLine
 10
1.093711
 20
6.97812
 30
0.0
 11
1.093711
 21
2.47334
 31
0.0
  0
LINE
  5
3B
330
18
100
AcDbEntity
  8
0
100
AcDbLine
 10
0.929241
 20
7.064866
 30
0.0
 11
0.929241
 21
2.59067
 31
0.0
  0
LINE
  5
3C
330
18
100
AcDbEntity
  8
0
100
AcDbLine
 10
1.038888
 20
7.007036
 30
0.0
 11
1.038888
 21
2.51245
 31
0.0
  0
LINE
  5
3D
330
18
100
AcDbEntity
  8
0
100
AcDbLine
 10
0.984065
 20
7.035951
 30
0.0
 11
0.984065
 21
2.55156
 31
0.0
  0
LINE
  5
3E
330
18
100
AcDbEntity
  8
0
100
AcDbLine
 10
0.711453
 20
2.938426
 30
0.0
 11
0.711453
 21
2.411059
 31
0.0
  0
LINE
  5
3F
330
18
100
AcDbEntity
  8
0
100
AcDbLine
 10
1.265836
 20
2.542943
 30
0.0
 11
1.265836
 21
2.015575
 31
0.0
  0
LINE
  5
40
330
18
100
AcDbEntity
  8
0
100
AcDbLine
 10
2.485922
 20
3.191993
 30
0.0
 11
1.265836
 21
2.542943
 31
0.0
  0
LINE
  5
41
330
18
100
AcDbEntity
  8
0
100
AcDbLine
 10
1.265836
 20
2.542943
 30
0.0
 11
1.093711
 21
2.665732
 31
0.0
  0
LINE
  5
42
330
18
100
AcDbEntity
  8
0
100
AcDbLine
 10
0.929241
 20
3.054283
 30
0.0
 11
0.711453
 21
2.938426
 31
0.0
  0
LINE
  5
43
330
18
100
AcDbEntity
  8
0
100
AcDbLine
 10
1.093711
 20
2.47334
 30
0.0
 11
0.929241
 21
2.59067
 31
0.0
  0
LINE
  5
44
330
18
100
AcDbEntity
  8
0
100
AcDbLine
 10
0.929241
 20
2.783062
 30
0.0
 11
0.711453
 21
2.938426
 31
0.0
  0
LINE
  5
45
330
18
100
AcDbEntity
  8
0
100
AcDbLine
 10
1.968043
 20
3.154679
 30
0.0
 11
1.093711
 21
2.689561
 31
0.0
  0
LINE
  5
46
330
18
100
AcDbEntity
  8
0
100
AcDbLine
 10
1.265836
 20
2.015575
 30
0.0
 11
0.711453
 21
2.411059
 31
0.0
  0
LINE
  5
47
330
18
100
AcDbEntity
  8
0
100
AcDbLine
 10
2.195503
 20
2.510131
 30
0.0
 11
1.265836
 21
2.015575
 31
0.0
  0
LINE
  5
48
330
18
100
AcDbEntity
  8
0
100
AcDbLine
 10
2.624166
 20
5.889738
 30
0.0
 11
2.624166
 21
3.418307
 31
0.0
  0
LINE
  5
49
330
18
100
AcDbEntity
  8
0
100
AcDbLine
 10
2.24827
 20
2.472898
 30
0.0
 11
2.616821
 21
3.38069
 31
0.0
  0
LINE
  5
4A
330
18
100
AcDbEntity
  8
0
100
AcDbLine
 10
3.560159
 20
5.930479
 30
0.0
 11
3.560159
 21
3.519963
 31
0.0
  0
ARC
  5
4B
330
18
100
AcDbEntity
  8
0
100
AcDbCircle
 10
3.460159
 20
3.519963
 30
0.0
 40
0.1
100
AcDbArc
 50
320.9391470000001
 51
0.0
  0
LINE
  5
4C
330
18
100
AcDbEntity
  8
0
100
AcDbLine
 10
3.537807
 20
3.456949
 30
0.0
 11
3.134384
 21
2.959844
 31
0.0
  0
LINE
  5
4D
330
18
100
AcDbEntity
  8
0
100
AcDbLine
 10
2.574166
 20
5.944801
 30
0.0
 11
2.574166
 21
3.428104
 31
0.0
  0
LINE
  5
4E
330
18
100
AcDbEntity
  8
0
100
AcDbLine
 10
2.218323
 20
2.535402
 30
0.0
 11
2.56677
 21
3.390363
 31
0.0
  0
LINE
  5
4F
330
18
100
AcDbEntity
  8
0
100
AcDbLine
 10
4.577497
 20
2.120643
 30
0.0
 11
3.177462
 21
2.95593
 31
0.0
  0
LINE
  5
50
330
18
100
AcDbEntity
  8
0
100
AcDbLine
 10
2.237107
 20
2.443304
 30
0.0
 11
3.126651
 21
2.956181
 31
0.0
  0
LINE
  5
51
330
18
100
AcDbEntity
  8
0
100
AcDbLine
 10
3.610159
 20
5.962269999999999
 30
0.0
 11
3.610159
 21
3.519963
 31
0.0
  0
ARC
  5
52
330
18
100
AcDbEntity
  8
0
100
AcDbCircle
 10
3.460159
 20
3.519963
 30
0.0
 40
0.15
100
AcDbArc
 50
320.9391470000001
 51
0.0
  0
LINE
  5
53
330
18
100
AcDbEntity
  8
0
100
AcDbLine
 10
3.57663
 20
3.425442
 30
0.0
 11
3.216339
 21
2.981484
 31
0.0
  0
LINE
  5
54
330
18
100
AcDbEntity
  8
0
100
AcDbLine
 10
3.145329
 20
6.163158
 30
0.0
 11
2.574166
 21
5.944801
 31
0.0
  0
LINE
  5
55
330
18
100
AcDbEntity
  8
0
100
AcDbLine
 10
3.143348
 20
6.108871
 30
0.0
 11
2.643453
 21
5.91776
 31
0.0
  0
LINE
  5
56
330
18
100
AcDbEntity
  8
0
100
AcDbLine
 10
1.800486
 20
8.78618
 30
0.0
 11
1.722332
 21
8.925363000000001
 31
0.0
  0
LINE
  5
57
330
18
100
AcDbEntity
  8
0
100
AcDbLine
 10
1.722332
 20
8.925363000000001
 30
0.0
 11
2.422546
 21
8.782805999999999
 31
0.0
  0
LINE
  5
58
330
18
100
AcDbEntity
  8
0
100
AcDbLine
 10
2.422546
 20
8.782805999999999
 30
0.0
 11
2.354982
 21
8.993681000000001
 31
0.0
  0
LINE
  5
59
330
18
100
AcDbEntity
  8
0
100
AcDbLine
 10
1.722332
 20
8.925363000000001
 30
0.0
 11
1.722332
 21
8.756933999999999
 31
0.0
  0
LINE
  5
5A
330
18
100
AcDbEntity
  8
0
100
AcDbLine
 10
2.354982
 20
8.993681000000001
 30
0.0
 11
2.354982
 21
8.796561000000001
 31
0.0
  0
LINE
  5
5B
330
18
100
AcDbEntity
  8
0
100
AcDbLine
 10
5.866695
 20
2.840881
 30
0.0
 11
4.577497
 21
2.120643
 31
0.0
  0
LINE
  5
5C
330
18
100
AcDbEntity
  8
0
100
AcDbLine
 10
2.354982
 20
8.993681000000001
 30
0.0
 11
2.566747
 21
9.072925999999999
 31
0.0
  0
LINE
  5
5D
330
18
100
AcDbEntity
  8
0
100
AcDbLine
 10
0.7617010000000001
 20
7.476291000000001
 30
0.0
 11
1.283417
 21
7.201124
 31
0.0
  0
LINE
  5
5E
330
18
100
AcDbEntity
  8
0
100
AcDbLine
 10
0.7617010000000001
 20
6.920985000000001
 30
0.0
 11
0.929241
 21
6.83262
 31
0.0
  0
LINE
  5
5F
330
18
100
AcDbEntity
  8
0
100
AcDbLine
 10
0.929241
 20
7.064866
 30
0.0
 11
1.093711
 21
6.97812
 31
0.0
  0
LINE
  5
60
330
18
100
AcDbEntity
  8
0
100
AcDbLine
 10
1.093711
 20
6.745875
 30
0.0
 11
1.283417
 21
6.645819
 31
0.0
  0
LINE
  5
61
330
18
100
AcDbEntity
  8
0
100
AcDbLine
 10
2.628661
 20
5.905535
 30
0.0
 11
2.574166
 21
5.944801
 31
0.0
  0
ARC
  5
62
330
18
100
AcDbEntity
  8
0
100
AcDbCircle
 10
2.654166
 20
5.889738
 30
0.0
 40
0.03
100
AcDbArc
 50
110.921951
 51
180.0
  0
LINE
  5
63
330
18
100
AcDbEntity
  8
0
100
AcDbLine
 10
3.560159
 20
5.930479
 30
0.0
 11
3.182414
 21
6.107444999999999
 31
0.0
  0
LINE
  5
64
330
18
100
AcDbEntity
  8
0
100
AcDbLine
 10
3.610159
 20
5.962269999999999
 30
0.0
 11
3.184395
 21
6.161732
 31
0.0
  0
ARC
  5
65
330
18
100
AcDbEntity
  8
0
100
AcDbCircle
 10
3.163184
 20
6.116455
 30
0.0
 40
0.05
100
AcDbArc
 50
64.897806
 51
110.921951
  0
ARC
  5
66
330
18
100
AcDbEntity
  8
0
100
AcDbCircle
 10
3.161202
 20
6.062168
 30
0.0
 40
0.05
100
AcDbArc
 50
64.897806
 51
110.921951
  0
LINE
  5
67
330
18
100
AcDbEntity
  8
0
100
AcDbLine
 10
3.560159
 20
5.930479
 30
0.0
 11
3.610159
 21
5.962269999999999
 31
0.0
  0
ARC
  5
68
330
18
100
AcDbEntity
  8
0
100
AcDbCircle
 10
3.151844
 20
2.912992
 30
0.0
 40
0.05
100
AcDbArc
 50
59.178912
 51
120.2554
  0
LINE
  5
69
330
18
100
AcDbEntity
  8
0
100
AcDbLine
 10
2.126556
 20
2.473453
 30
0.0
 11
2.179612
 21
2.44697
 31
0.0
  0
ARC
  5
6A
330
18
100
AcDbEntity
  8
0
100
AcDbCircle
 10
2.212133
 20
2.48662
 30
0.0
 40
0.05
100
AcDbArc
 50
236.933938
 51
299.966105
  0
ARC
  5
6B
330
18
100
AcDbEntity
  8
0
100
AcDbCircle
 10
2.172021
 20
2.554273
 30
0.0
 40
0.05
100
AcDbArc
 50
298.01166
 51
337.826177
  0
ARC
  5
6C
330
18
100
AcDbEntity
  8
0
100
AcDbCircle
 10
2.201942
 20
2.491707
 30
0.0
 40
0.05
100
AcDbArc
 50
243.474093
 51
337.903502
  0
ARC
  5
6D
330
18
100
AcDbEntity
  8
0
100
AcDbCircle
 10
2.474166
 20
3.428104
 30
0.0
 40
0.1
100
AcDbArc
 50
337.826177
 51
0.0
  0
ARC
  5
6E
330
18
100
AcDbEntity
  8
0
100
AcDbCircle
 10
2.474166
 20
3.428104
 30
0.0
 40
0.15
100
AcDbArc
 50
337.826177
 51
0.0
  0
LINE
  5
6F
330
18
100
AcDbEntity
  8
0
100
AcDbLine
 10
3.1645
 20
5.987985
 30
0.0
 11
3.1645
 21
3.111635
 31
0.0
  0
LINE
  5
70
330
18
100
AcDbEntity
  8
0
100
AcDbLine
 10
3.128152
 20
5.822363
 30
0.0
 11
3.128152
 21
3.590229
 31
0.0
  0
LINE
  5
71
330
18
100
AcDbEntity
  8
0
100
AcDbLine
 10
3.152091
 20
2.962991
 30
0.0
 11
3.177515
 21
2.962991
 31
0.0
  0
ARC
  5
72
330
18
100
AcDbEntity
  8
0
100
AcDbCircle
 10
3.177515
 20
3.012991
 30
0.0
 40
0.05
100
AcDbArc
 50
270.0
 51
320.9391470000001
  0
LINE
  5
73
330
18
100
AcDbEntity
  8
0
100
AcDbLine
 10
2.742159
 20
5.360558999999999
 30
0.0
 11
2.756504
 21
5.360562
 31
0.0
  0
LINE
  5
74
330
18
100
AcDbEntity
  8
0
100
AcDbLine
 10
2.741672
 20
5.265508000000001
 30
0.0
 11
2.757551
 21
5.265555
 31
0.0
  0
LINE
  5
75
330
18
100
AcDbEntity
  8
0
100
AcDbLine
 10
2.467344
 20
6.381168
 30
0.0
 11
2.483224
 21
6.381215
 31
0.0
  0
LINE
  5
76
330
18
100
AcDbEntity
  8
0
100
AcDbLine
 10
2.467832
 20
6.476219
 30
0.0
 11
2.482176
 21
6.476222
 31
0.0
  0
LINE
  5
77
330
18
100
AcDbEntity
  8
0
100
AcDbLine
 10
2.737134
 20
4.460242
 30
0.0
 11
2.753013
 21
4.460290000000001
 31
0.0
  0
LINE
  5
78
330
18
100
AcDbEntity
  8
0
100
AcDbLine
 10
2.737621
 20
4.555293
 30
0.0
 11
2.751966
 21
4.555296
 31
0.0
  0
LINE
  5
79
330
18
100
AcDbEntity
  8
0
100
AcDbLine
 10
2.74607
 20
3.515539
 30
0.0
 11
2.761949
 21
3.515586
 31
0.0
  0
LINE
  5
7A
330
18
100
AcDbEntity
  8
0
100
AcDbLine
 10
2.746558
 20
3.61059
 30
0.0
 11
2.760902
 21
3.610593
 31
0.0
  0
LINE
  5
7B
330
18
100
AcDbEntity
  8
0
100
AcDbLine
 10
3.499877
 20
3.471618
 30
0.0
 11
3.483997
 21
3.471665
 31
0.0
  0
LINE
  5
7C
330
18
100
AcDbEntity
  8
0
100
AcDbLine
 10
3.499389
 20
3.566669
 30
0.0
 11
3.485045
 21
3.566672
 31
0.0
  0
LINE
  5
7D
330
18
100
AcDbEntity
  8
0
100
AcDbLine
 10
3.293599
 20
3.66791
 30
0.0
 11
3.27772
 21
3.667957
 31
0.0
  0
LINE
  5
7E
330
18
100
AcDbEntity
  8
0
100
AcDbLine
 10
3.293112
 20
3.762961
 30
0.0
 11
3.278767
 21
3.762964
 31
0.0
  0
LINE
  5
7F
330
18
100
AcDbEntity
  8
0
100
AcDbLine
 10
3.489933
 20
3.918352
 30
0.0
 11
3.474054
 21
3.918399
 31
0.0
  0
LINE
  5
80
330
18
100
AcDbEntity
  8
0
100
AcDbLine
 10
3.489446
 20
4.013401999999999
 30
0.0
 11
3.475101
 21
4.013405000000001
 31
0.0
  0
LINE
  5
81
330
18
100
AcDbEntity
  8
0
100
AcDbLine
 10
3.489933
 20
5.126216
 30
0.0
 11
3.474054
 21
5.126263
 31
0.0
  0
LINE
  5
82
330
18
100
AcDbEntity
  8
0
100
AcDbLine
 10
3.489446
 20
5.221267
 30
0.0
 11
3.475101
 21
5.22127
 31
0.0
  0
LINE
  5
83
330
18
100
AcDbEntity
  8
0
100
AcDbLine
 10
3.489933
 20
4.536989
 30
0.0
 11
3.474054
 21
4.537036
 31
0.0
  0
LINE
  5
84
330
18
100
AcDbEntity
  8
0
100
AcDbLine
 10
3.489446
 20
4.632039
 30
0.0
 11
3.475101
 21
4.632042
 31
0.0
  0
LINE
  5
85
330
18
100
AcDbEntity
  8
0
100
AcDbLine
 10
3.248574
 20
5.43478
 30
0.0
 11
3.232695
 21
5.434826999999999
 31
0.0
  0
LINE
  5
86
330
18
100
AcDbEntity
  8
0
100
AcDbLine
 10
3.248087
 20
5.529830000000001
 30
0.0
 11
3.233742
 21
5.529833
 31
0.0
  0
LINE
  5
87
330
18
100
AcDbEntity
  8
0
100
AcDbLine
 10
3.489933
 20
5.746537
 30
0.0
 11
3.474054
 21
5.746584
 31
0.0
  0
LINE
  5
88
330
18
100
AcDbEntity
  8
0
100
AcDbLine
 10
3.489446
 20
5.841587000000001
 30
0.0
 11
3.475101
 21
5.84159
 31
0.0
  0
ARC
  5
89
330
18
100
AcDbEntity
  8
0
100
AcDbCircle
 10
3.489835
 20
5.824401
 30
0.0
 40
0.01719
100
AcDbArc
 50
90.0
 51
91.29848299999999
  0
ARC
  5
8A
330
18
100
AcDbEntity
  8
0
100
AcDbCircle
 10
3.489835
 20
5.824401
 30
0.0
 40
0.01719
100
AcDbArc
 50
54.984124
 51
90.0
  0
ARC
  5
8B
330
18
100
AcDbEntity
  8
0
100
AcDbCircle
 10
3.479697
 20
5.809930000000001
 30
0.0
 40
0.03486
100
AcDbArc
 50
30.591985
 51
54.984124
  0
ARC
  5
8C
330
18
100
AcDbEntity
  8
0
100
AcDbCircle
 10
3.4635
 20
5.800354000000001
 30
0.0
 40
0.053676
100
AcDbArc
 50
13.760193
 51
30.591985
  0
ARC
  5
8D
330
18
100
AcDbEntity
  8
0
100
AcDbCircle
 10
3.437812
 20
5.794064
 30
0.0
 40
0.080122
100
AcDbArc
 50
0.0
 51
13.760193
  0
ARC
  5
8E
330
18
100
AcDbEntity
  8
0
100
AcDbCircle
 10
3.437812
 20
5.794064
 30
0.0
 40
0.080122
100
AcDbArc
 50
346.239807
 51
0.0
  0
ARC
  5
8F
330
18
100
AcDbEntity
  8
0
100
AcDbCircle
 10
3.4635
 20
5.787773000000001
 30
0.0
 40
0.053676
100
AcDbArc
 50
329.408015
 51
346.239807
  0
ARC
  5
90
330
18
100
AcDbEntity
  8
0
100
AcDbCircle
 10
3.479697
 20
5.778198000000001
 30
0.0
 40
0.03486
100
AcDbArc
 50
305.015876
 51
329.408015
  0
ARC
  5
91
330
18
100
AcDbEntity
  8
0
100
AcDbCircle
 10
3.489835
 20
5.763726
 30
0.0
 40
0.01719
100
AcDbArc
 50
270.0
 51
305.015876
  0
ARC
  5
92
330
18
100
AcDbEntity
  8
0
100
AcDbCircle
 10
3.489835
 20
5.763726
 30
0.0
 40
0.01719
100
AcDbArc
 50
269.333239
 51
270.0
  0
ARC
  5
93
330
18
100
AcDbEntity
  8
0
100
AcDbCircle
 10
3.475330000000001
 20
5.824401
 30
0.0
 40
0.01719
100
AcDbArc
 50
54.984124
 51
90.0
  0
ARC
  5
94
330
18
100
AcDbEntity
  8
0
100
AcDbCircle
 10
3.465192
 20
5.809930000000001
 30
0.0
 40
0.03486
100
AcDbArc
 50
30.591985
 51
54.984124
  0
ARC
  5
95
330
18
100
AcDbEntity
  8
0
100
AcDbCircle
 10
3.448994
 20
5.800354000000001
 30
0.0
 40
0.053676
100
AcDbArc
 50
13.760193
 51
30.591985
  0
ARC
  5
96
330
18
100
AcDbEntity
  8
0
100
AcDbCircle
 10
3.423307
 20
5.794064
 30
0.0
 40
0.080122
100
AcDbArc
 50
0.0
 51
13.760193
  0
ARC
  5
97
330
18
100
AcDbEntity
  8
0
100
AcDbCircle
 10
3.423307
 20
5.794064
 30
0.0
 40
0.080122
100
AcDbArc
 50
346.239807
 51
0.0
  0
ARC
  5
98
330
18
100
AcDbEntity
  8
0
100
AcDbCircle
 10
3.448994
 20
5.787773000000001
 30
0.0
 40
0.053676
100
AcDbArc
 50
329.408015
 51
346.239807
  0
ARC
  5
99
330
18
100
AcDbEntity
  8
0
100
AcDbCircle
 10
3.465192
 20
5.778198000000001
 30
0.0
 40
0.03486
100
AcDbArc
 50
305.015876
 51
329.408015
  0
ARC
  5
9A
330
18
100
AcDbEntity
  8
0
100
AcDbCircle
 10
3.475330000000001
 20
5.763726
 30
0.0
 40
0.01719
100
AcDbArc
 50
270.0
 51
305.015876
  0
ARC
  5
9B
330
18
100
AcDbEntity
  8
0
100
AcDbCircle
 10
3.475330000000001
 20
5.763726
 30
0.0
 40
0.01719
100
AcDbArc
 50
234.984124
 51
270.0
  0
ARC
  5
9C
330
18
100
AcDbEntity
  8
0
100
AcDbCircle
 10
3.485469
 20
5.778198000000001
 30
0.0
 40
0.03486
100
AcDbArc
 50
210.591985
 51
234.984124
  0
ARC
  5
9D
330
18
100
AcDbEntity
  8
0
100
AcDbCircle
 10
3.501666
 20
5.787773000000001
 30
0.0
 40
0.053676
100
AcDbArc
 50
193.760193
 51
210.591985
  0
ARC
  5
9E
330
18
100
AcDbEntity
  8
0
100
AcDbCircle
 10
3.527353
 20
5.794064
 30
0.0
 40
0.080122
100
AcDbArc
 50
180.0
 51
193.760193
  0
ARC
  5
9F
330
18
100
AcDbEntity
  8
0
100
AcDbCircle
 10
3.527353
 20
5.794064
 30
0.0
 40
0.080122
100
AcDbArc
 50
166.239807
 51
180.0
  0
ARC
  5
A0
330
18
100
AcDbEntity
  8
0
100
AcDbCircle
 10
3.501666
 20
5.800354000000001
 30
0.0
 40
0.053676
100
AcDbArc
 50
149.408015
 51
166.239807
  0
ARC
  5
A1
330
18
100
AcDbEntity
  8
0
100
AcDbCircle
 10
3.485469
 20
5.809930000000001
 30
0.0
 40
0.03486
100
AcDbArc
 50
125.015876
 51
149.408015
  0
ARC
  5
A2
330
18
100
AcDbEntity
  8
0
100
AcDbCircle
 10
3.475330000000001
 20
5.824401
 30
0.0
 40
0.01719
100
AcDbArc
 50
90.0
 51
125.015876
  0
ARC
  5
A3
330
18
100
AcDbEntity
  8
0
100
AcDbCircle
 10
3.248476
 20
5.512645
 30
0.0
 40
0.01719
100
AcDbArc
 50
90.0
 51
91.29848299999999
  0
ARC
  5
A4
330
18
100
AcDbEntity
  8
0
100
AcDbCircle
 10
3.248476
 20
5.512645
 30
0.0
 40
0.01719
100
AcDbArc
 50
54.984124
 51
90.0
  0
ARC
  5
A5
330
18
100
AcDbEntity
  8
0
100
AcDbCircle
 10
3.238338
 20
5.498174
 30
0.0
 40
0.03486
100
AcDbArc
 50
30.591985
 51
54.984124
  0
ARC
  5
A6
330
18
100
AcDbEntity
  8
0
100
AcDbCircle
 10
3.222141
 20
5.488598000000001
 30
0.0
 40
0.053676
100
AcDbArc
 50
13.760193
 51
30.591985
  0
ARC
  5
A7
330
18
100
AcDbEntity
  8
0
100
AcDbCircle
 10
3.196453
 20
5.482307
 30
0.0
 40
0.080122
100
AcDbArc
 50
0.0
 51
13.760193
  0
ARC
  5
A8
330
18
100
AcDbEntity
  8
0
100
AcDbCircle
 10
3.196453
 20
5.482307
 30
0.0
 40
0.080122
100
AcDbArc
 50
346.239807
 51
0.0
  0
ARC
  5
A9
330
18
100
AcDbEntity
  8
0
100
AcDbCircle
 10
3.222141
 20
5.476017
 30
0.0
 40
0.053676
100
AcDbArc
 50
329.408015
 51
346.239807
  0
ARC
  5
AA
330
18
100
AcDbEntity
  8
0
100
AcDbCircle
 10
3.238338
 20
5.466441000000001
 30
0.0
 40
0.03486
100
AcDbArc
 50
305.015876
 51
329.408015
  0
ARC
  5
AB
330
18
100
AcDbEntity
  8
0
100
AcDbCircle
 10
3.248476
 20
5.451969999999999
 30
0.0
 40
0.01719
100
AcDbArc
 50
270.0
 51
305.015876
  0
ARC
  5
AC
330
18
100
AcDbEntity
  8
0
100
AcDbCircle
 10
3.248476
 20
5.451969999999999
 30
0.0
 40
0.01719
100
AcDbArc
 50
269.333239
 51
270.0
  0
ARC
  5
AD
330
18
100
AcDbEntity
  8
0
100
AcDbCircle
 10
3.233971
 20
5.512645
 30
0.0
 40
0.01719
100
AcDbArc
 50
54.984124
 51
90.0
  0
ARC
  5
AE
330
18
100
AcDbEntity
  8
0
100
AcDbCircle
 10
3.223833
 20
5.498174
 30
0.0
 40
0.03486
100
AcDbArc
 50
30.591985
 51
54.984124
  0
ARC
  5
AF
330
18
100
AcDbEntity
  8
0
100
AcDbCircle
 10
3.207636
 20
5.488598000000001
 30
0.0
 40
0.053676
100
AcDbArc
 50
13.760193
 51
30.591985
  0
ARC
  5
B0
330
18
100
AcDbEntity
  8
0
100
AcDbCircle
 10
3.181948
 20
5.482307
 30
0.0
 40
0.080122
100
AcDbArc
 50
0.0
 51
13.760193
  0
ARC
  5
B1
330
18
100
AcDbEntity
  8
0
100
AcDbCircle
 10
3.181948
 20
5.482307
 30
0.0
 40
0.080122
100
AcDbArc
 50
346.239807
 51
0.0
  0
ARC
  5
B2
330
18
100
AcDbEntity
  8
0
100
AcDbCircle
 10
3.207636
 20
5.476017
 30
0.0
 40
0.053676
100
AcDbArc
 50
329.408015
 51
346.239807
  0
ARC
  5
B3
330
18
100
AcDbEntity
  8
0
100
AcDbCircle
 10
3.223833
 20
5.466441000000001
 30
0.0
 40
0.03486
100
AcDbArc
 50
305.015876
 51
329.408015
  0
ARC
  5
B4
330
18
100
AcDbEntity
  8
0
100
AcDbCircle
 10
3.233971
 20
5.451969999999999
 30
0.0
 40
0.01719
100
AcDbArc
 50
270.0
 51
305.015876
  0
ARC
  5
B5
330
18
100
AcDbEntity
  8
0
100
AcDbCircle
 10
3.233971
 20
5.451969999999999
 30
0.0
 40
0.01719
100
AcDbArc
 50
234.984124
 51
270.0
  0
ARC
  5
B6
330
18
100
AcDbEntity
  8
0
100
AcDbCircle
 10
3.24411
 20
5.466441000000001
 30
0.0
 40
0.03486
100
AcDbArc
 50
210.591985
 51
234.984124
  0
ARC
  5
B7
330
18
100
AcDbEntity
  8
0
100
AcDbCircle
 10
3.260307
 20
5.476017
 30
0.0
 40
0.053676
100
AcDbArc
 50
193.760193
 51
210.591985
  0
ARC
  5
B8
330
18
100
AcDbEntity
  8
0
100
AcDbCircle
 10
3.285995
 20
5.482307
 30
0.0
 40
0.080122
100
AcDbArc
 50
180.0
 51
193.760193
  0
ARC
  5
B9
330
18
100
AcDbEntity
  8
0
100
AcDbCircle
 10
3.285995
 20
5.482307
 30
0.0
 40
0.080122
100
AcDbArc
 50
166.239807
 51
180.0
  0
ARC
  5
BA
330
18
100
AcDbEntity
  8
0
100
AcDbCircle
 10
3.260307
 20
5.488598000000001
 30
0.0
 40
0.053676
100
AcDbArc
 50
149.408015
 51
166.239807
  0
ARC
  5
BB
330
18
100
AcDbEntity
  8
0
100
AcDbCircle
 10
3.24411
 20
5.498174
 30
0.0
 40
0.03486
100
AcDbArc
 50
125.015876
 51
149.408015
  0
ARC
  5
BC
330
18
100
AcDbEntity
  8
0
100
AcDbCircle
 10
3.233971
 20
5.512645
 30
0.0
 40
0.01719
100
AcDbArc
 50
90.0
 51
125.015876
  0
ARC
  5
BD
330
18
100
AcDbEntity
  8
0
100
AcDbCircle
 10
3.489835
 20
4.614853
 30
0.0
 40
0.01719
100
AcDbArc
 50
90.0
 51
91.29848299999999
  0
ARC
  5
BE
330
18
100
AcDbEntity
  8
0
100
AcDbCircle
 10
3.489835
 20
4.614853
 30
0.0
 40
0.01719
100
AcDbArc
 50
54.984124
 51
90.0
  0
ARC
  5
BF
330
18
100
AcDbEntity
  8
0
100
AcDbCircle
 10
3.479697
 20
4.600382
 30
0.0
 40
0.03486
100
AcDbArc
 50
30.591985
 51
54.984124
  0
ARC
  5
C0
330
18
100
AcDbEntity
  8
0
100
AcDbCircle
 10
3.4635
 20
4.590807
 30
0.0
 40
0.053676
100
AcDbArc
 50
13.760193
 51
30.591985
  0
ARC
  5
C1
330
18
100
AcDbEntity
  8
0
100
AcDbCircle
 10
3.437812
 20
4.584516000000001
 30
0.0
 40
0.080122
100
AcDbArc
 50
0.0
 51
13.760193
  0
ARC
  5
C2
330
18
100
AcDbEntity
  8
0
100
AcDbCircle
 10
3.437812
 20
4.584516000000001
 30
0.0
 40
0.080122
100
AcDbArc
 50
346.239807
 51
0.0
  0
ARC
  5
C3
330
18
100
AcDbEntity
  8
0
100
AcDbCircle
 10
3.4635
 20
4.578226
 30
0.0
 40
0.053676
100
AcDbArc
 50
329.408015
 51
346.239807
  0
ARC
  5
C4
330
18
100
AcDbEntity
  8
0
100
AcDbCircle
 10
3.479697
 20
4.56865
 30
0.0
 40
0.03486
100
AcDbArc
 50
305.015876
 51
329.408015
  0
ARC
  5
C5
330
18
100
AcDbEntity
  8
0
100
AcDbCircle
 10
3.489835
 20
4.554179
 30
0.0
 40
0.01719
100
AcDbArc
 50
270.0
 51
305.015876
  0
ARC
  5
C6
330
18
100
AcDbEntity
  8
0
100
AcDbCircle
 10
3.489835
 20
4.554179
 30
0.0
 40
0.01719
100
AcDbArc
 50
269.333239
 51
270.0
  0
ARC
  5
C7
330
18
100
AcDbEntity
  8
0
100
AcDbCircle
 10
3.475330000000001
 20
4.614853
 30
0.0
 40
0.01719
100
AcDbArc
 50
54.984124
 51
90.0
  0
ARC
  5
C8
330
18
100
AcDbEntity
  8
0
100
AcDbCircle
 10
3.465192
 20
4.600382
 30
0.0
 40
0.03486
100
AcDbArc
 50
30.591985
 51
54.984124
  0
ARC
  5
C9
330
18
100
AcDbEntity
  8
0
100
AcDbCircle
 10
3.448994
 20
4.590807
 30
0.0
 40
0.053676
100
AcDbArc
 50
13.760193
 51
30.591985
  0
ARC
  5
CA
330
18
100
AcDbEntity
  8
0
100
AcDbCircle
 10
3.423307
 20
4.584516000000001
 30
0.0
 40
0.080122
100
AcDbArc
 50
0.0
 51
13.760193
  0
ARC
  5
CB
330
18
100
AcDbEntity
  8
0
100
AcDbCircle
 10
3.423307
 20
4.584516000000001
 30
0.0
 40
0.080122
100
AcDbArc
 50
346.239807
 51
0.0
  0
ARC
  5
CC
330
18
100
AcDbEntity
  8
0
100
AcDbCircle
 10
3.448994
 20
4.578226
 30
0.0
 40
0.053676
100
AcDbArc
 50
329.408015
 51
346.239807
  0
ARC
  5
CD
330
18
100
AcDbEntity
  8
0
100
AcDbCircle
 10
3.465192
 20
4.56865
 30
0.0
 40
0.03486
100
AcDbArc
 50
305.015876
 51
329.408015
  0
ARC
  5
CE
330
18
100
AcDbEntity
  8
0
100
AcDbCircle
 10
3.475330000000001
 20
4.554179
 30
0.0
 40
0.01719
100
AcDbArc
 50
270.0
 51
305.015876
  0
ARC
  5
CF
330
18
100
AcDbEntity
  8
0
100
AcDbCircle
 10
3.475330000000001
 20
4.554179
 30
0.0
 40
0.01719
100
AcDbArc
 50
234.984124
 51
270.0
  0
ARC
  5
D0
330
18
100
AcDbEntity
  8
0
100
AcDbCircle
 10
3.485469
 20
4.56865
 30
0.0
 40
0.03486
100
AcDbArc
 50
210.591985
 51
234.984124
  0
ARC
  5
D1
330
18
100
AcDbEntity
  8
0
100
AcDbCircle
 10
3.501666
 20
4.578226
 30
0.0
 40
0.053676
100
AcDbArc
 50
193.760193
 51
210.591985
  0
ARC
  5
D2
330
18
100
AcDbEntity
  8
0
100
AcDbCircle
 10
3.527353
 20
4.584516000000001
 30
0.0
 40
0.080122
100
AcDbArc
 50
180.0
 51
193.760193
  0
ARC
  5
D3
330
18
100
AcDbEntity
  8
0
100
AcDbCircle
 10
3.527353
 20
4.584516000000001
 30
0.0
 40
0.080122
100
AcDbArc
 50
166.239807
 51
180.0
  0
ARC
  5
D4
330
18
100
AcDbEntity
  8
0
100
AcDbCircle
 10
3.501666
 20
4.590807
 30
0.0
 40
0.053676
100
AcDbArc
 50
149.408015
 51
166.239807
  0
ARC
  5
D5
330
18
100
AcDbEntity
  8
0
100
AcDbCircle
 10
3.485469
 20
4.600382
 30
0.0
 40
0.03486
100
AcDbArc
 50
125.015876
 51
149.408015
  0
ARC
  5
D6
330
18
100
AcDbEntity
  8
0
100
AcDbCircle
 10
3.475330000000001
 20
4.614853
 30
0.0
 40
0.01719
100
AcDbArc
 50
90.0
 51
125.015876
  0
ARC
  5
D7
330
18
100
AcDbEntity
  8
0
100
AcDbCircle
 10
3.489835
 20
5.204081
 30
0.0
 40
0.01719
100
AcDbArc
 50
90.0
 51
91.29848299999999
  0
ARC
  5
D8
330
18
100
AcDbEntity
  8
0
100
AcDbCircle
 10
3.489835
 20
5.204081
 30
0.0
 40
0.01719
100
AcDbArc
 50
54.984124
 51
90.0
  0
ARC
  5
D9
330
18
100
AcDbEntity
  8
0
100
AcDbCircle
 10
3.479697
 20
5.18961
 30
0.0
 40
0.03486
100
AcDbArc
 50
30.591985
 51
54.984124
  0
ARC
  5
DA
330
18
100
AcDbEntity
  8
0
100
AcDbCircle
 10
3.4635
 20
5.180034
 30
0.0
 40
0.053676
100
AcDbArc
 50
13.760193
 51
30.591985
  0
ARC
  5
DB
330
18
100
AcDbEntity
  8
0
100
AcDbCircle
 10
3.437812
 20
5.173744
 30
0.0
 40
0.080122
100
AcDbArc
 50
0.0
 51
13.760193
  0
ARC
  5
DC
330
18
100
AcDbEntity
  8
0
100
AcDbCircle
 10
3.437812
 20
5.173744
 30
0.0
 40
0.080122
100
AcDbArc
 50
346.239807
 51
0.0
  0
ARC
  5
DD
330
18
100
AcDbEntity
  8
0
100
AcDbCircle
 10
3.4635
 20
5.167453
 30
0.0
 40
0.053676
100
AcDbArc
 50
329.408015
 51
346.239807
  0
ARC
  5
DE
330
18
100
AcDbEntity
  8
0
100
AcDbCircle
 10
3.479697
 20
5.157877
 30
0.0
 40
0.03486
100
AcDbArc
 50
305.015876
 51
329.408015
  0
ARC
  5
DF
330
18
100
AcDbEntity
  8
0
100
AcDbCircle
 10
3.489835
 20
5.143406
 30
0.0
 40
0.01719
100
AcDbArc
 50
270.0
 51
305.015876
  0
ARC
  5
E0
330
18
100
AcDbEntity
  8
0
100
AcDbCircle
 10
3.489835
 20
5.143406
 30
0.0
 40
0.01719
100
AcDbArc
 50
269.333239
 51
270.0
  0
ARC
  5
E1
330
18
100
AcDbEntity
  8
0
100
AcDbCircle
 10
3.475330000000001
 20
5.204081
 30
0.0
 40
0.01719
100
AcDbArc
 50
54.984124
 51
90.0
  0
ARC
  5
E2
330
18
100
AcDbEntity
  8
0
100
AcDbCircle
 10
3.465192
 20
5.18961
 30
0.0
 40
0.03486
100
AcDbArc
 50
30.591985
 51
54.984124
  0
ARC
  5
E3
330
18
100
AcDbEntity
  8
0
100
AcDbCircle
 10
3.448994
 20
5.180034
 30
0.0
 40
0.053676
100
AcDbArc
 50
13.760193
 51
30.591985
  0
ARC
  5
E4
330
18
100
AcDbEntity
  8
0
100
AcDbCircle
 10
3.423307
 20
5.173744
 30
0.0
 40
0.080122
100
AcDbArc
 50
0.0
 51
13.760193
  0
ARC
  5
E5
330
18
100
AcDbEntity
  8
0
100
AcDbCircle
 10
3.423307
 20
5.173744
 30
0.0
 40
0.080122
100
AcDbArc
 50
346.239807
 51
0.0
  0
ARC
  5
E6
330
18
100
AcDbEntity
  8
0
100
AcDbCircle
 10
3.448994
 20
5.167453
 30
0.0
 40
0.053676
100
AcDbArc
 50
329.408015
 51
346.239807
  0
ARC
  5
E7
330
18
100
AcDbEntity
  8
0
100
AcDbCircle
 10
3.465192
 20
5.157877
 30
0.0
 40
0.03486
100
AcDbArc
 50
305.015876
 51
329.408015
  0
ARC
  5
E8
330
18
100
AcDbEntity
  8
0
100
AcDbCircle
 10
3.475330000000001
 20
5.143406
 30
0.0
 40
0.01719
100
AcDbArc
 50
270.0
 51
305.015876
  0
ARC
  5
E9
330
18
100
AcDbEntity
  8
0
100
AcDbCircle
 10
3.475330000000001
 20
5.143406
 30
0.0
 40
0.01719
100
AcDbArc
 50
234.984124
 51
270.0
  0
ARC
  5
EA
330
18
100
AcDbEntity
  8
0
100
AcDbCircle
 10
3.485469
 20
5.157877
 30
0.0
 40
0.03486
100
AcDbArc
 50
210.591985
 51
234.984124
  0
ARC
  5
EB
330
18
100
AcDbEntity
  8
0
100
AcDbCircle
 10
3.501666
 20
5.167453
 30
0.0
 40
0.053676
100
AcDbArc
 50
193.760193
 51
210.591985
  0
ARC
  5
EC
330
18
100
AcDbEntity
  8
0
100
AcDbCircle
 10
3.527353
 20
5.173744
 30
0.0
 40
0.080122
100
AcDbArc
 50
180.0
 51
193.760193
  0
ARC
  5
ED
330
18
100
AcDbEntity
  8
0
100
AcDbCircle
 10
3.527353
 20
5.173744
 30
0.0
 40
0.080122
100
AcDbArc
 50
166.239807
 51
180.0
  0
ARC
  5
EE
330
18
100
AcDbEntity
  8
0
100
AcDbCircle
 10
3.501666
 20
5.180034
 30
0.0
 40
0.053676
100
AcDbArc
 50
149.408015
 51
166.239807
  0
ARC
  5
EF
330
18
100
AcDbEntity
  8
0
100
AcDbCircle
 10
3.485469
 20
5.18961
 30
0.0
 40
0.03486
100
AcDbArc
 50
125.015876
 51
149.408015
  0
ARC
  5
F0
330
18
100
AcDbEntity
  8
0
100
AcDbCircle
 10
3.475330000000001
 20
5.204081
 30
0.0
 40
0.01719
100
AcDbArc
 50
90.0
 51
125.015876
  0
ARC
  5
F1
330
18
100
AcDbEntity
  8
0
100
AcDbCircle
 10
3.489835
 20
3.996216
 30
0.0
 40
0.01719
100
AcDbArc
 50
90.0
 51
91.29848299999999
  0
ARC
  5
F2
330
18
100
AcDbEntity
  8
0
100
AcDbCircle
 10
3.489835
 20
3.996216
 30
0.0
 40
0.01719
100
AcDbArc
 50
54.984124
 51
90.0
  0
ARC
  5
F3
330
18
100
AcDbEntity
  8
0
100
AcDbCircle
 10
3.479697
 20
3.981745
 30
0.0
 40
0.03486
100
AcDbArc
 50
30.591985
 51
54.984124
  0
ARC
  5
F4
330
18
100
AcDbEntity
  8
0
100
AcDbCircle
 10
3.4635
 20
3.972169
 30
0.0
 40
0.053676
100
AcDbArc
 50
13.760193
 51
30.591985
  0
ARC
  5
F5
330
18
100
AcDbEntity
  8
0
100
AcDbCircle
 10
3.437812
 20
3.965879
 30
0.0
 40
0.080122
100
AcDbArc
 50
0.0
 51
13.760193
  0
ARC
  5
F6
330
18
100
AcDbEntity
  8
0
100
AcDbCircle
 10
3.437812
 20
3.965879
 30
0.0
 40
0.080122
100
AcDbArc
 50
346.239807
 51
0.0
  0
ARC
  5
F7
330
18
100
AcDbEntity
  8
0
100
AcDbCircle
 10
3.4635
 20
3.959588
 30
0.0
 40
0.053676
100
AcDbArc
 50
329.408015
 51
346.239807
  0
ARC
  5
F8
330
18
100
AcDbEntity
  8
0
100
AcDbCircle
 10
3.479697
 20
3.950013
 30
0.0
 40
0.03486
100
AcDbArc
 50
305.015876
 51
329.408015
  0
ARC
  5
F9
330
18
100
AcDbEntity
  8
0
100
AcDbCircle
 10
3.489835
 20
3.935542
 30
0.0
 40
0.01719
100
AcDbArc
 50
270.0
 51
305.015876
  0
ARC
  5
FA
330
18
100
AcDbEntity
  8
0
100
AcDbCircle
 10
3.489835
 20
3.935542
 30
0.0
 40
0.01719
100
AcDbArc
 50
269.333239
 51
270.0
  0
ARC
  5
FB
330
18
100
AcDbEntity
  8
0
100
AcDbCircle
 10
3.475330000000001
 20
3.996216
 30
0.0
 40
0.01719
100
AcDbArc
 50
54.984124
 51
90.0
  0
ARC
  5
FC
330
18
100
AcDbEntity
  8
0
100
AcDbCircle
 10
3.465192
 20
3.981745
 30
0.0
 40
0.03486
100
AcDbArc
 50
30.591985
 51
54.984124
  0
ARC
  5
FD
330
18
100
AcDbEntity
  8
0
100
AcDbCircle
 10
3.448994
 20
3.972169
 30
0.0
 40
0.053676
100
AcDbArc
 50
13.760193
 51
30.591985
  0
ARC
  5
FE
330
18
100
AcDbEntity
  8
0
100
AcDbCircle
 10
3.423307
 20
3.965879
 30
0.0
 40
0.080122
100
AcDbArc
 50
0.0
 51
13.760193
  0
ARC
  5
FF
330
18
100
AcDbEntity
  8
0
100
AcDbCircle
 10
3.423307
 20
3.965879
 30
0.0
 40
0.080122
100
AcDbArc
 50
346.239807
 51
0.0
  0
ARC
  5
100
330
18
100
AcDbEntity
  8
0
100
AcDbCircle
 10
3.448994
 20
3.959588
 30
0.0
 40
0.053676
100
AcDbArc
 50
329.408015
 51
346.239807
  0
ARC
  5
101
330
18
100
AcDbEntity
  8
0
100
AcDbCircle
 10
3.465192
 20
3.950013
 30
0.0
 40
0.03486
100
AcDbArc
 50
305.015876
 51
329.408015
  0
ARC
  5
102
330
18
100
AcDbEntity
  8
0
100
AcDbCircle
 10
3.475330000000001
 20
3.935542
 30
0.0
 40
0.01719
100
AcDbArc
 50
270.0
 51
305.015876
  0
ARC
  5
103
330
18
100
AcDbEntity
  8
0
100
AcDbCircle
 10
3.475330000000001
 20
3.935542
 30
0.0
 40
0.01719
100
AcDbArc
 50
234.984124
 51
270.0
  0
ARC
  5
104
330
18
100
AcDbEntity
  8
0
100
AcDbCircle
 10
3.485469
 20
3.950013
 30
0.0
 40
0.03486
100
AcDbArc
 50
210.591985
 51
234.984124
  0
ARC
  5
105
330
18
100
AcDbEntity
  8
0
100
AcDbCircle
 10
3.501666
 20
3.959588
 30
0.0
 40
0.053676
100
AcDbArc
 50
193.760193
 51
210.591985
  0
ARC
  5
106
330
18
100
AcDbEntity
  8
0
100
AcDbCircle
 10
3.527353
 20
3.965879
 30
0.0
 40
0.080122
100
AcDbArc
 50
180.0
 51
193.760193
  0
ARC
  5
107
330
18
100
AcDbEntity
  8
0
100
AcDbCircle
 10
3.527353
 20
3.965879
 30
0.0
 40
0.080122
100
AcDbArc
 50
166.239807
 51
180.0
  0
ARC
  5
108
330
18
100
AcDbEntity
  8
0
100
AcDbCircle
 10
3.501666
 20
3.972169
 30
0.0
 40
0.053676
100
AcDbArc
 50
149.408015
 51
166.239807
  0
ARC
  5
109
330
18
100
AcDbEntity
  8
0
100
AcDbCircle
 10
3.485469
 20
3.981745
 30
0.0
 40
0.03486
100
AcDbArc
 50
125.015876
 51
149.408015
  0
ARC
  5
10A
330
18
100
AcDbEntity
  8
0
100
AcDbCircle
 10
3.475330000000001
 20
3.996216
 30
0.0
 40
0.01719
100
AcDbArc
 50
90.0
 51
125.015876
  0
ARC
  5
10B
330
18
100
AcDbEntity
  8
0
100
AcDbCircle
 10
3.293501
 20
3.745775
 30
0.0
 40
0.01719
100
AcDbArc
 50
90.0
 51
91.29848299999999
  0
ARC
  5
10C
330
18
100
AcDbEntity
  8
0
100
AcDbCircle
 10
3.293501
 20
3.745775
 30
0.0
 40
0.01719
100
AcDbArc
 50
54.984124
 51
90.0
  0
ARC
  5
10D
330
18
100
AcDbEntity
  8
0
100
AcDbCircle
 10
3.283362
 20
3.731304
 30
0.0
 40
0.03486
100
AcDbArc
 50
30.591985
 51
54.984124
  0
ARC
  5
10E
330
18
100
AcDbEntity
  8
0
100
AcDbCircle
 10
3.267165
 20
3.721728
 30
0.0
 40
0.053676
100
AcDbArc
 50
13.760193
 51
30.591985
  0
ARC
  5
10F
330
18
100
AcDbEntity
  8
0
100
AcDbCircle
 10
3.241478
 20
3.715437
 30
0.0
 40
0.080122
100
AcDbArc
 50
0.0
 51
13.760193
  0
ARC
  5
110
330
18
100
AcDbEntity
  8
0
100
AcDbCircle
 10
3.241478
 20
3.715437
 30
0.0
 40
0.080122
100
AcDbArc
 50
346.239807
 51
0.0
  0
ARC
  5
111
330
18
100
AcDbEntity
  8
0
100
AcDbCircle
 10
3.267165
 20
3.709147
 30
0.0
 40
0.053676
100
AcDbArc
 50
329.408015
 51
346.239807
  0
ARC
  5
112
330
18
100
AcDbEntity
  8
0
100
AcDbCircle
 10
3.283362
 20
3.699571
 30
0.0
 40
0.03486
100
AcDbArc
 50
305.015876
 51
329.408015
  0
ARC
  5
113
330
18
100
AcDbEntity
  8
0
100
AcDbCircle
 10
3.293501
 20
3.6851
 30
0.0
 40
0.01719
100
AcDbArc
 50
270.0
 51
305.015876
  0
ARC
  5
114
330
18
100
AcDbEntity
  8
0
100
AcDbCircle
 10
3.293501
 20
3.6851
 30
0.0
 40
0.01719
100
AcDbArc
 50
269.333239
 51
270.0
  0
ARC
  5
115
330
18
100
AcDbEntity
  8
0
100
AcDbCircle
 10
3.278996
 20
3.745775
 30
0.0
 40
0.01719
100
AcDbArc
 50
54.984124
 51
90.0
  0
ARC
  5
116
330
18
100
AcDbEntity
  8
0
100
AcDbCircle
 10
3.268857
 20
3.731304
 30
0.0
 40
0.03486
100
AcDbArc
 50
30.591985
 51
54.984124
  0
ARC
  5
117
330
18
100
AcDbEntity
  8
0
100
AcDbCircle
 10
3.25266
 20
3.721728
 30
0.0
 40
0.053676
100
AcDbArc
 50
13.760193
 51
30.591985
  0
ARC
  5
118
330
18
100
AcDbEntity
  8
0
100
AcDbCircle
 10
3.226973
 20
3.715437
 30
0.0
 40
0.080122
100
AcDbArc
 50
0.0
 51
13.760193
  0
ARC
  5
119
330
18
100
AcDbEntity
  8
0
100
AcDbCircle
 10
3.226973
 20
3.715437
 30
0.0
 40
0.080122
100
AcDbArc
 50
346.239807
 51
0.0
  0
ARC
  5
11A
330
18
100
AcDbEntity
  8
0
100
AcDbCircle
 10
3.25266
 20
3.709147
 30
0.0
 40
0.053676
100
AcDbArc
 50
329.408015
 51
346.239807
  0
ARC
  5
11B
330
18
100
AcDbEntity
  8
0
100
AcDbCircle
 10
3.268857
 20
3.699571
 30
0.0
 40
0.03486
100
AcDbArc
 50
305.015876
 51
329.408015
  0
ARC
  5
11C
330
18
100
AcDbEntity
  8
0
100
AcDbCircle
 10
3.278996
 20
3.6851
 30
0.0
 40
0.01719
100
AcDbArc
 50
270.0
 51
305.015876
  0
ARC
  5
11D
330
18
100
AcDbEntity
  8
0
100
AcDbCircle
 10
3.278996
 20
3.6851
 30
0.0
 40
0.01719
100
AcDbArc
 50
234.984124
 51
270.0
  0
ARC
  5
11E
330
18
100
AcDbEntity
  8
0
100
AcDbCircle
 10
3.289135
 20
3.699571
 30
0.0
 40
0.03486
100
AcDbArc
 50
210.591985
 51
234.984124
  0
ARC
  5
11F
330
18
100
AcDbEntity
  8
0
100
AcDbCircle
 10
3.305332
 20
3.709147
 30
0.0
 40
0.053676
100
AcDbArc
 50
193.760193
 51
210.591985
  0
ARC
  5
120
330
18
100
AcDbEntity
  8
0
100
AcDbCircle
 10
3.331019
 20
3.715437
 30
0.0
 40
0.080122
100
AcDbArc
 50
180.0
 51
193.760193
  0
ARC
  5
121
330
18
100
AcDbEntity
  8
0
100
AcDbCircle
 10
3.331019
 20
3.715437
 30
0.0
 40
0.080122
100
AcDbArc
 50
166.239807
 51
180.0
  0
ARC
  5
122
330
18
100
AcDbEntity
  8
0
100
AcDbCircle
 10
3.305332
 20
3.721728
 30
0.0
 40
0.053676
100
AcDbArc
 50
149.408015
 51
166.239807
  0
ARC
  5
123
330
18
100
AcDbEntity
  8
0
100
AcDbCircle
 10
3.289135
 20
3.731304
 30
0.0
 40
0.03486
100
AcDbArc
 50
125.015876
 51
149.408015
  0
ARC
  5
124
330
18
100
AcDbEntity
  8
0
100
AcDbCircle
 10
3.278996
 20
3.745775
 30
0.0
 40
0.01719
100
AcDbArc
 50
90.0
 51
125.015876
  0
ARC
  5
125
330
18
100
AcDbEntity
  8
0
100
AcDbCircle
 10
3.499779
 20
3.549483
 30
0.0
 40
0.01719
100
AcDbArc
 50
90.0
 51
91.29848299999999
  0
ARC
  5
126
330
18
100
AcDbEntity
  8
0
100
AcDbCircle
 10
3.499779
 20
3.549483
 30
0.0
 40
0.01719
100
AcDbArc
 50
54.984124
 51
90.0
  0
ARC
  5
127
330
18
100
AcDbEntity
  8
0
100
AcDbCircle
 10
3.48964
 20
3.535012
 30
0.0
 40
0.03486
100
AcDbArc
 50
30.591985
 51
54.984124
  0
ARC
  5
128
330
18
100
AcDbEntity
  8
0
100
AcDbCircle
 10
3.473443
 20
3.525436
 30
0.0
 40
0.053676
100
AcDbArc
 50
13.760193
 51
30.591985
  0
ARC
  5
129
330
18
100
AcDbEntity
  8
0
100
AcDbCircle
 10
3.447755
 20
3.519146
 30
0.0
 40
0.080122
100
AcDbArc
 50
0.0
 51
13.760193
  0
ARC
  5
12A
330
18
100
AcDbEntity
  8
0
100
AcDbCircle
 10
3.447755
 20
3.519146
 30
0.0
 40
0.080122
100
AcDbArc
 50
346.239807
 51
0.0
  0
ARC
  5
12B
330
18
100
AcDbEntity
  8
0
100
AcDbCircle
 10
3.473443
 20
3.512855000000001
 30
0.0
 40
0.053676
100
AcDbArc
 50
329.408015
 51
346.239807
  0
ARC
  5
12C
330
18
100
AcDbEntity
  8
0
100
AcDbCircle
 10
3.48964
 20
3.503279
 30
0.0
 40
0.03486
100
AcDbArc
 50
305.015876
 51
329.408015
  0
ARC
  5
12D
330
18
100
AcDbEntity
  8
0
100
AcDbCircle
 10
3.499779
 20
3.488808
 30
0.0
 40
0.01719
100
AcDbArc
 50
270.0
 51
305.015876
  0
ARC
  5
12E
330
18
100
AcDbEntity
  8
0
100
AcDbCircle
 10
3.499779
 20
3.488808
 30
0.0
 40
0.01719
100
AcDbArc
 50
269.333239
 51
270.0
  0
ARC
  5
12F
330
18
100
AcDbEntity
  8
0
100
AcDbCircle
 10
3.485274
 20
3.549483
 30
0.0
 40
0.01719
100
AcDbArc
 50
54.984124
 51
90.0
  0
ARC
  5
130
330
18
100
AcDbEntity
  8
0
100
AcDbCircle
 10
3.475135
 20
3.535012
 30
0.0
 40
0.03486
100
AcDbArc
 50
30.591985
 51
54.984124
  0
ARC
  5
131
330
18
100
AcDbEntity
  8
0
100
AcDbCircle
 10
3.458938
 20
3.525436
 30
0.0
 40
0.053676
100
AcDbArc
 50
13.760193
 51
30.591985
  0
ARC
  5
132
330
18
100
AcDbEntity
  8
0
100
AcDbCircle
 10
3.43325
 20
3.519146
 30
0.0
 40
0.080122
100
AcDbArc
 50
0.0
 51
13.760193
  0
ARC
  5
133
330
18
100
AcDbEntity
  8
0
100
AcDbCircle
 10
3.43325
 20
3.519146
 30
0.0
 40
0.080122
100
AcDbArc
 50
346.239807
 51
0.0
  0
ARC
  5
134
330
18
100
AcDbEntity
  8
0
100
AcDbCircle
 10
3.458938
 20
3.512855000000001
 30
0.0
 40
0.053676
100
AcDbArc
 50
329.408015
 51
346.239807
  0
ARC
  5
135
330
18
100
AcDbEntity
  8
0
100
AcDbCircle
 10
3.475135
 20
3.503279
 30
0.0
 40
0.03486
100
AcDbArc
 50
305.015876
 51
329.408015
  0
ARC
  5
136
330
18
100
AcDbEntity
  8
0
100
AcDbCircle
 10
3.485274
 20
3.488808
 30
0.0
 40
0.01719
100
AcDbArc
 50
270.0
 51
305.015876
  0
ARC
  5
137
330
18
100
AcDbEntity
  8
0
100
AcDbCircle
 10
3.485274
 20
3.488808
 30
0.0
 40
0.01719
100
AcDbArc
 50
234.984124
 51
270.0
  0
ARC
  5
138
330
18
100
AcDbEntity
  8
0
100
AcDbCircle
 10
3.495412
 20
3.503279
 30
0.0
 40
0.03486
100
AcDbArc
 50
210.591985
 51
234.984124
  0
ARC
  5
139
330
18
100
AcDbEntity
  8
0
100
AcDbCircle
 10
3.511609
 20
3.512855000000001
 30
0.0
 40
0.053676
100
AcDbArc
 50
193.760193
 51
210.591985
  0
ARC
  5
13A
330
18
100
AcDbEntity
  8
0
100
AcDbCircle
 10
3.537297
 20
3.519146
 30
0.0
 40
0.080122
100
AcDbArc
 50
180.0
 51
193.760193
  0
ARC
  5
13B
330
18
100
AcDbEntity
  8
0
100
AcDbCircle
 10
3.537297
 20
3.519146
 30
0.0
 40
0.080122
100
AcDbArc
 50
166.239807
 51
180.0
  0
ARC
  5
13C
330
18
100
AcDbEntity
  8
0
100
AcDbCircle
 10
3.511609
 20
3.525436
 30
0.0
 40
0.053676
100
AcDbArc
 50
149.408015
 51
166.239807
  0
ARC
  5
13D
330
18
100
AcDbEntity
  8
0
100
AcDbCircle
 10
3.495412
 20
3.535012
 30
0.0
 40
0.03486
100
AcDbArc
 50
125.015876
 51
149.408015
  0
ARC
  5
13E
330
18
100
AcDbEntity
  8
0
100
AcDbCircle
 10
3.485274
 20
3.549483
 30
0.0
 40
0.01719
100
AcDbArc
 50
90.0
 51
125.015876
  0
ARC
  5
13F
330
18
100
AcDbEntity
  8
0
100
AcDbCircle
 10
2.746168
 20
3.593404
 30
0.0
 40
0.01719
100
AcDbArc
 50
88.70151700000001
 51
90.0
  0
ARC
  5
140
330
18
100
AcDbEntity
  8
0
100
AcDbCircle
 10
2.760673
 20
3.593404
 30
0.0
 40
0.01719
100
AcDbArc
 50
90.0
 51
125.015876
  0
ARC
  5
141
330
18
100
AcDbEntity
  8
0
100
AcDbCircle
 10
2.770812
 20
3.578933
 30
0.0
 40
0.03486
100
AcDbArc
 50
125.015876
 51
149.408015
  0
ARC
  5
142
330
18
100
AcDbEntity
  8
0
100
AcDbCircle
 10
2.787009
 20
3.569357
 30
0.0
 40
0.053676
100
AcDbArc
 50
149.408015
 51
166.239807
  0
ARC
  5
143
330
18
100
AcDbEntity
  8
0
100
AcDbCircle
 10
2.812696
 20
3.563067
 30
0.0
 40
0.080122
100
AcDbArc
 50
166.239807
 51
180.0
  0
ARC
  5
144
330
18
100
AcDbEntity
  8
0
100
AcDbCircle
 10
2.812696
 20
3.563067
 30
0.0
 40
0.080122
100
AcDbArc
 50
180.0
 51
193.760193
  0
ARC
  5
145
330
18
100
AcDbEntity
  8
0
100
AcDbCircle
 10
2.787009
 20
3.556776
 30
0.0
 40
0.053676
100
AcDbArc
 50
193.760193
 51
210.591985
  0
ARC
  5
146
330
18
100
AcDbEntity
  8
0
100
AcDbCircle
 10
2.770812
 20
3.5472
 30
0.0
 40
0.03486
100
AcDbArc
 50
210.591985
 51
234.984124
  0
ARC
  5
147
330
18
100
AcDbEntity
  8
0
100
AcDbCircle
 10
2.760673
 20
3.532729
 30
0.0
 40
0.01719
100
AcDbArc
 50
234.984124
 51
270.0
  0
ARC
  5
148
330
18
100
AcDbEntity
  8
0
100
AcDbCircle
 10
2.760673
 20
3.532729
 30
0.0
 40
0.01719
100
AcDbArc
 50
270.0
 51
305.015876
  0
ARC
  5
149
330
18
100
AcDbEntity
  8
0
100
AcDbCircle
 10
2.750535
 20
3.5472
 30
0.0
 40
0.03486
100
AcDbArc
 50
305.015876
 51
329.408015
  0
ARC
  5
14A
330
18
100
AcDbEntity
  8
0
100
AcDbCircle
 10
2.734337
 20
3.556776
 30
0.0
 40
0.053676
100
AcDbArc
 50
329.408015
 51
346.239807
  0
ARC
  5
14B
330
18
100
AcDbEntity
  8
0
100
AcDbCircle
 10
2.70865
 20
3.563067
 30
0.0
 40
0.080122
100
AcDbArc
 50
346.239807
 51
0.0
  0
ARC
  5
14C
330
18
100
AcDbEntity
  8
0
100
AcDbCircle
 10
2.70865
 20
3.563067
 30
0.0
 40
0.080122
100
AcDbArc
 50
0.0
 51
13.760193
  0
ARC
  5
14D
330
18
100
AcDbEntity
  8
0
100
AcDbCircle
 10
2.734337
 20
3.569357
 30
0.0
 40
0.053676
100
AcDbArc
 50
13.760193
 51
30.591985
  0
ARC
  5
14E
330
18
100
AcDbEntity
  8
0
100
AcDbCircle
 10
2.750535
 20
3.578933
 30
0.0
 40
0.03486
100
AcDbArc
 50
30.591985
 51
54.984124
  0
ARC
  5
14F
330
18
100
AcDbEntity
  8
0
100
AcDbCircle
 10
2.760673
 20
3.593404
 30
0.0
 40
0.01719
100
AcDbArc
 50
54.984124
 51
90.0
  0
ARC
  5
150
330
18
100
AcDbEntity
  8
0
100
AcDbCircle
 10
2.746168
 20
3.593404
 30
0.0
 40
0.01719
100
AcDbArc
 50
90.0
 51
125.015876
  0
ARC
  5
151
330
18
100
AcDbEntity
  8
0
100
AcDbCircle
 10
2.756307
 20
3.578933
 30
0.0
 40
0.03486
100
AcDbArc
 50
125.015876
 51
149.408015
  0
ARC
  5
152
330
18
100
AcDbEntity
  8
0
100
AcDbCircle
 10
2.772504
 20
3.569357
 30
0.0
 40
0.053676
100
AcDbArc
 50
149.408015
 51
166.239807
  0
ARC
  5
153
330
18
100
AcDbEntity
  8
0
100
AcDbCircle
 10
2.798191
 20
3.563067
 30
0.0
 40
0.080122
100
AcDbArc
 50
166.239807
 51
180.0
  0
ARC
  5
154
330
18
100
AcDbEntity
  8
0
100
AcDbCircle
 10
2.798191
 20
3.563067
 30
0.0
 40
0.080122
100
AcDbArc
 50
180.0
 51
193.760193
  0
ARC
  5
155
330
18
100
AcDbEntity
  8
0
100
AcDbCircle
 10
2.772504
 20
3.556776
 30
0.0
 40
0.053676
100
AcDbArc
 50
193.760193
 51
210.591985
  0
ARC
  5
156
330
18
100
AcDbEntity
  8
0
100
AcDbCircle
 10
2.756307
 20
3.5472
 30
0.0
 40
0.03486
100
AcDbArc
 50
210.591985
 51
234.984124
  0
ARC
  5
157
330
18
100
AcDbEntity
  8
0
100
AcDbCircle
 10
2.746168
 20
3.532729
 30
0.0
 40
0.01719
100
AcDbArc
 50
234.984124
 51
270.0
  0
ARC
  5
158
330
18
100
AcDbEntity
  8
0
100
AcDbCircle
 10
2.746168
 20
3.532729
 30
0.0
 40
0.01719
100
AcDbArc
 50
270.0
 51
270.666761
  0
ARC
  5
159
330
18
100
AcDbEntity
  8
0
100
AcDbCircle
 10
2.737232
 20
4.538107
 30
0.0
 40
0.01719
100
AcDbArc
 50
88.70151700000001
 51
90.0
  0
ARC
  5
15A
330
18
100
AcDbEntity
  8
0
100
AcDbCircle
 10
2.751737
 20
4.538107
 30
0.0
 40
0.01719
100
AcDbArc
 50
90.0
 51
125.015876
  0
ARC
  5
15B
330
18
100
AcDbEntity
  8
0
100
AcDbCircle
 10
2.761875
 20
4.523636
 30
0.0
 40
0.03486
100
AcDbArc
 50
125.015876
 51
149.408015
  0
ARC
  5
15C
330
18
100
AcDbEntity
  8
0
100
AcDbCircle
 10
2.778072
 20
4.51406
 30
0.0
 40
0.053676
100
AcDbArc
 50
149.408015
 51
166.239807
  0
ARC
  5
15D
330
18
100
AcDbEntity
  8
0
100
AcDbCircle
 10
2.80376
 20
4.50777
 30
0.0
 40
0.080122
100
AcDbArc
 50
166.239807
 51
180.0
  0
ARC
  5
15E
330
18
100
AcDbEntity
  8
0
100
AcDbCircle
 10
2.80376
 20
4.50777
 30
0.0
 40
0.080122
100
AcDbArc
 50
180.0
 51
193.760193
  0
ARC
  5
15F
330
18
100
AcDbEntity
  8
0
100
AcDbCircle
 10
2.778072
 20
4.501479
 30
0.0
 40
0.053676
100
AcDbArc
 50
193.760193
 51
210.591985
  0
ARC
  5
160
330
18
100
AcDbEntity
  8
0
100
AcDbCircle
 10
2.761875
 20
4.491903
 30
0.0
 40
0.03486
100
AcDbArc
 50
210.591985
 51
234.984124
  0
ARC
  5
161
330
18
100
AcDbEntity
  8
0
100
AcDbCircle
 10
2.751737
 20
4.477432
 30
0.0
 40
0.01719
100
AcDbArc
 50
234.984124
 51
270.0
  0
ARC
  5
162
330
18
100
AcDbEntity
  8
0
100
AcDbCircle
 10
2.751737
 20
4.477432
 30
0.0
 40
0.01719
100
AcDbArc
 50
270.0
 51
305.015876
  0
ARC
  5
163
330
18
100
AcDbEntity
  8
0
100
AcDbCircle
 10
2.741598
 20
4.491903
 30
0.0
 40
0.03486
100
AcDbArc
 50
305.015876
 51
329.408015
  0
ARC
  5
164
330
18
100
AcDbEntity
  8
0
100
AcDbCircle
 10
2.725401
 20
4.501479
 30
0.0
 40
0.053676
100
AcDbArc
 50
329.408015
 51
346.239807
  0
ARC
  5
165
330
18
100
AcDbEntity
  8
0
100
AcDbCircle
 10
2.699714
 20
4.50777
 30
0.0
 40
0.080122
100
AcDbArc
 50
346.239807
 51
0.0
  0
ARC
  5
166
330
18
100
AcDbEntity
  8
0
100
AcDbCircle
 10
2.699714
 20
4.50777
 30
0.0
 40
0.080122
100
AcDbArc
 50
0.0
 51
13.760193
  0
ARC
  5
167
330
18
100
AcDbEntity
  8
0
100
AcDbCircle
 10
2.725401
 20
4.51406
 30
0.0
 40
0.053676
100
AcDbArc
 50
13.760193
 51
30.591985
  0
ARC
  5
168
330
18
100
AcDbEntity
  8
0
100
AcDbCircle
 10
2.741598
 20
4.523636
 30
0.0
 40
0.03486
100
AcDbArc
 50
30.591985
 51
54.984124
  0
ARC
  5
169
330
18
100
AcDbEntity
  8
0
100
AcDbCircle
 10
2.751737
 20
4.538107
 30
0.0
 40
0.01719
100
AcDbArc
 50
54.984124
 51
90.0
  0
ARC
  5
16A
330
18
100
AcDbEntity
  8
0
100
AcDbCircle
 10
2.737232
 20
4.538107
 30
0.0
 40
0.01719
100
AcDbArc
 50
90.0
 51
125.015876
  0
ARC
  5
16B
330
18
100
AcDbEntity
  8
0
100
AcDbCircle
 10
2.74737
 20
4.523636
 30
0.0
 40
0.03486
100
AcDbArc
 50
125.015876
 51
149.408015
  0
ARC
  5
16C
330
18
100
AcDbEntity
  8
0
100
AcDbCircle
 10
2.763567
 20
4.51406
 30
0.0
 40
0.053676
100
AcDbArc
 50
149.408015
 51
166.239807
  0
ARC
  5
16D
330
18
100
AcDbEntity
  8
0
100
AcDbCircle
 10
2.789255
 20
4.50777
 30
0.0
 40
0.080122
100
AcDbArc
 50
166.239807
 51
180.0
  0
ARC
  5
16E
330
18
100
AcDbEntity
  8
0
100
AcDbCircle
 10
2.789255
 20
4.50777
 30
0.0
 40
0.080122
100
AcDbArc
 50
180.0
 51
193.760193
  0
ARC
  5
16F
330
18
100
AcDbEntity
  8
0
100
AcDbCircle
 10
2.763567
 20
4.501479
 30
0.0
 40
0.053676
100
AcDbArc
 50
193.760193
 51
210.591985
  0
ARC
  5
170
330
18
100
AcDbEntity
  8
0
100
AcDbCircle
 10
2.74737
 20
4.491903
 30
0.0
 40
0.03486
100
AcDbArc
 50
210.591985
 51
234.984124
  0
ARC
  5
171
330
18
100
AcDbEntity
  8
0
100
AcDbCircle
 10
2.737232
 20
4.477432
 30
0.0
 40
0.01719
100
AcDbArc
 50
234.984124
 51
270.0
  0
ARC
  5
172
330
18
100
AcDbEntity
  8
0
100
AcDbCircle
 10
2.737232
 20
4.477432
 30
0.0
 40
0.01719
100
AcDbArc
 50
270.0
 51
270.666761
  0
ARC
  5
173
330
18
100
AcDbEntity
  8
0
100
AcDbCircle
 10
2.467442
 20
6.459033
 30
0.0
 40
0.01719
100
AcDbArc
 50
88.70151700000001
 51
90.0
  0
ARC
  5
174
330
18
100
AcDbEntity
  8
0
100
AcDbCircle
 10
2.481947
 20
6.459033
 30
0.0
 40
0.01719
100
AcDbArc
 50
90.0
 51
125.015876
  0
ARC
  5
175
330
18
100
AcDbEntity
  8
0
100
AcDbCircle
 10
2.492086
 20
6.444562
 30
0.0
 40
0.03486
100
AcDbArc
 50
125.015876
 51
149.408015
  0
ARC
  5
176
330
18
100
AcDbEntity
  8
0
100
AcDbCircle
 10
2.508283
 20
6.434986
 30
0.0
 40
0.053676
100
AcDbArc
 50
149.408015
 51
166.239807
  0
ARC
  5
177
330
18
100
AcDbEntity
  8
0
100
AcDbCircle
 10
2.533971
 20
6.428696
 30
0.0
 40
0.080122
100
AcDbArc
 50
166.239807
 51
180.0
  0
ARC
  5
178
330
18
100
AcDbEntity
  8
0
100
AcDbCircle
 10
2.533971
 20
6.428696
 30
0.0
 40
0.080122
100
AcDbArc
 50
180.0
 51
193.760193
  0
ARC
  5
179
330
18
100
AcDbEntity
  8
0
100
AcDbCircle
 10
2.508283
 20
6.422405
 30
0.0
 40
0.053676
100
AcDbArc
 50
193.760193
 51
210.591985
  0
ARC
  5
17A
330
18
100
AcDbEntity
  8
0
100
AcDbCircle
 10
2.492086
 20
6.412829
 30
0.0
 40
0.03486
100
AcDbArc
 50
210.591985
 51
234.984124
  0
ARC
  5
17B
330
18
100
AcDbEntity
  8
0
100
AcDbCircle
 10
2.481947
 20
6.398358
 30
0.0
 40
0.01719
100
AcDbArc
 50
234.984124
 51
270.0
  0
ARC
  5
17C
330
18
100
AcDbEntity
  8
0
100
AcDbCircle
 10
2.481947
 20
6.398358
 30
0.0
 40
0.01719
100
AcDbArc
 50
270.0
 51
305.015876
  0
ARC
  5
17D
330
18
100
AcDbEntity
  8
0
100
AcDbCircle
 10
2.471809
 20
6.412829
 30
0.0
 40
0.03486
100
AcDbArc
 50
305.015876
 51
329.408015
  0
ARC
  5
17E
330
18
100
AcDbEntity
  8
0
100
AcDbCircle
 10
2.455612
 20
6.422405
 30
0.0
 40
0.053676
100
AcDbArc
 50
329.408015
 51
346.239807
  0
ARC
  5
17F
330
18
100
AcDbEntity
  8
0
100
AcDbCircle
 10
2.429924
 20
6.428696
 30
0.0
 40
0.080122
100
AcDbArc
 50
346.239807
 51
0.0
  0
ARC
  5
180
330
18
100
AcDbEntity
  8
0
100
AcDbCircle
 10
2.429924
 20
6.428696
 30
0.0
 40
0.080122
100
AcDbArc
 50
0.0
 51
13.760193
  0
ARC
  5
181
330
18
100
AcDbEntity
  8
0
100
AcDbCircle
 10
2.455612
 20
6.434986
 30
0.0
 40
0.053676
100
AcDbArc
 50
13.760193
 51
30.591985
  0
ARC
  5
182
330
18
100
AcDbEntity
  8
0
100
AcDbCircle
 10
2.471809
 20
6.444562
 30
0.0
 40
0.03486
100
AcDbArc
 50
30.591985
 51
54.984124
  0
ARC
  5
183
330
18
100
AcDbEntity
  8
0
100
AcDbCircle
 10
2.481947
 20
6.459033
 30
0.0
 40
0.01719
100
AcDbArc
 50
54.984124
 51
90.0
  0
ARC
  5
184
330
18
100
AcDbEntity
  8
0
100
AcDbCircle
 10
2.467442
 20
6.459033
 30
0.0
 40
0.01719
100
AcDbArc
 50
90.0
 51
125.015876
  0
ARC
  5
185
330
18
100
AcDbEntity
  8
0
100
AcDbCircle
 10
2.477581
 20
6.444562
 30
0.0
 40
0.03486
100
AcDbArc
 50
125.015876
 51
149.408015
  0
ARC
  5
186
330
18
100
AcDbEntity
  8
0
100
AcDbCircle
 10
2.493778
 20
6.434986
 30
0.0
 40
0.053676
100
AcDbArc
 50
149.408015
 51
166.239807
  0
ARC
  5
187
330
18
100
AcDbEntity
  8
0
100
AcDbCircle
 10
2.519466
 20
6.428696
 30
0.0
 40
0.080122
100
AcDbArc
 50
166.239807
 51
180.0
  0
ARC
  5
188
330
18
100
AcDbEntity
  8
0
100
AcDbCircle
 10
2.519466
 20
6.428696
 30
0.0
 40
0.080122
100
AcDbArc
 50
180.0
 51
193.760193
  0
ARC
  5
189
330
18
100
AcDbEntity
  8
0
100
AcDbCircle
 10
2.493778
 20
6.422405
 30
0.0
 40
0.053676
100
AcDbArc
 50
193.760193
 51
210.591985
  0
ARC
  5
18A
330
18
100
AcDbEntity
  8
0
100
AcDbCircle
 10
2.477581
 20
6.412829
 30
0.0
 40
0.03486
100
AcDbArc
 50
210.591985
 51
234.984124
  0
ARC
  5
18B
330
18
100
AcDbEntity
  8
0
100
AcDbCircle
 10
2.467442
 20
6.398358
 30
0.0
 40
0.01719
100
AcDbArc
 50
234.984124
 51
270.0
  0
ARC
  5
18C
330
18
100
AcDbEntity
  8
0
100
AcDbCircle
 10
2.467442
 20
6.398358
 30
0.0
 40
0.01719
100
AcDbArc
 50
270.0
 51
270.666761
  0
ARC
  5
18D
330
18
100
AcDbEntity
  8
0
100
AcDbCircle
 10
2.74177
 20
5.343373000000001
 30
0.0
 40
0.01719
100
AcDbArc
 50
88.70151700000001
 51
90.0
  0
ARC
  5
18E
330
18
100
AcDbEntity
  8
0
100
AcDbCircle
 10
2.74177
 20
5.343373000000001
 30
0.0
 40
0.01719
100
AcDbArc
 50
90.0
 51
125.015876
  0
ARC
  5
18F
330
18
100
AcDbEntity
  8
0
100
AcDbCircle
 10
2.751908
 20
5.328901999999999
 30
0.0
 40
0.03486
100
AcDbArc
 50
125.015876
 51
149.408015
  0
ARC
  5
190
330
18
100
AcDbEntity
  8
0
100
AcDbCircle
 10
2.768106
 20
5.319326
 30
0.0
 40
0.053676
100
AcDbArc
 50
149.408015
 51
166.239807
  0
ARC
  5
191
330
18
100
AcDbEntity
  8
0
100
AcDbCircle
 10
2.793793
 20
5.313035
 30
0.0
 40
0.080122
100
AcDbArc
 50
166.239807
 51
180.0
  0
ARC
  5
192
330
18
100
AcDbEntity
  8
0
100
AcDbCircle
 10
2.793793
 20
5.313035
 30
0.0
 40
0.080122
100
AcDbArc
 50
180.0
 51
193.760193
  0
ARC
  5
193
330
18
100
AcDbEntity
  8
0
100
AcDbCircle
 10
2.768106
 20
5.306744999999999
 30
0.0
 40
0.053676
100
AcDbArc
 50
193.760193
 51
210.591985
  0
ARC
  5
194
330
18
100
AcDbEntity
  8
0
100
AcDbCircle
 10
2.751908
 20
5.297169
 30
0.0
 40
0.03486
100
AcDbArc
 50
210.591985
 51
234.984124
  0
ARC
  5
195
330
18
100
AcDbEntity
  8
0
100
AcDbCircle
 10
2.74177
 20
5.282698
 30
0.0
 40
0.01719
100
AcDbArc
 50
234.984124
 51
270.0
  0
ARC
  5
196
330
18
100
AcDbEntity
  8
0
100
AcDbCircle
 10
2.74177
 20
5.282698
 30
0.0
 40
0.01719
100
AcDbArc
 50
270.0
 51
270.666761
  0
ARC
  5
197
330
18
100
AcDbEntity
  8
0
100
AcDbCircle
 10
2.756275
 20
5.343373000000001
 30
0.0
 40
0.01719
100
AcDbArc
 50
90.0
 51
125.015876
  0
ARC
  5
198
330
18
100
AcDbEntity
  8
0
100
AcDbCircle
 10
2.766413
 20
5.328901999999999
 30
0.0
 40
0.03486
100
AcDbArc
 50
125.015876
 51
149.408015
  0
ARC
  5
199
330
18
100
AcDbEntity
  8
0
100
AcDbCircle
 10
2.782611
 20
5.319326
 30
0.0
 40
0.053676
100
AcDbArc
 50
149.408015
 51
166.239807
  0
ARC
  5
19A
330
18
100
AcDbEntity
  8
0
100
AcDbCircle
 10
2.808298
 20
5.313035
 30
0.0
 40
0.080122
100
AcDbArc
 50
166.239807
 51
180.0
  0
ARC
  5
19B
330
18
100
AcDbEntity
  8
0
100
AcDbCircle
 10
2.808298
 20
5.313035
 30
0.0
 40
0.080122
100
AcDbArc
 50
180.0
 51
193.760193
  0
ARC
  5
19C
330
18
100
AcDbEntity
  8
0
100
AcDbCircle
 10
2.782611
 20
5.306744999999999
 30
0.0
 40
0.053676
100
AcDbArc
 50
193.760193
 51
210.591985
  0
ARC
  5
19D
330
18
100
AcDbEntity
  8
0
100
AcDbCircle
 10
2.766413
 20
5.297169
 30
0.0
 40
0.03486
100
AcDbArc
 50
210.591985
 51
234.984124
  0
ARC
  5
19E
330
18
100
AcDbEntity
  8
0
100
AcDbCircle
 10
2.756275
 20
5.282698
 30
0.0
 40
0.01719
100
AcDbArc
 50
234.984124
 51
270.0
  0
ARC
  5
19F
330
18
100
AcDbEntity
  8
0
100
AcDbCircle
 10
2.756275
 20
5.282698
 30
0.0
 40
0.01719
100
AcDbArc
 50
270.0
 51
305.015876
  0
ARC
  5
1A0
330
18
100
AcDbEntity
  8
0
100
AcDbCircle
 10
2.746136
 20
5.297169
 30
0.0
 40
0.03486
100
AcDbArc
 50
305.015876
 51
329.408015
  0
ARC
  5
1A1
330
18
100
AcDbEntity
  8
0
100
AcDbCircle
 10
2.729939
 20
5.306744999999999
 30
0.0
 40
0.053676
100
AcDbArc
 50
329.408015
 51
346.239807
  0
ARC
  5
1A2
330
18
100
AcDbEntity
  8
0
100
AcDbCircle
 10
2.704252
 20
5.313035
 30
0.0
 40
0.080122
100
AcDbArc
 50
346.239807
 51
0.0
  0
ARC
  5
1A3
330
18
100
AcDbEntity
  8
0
100
AcDbCircle
 10
2.704252
 20
5.313035
 30
0.0
 40
0.080122
100
AcDbArc
 50
0.0
 51
13.760193
  0
ARC
  5
1A4
330
18
100
AcDbEntity
  8
0
100
AcDbCircle
 10
2.729939
 20
5.319326
 30
0.0
 40
0.053676
100
AcDbArc
 50
13.760193
 51
30.591985
  0
ARC
  5
1A5
330
18
100
AcDbEntity
  8
0
100
AcDbCircle
 10
2.746136
 20
5.328901999999999
 30
0.0
 40
0.03486
100
AcDbArc
 50
30.591985
 51
54.984124
  0
ARC
  5
1A6
330
18
100
AcDbEntity
  8
0
100
AcDbCircle
 10
2.756275
 20
5.343373000000001
 30
0.0
 40
0.01719
100
AcDbArc
 50
54.984124
 51
90.0
  0
LINE
  5
1A7
330
18
100
AcDbEntity
  8
0
100
AcDbLine
 10
1.093711
 20
4.331176
 30
0.0
 11
1.101261
 21
4.340976
 31
0.0
  0
LINE
  5
1A8
330
18
100
AcDbEntity
  8
0
100
AcDbLine
 10
1.101261
 20
4.340976
 30
0.0
 11
1.11418
 21
4.372831
 31
0.0
  0
LINE
  5
1A9
330
18
100
AcDbEntity
  8
0
100
AcDbLine
 10
1.11418
 20
4.372831
 30
0.0
 11
1.132972
 21
4.385705000000001
 31
0.0
  0
LINE
  5
1AA
330
18
100
AcDbEntity
  8
0
100
AcDbLine
 10
1.132972
 20
4.385705000000001
 30
0.0
 11
1.150789
 21
4.403571
 31
0.0
  0
LINE
  5
1AB
330
18
100
AcDbEntity
  8
0
100
AcDbLine
 10
1.150789
 20
4.403571
 30
0.0
 11
1.166635
 21
4.422445
 31
0.0
  0
LINE
  5
1AC
330
18
100
AcDbEntity
  8
0
100
AcDbLine
 10
1.166635
 20
4.422445
 30
0.0
 11
1.180515
 21
4.444319999999999
 31
0.0
  0
LINE
  5
1AD
330
18
100
AcDbEntity
  8
0
100
AcDbLine
 10
1.180515
 20
4.444319999999999
 30
0.0
 11
1.190463
 21
4.473197
 31
0.0
  0
LINE
  5
1AE
330
18
100
AcDbEntity
  8
0
100
AcDbLine
 10
1.190463
 20
4.473197
 30
0.0
 11
1.211272
 21
4.502021
 31
0.0
  0
LINE
  5
1AF
330
18
100
AcDbEntity
  8
0
100
AcDbLine
 10
1.211272
 20
4.502021
 30
0.0
 11
1.235034
 21
4.527838
 31
0.0
  0
LINE
  5
1B0
330
18
100
AcDbEntity
  8
0
100
AcDbLine
 10
1.235034
 20
4.527838
 30
0.0
 11
1.258801
 21
4.555649
 31
0.0
  0
LINE
  5
1B1
330
18
100
AcDbEntity
  8
0
100
AcDbLine
 10
1.258801
 20
4.555649
 30
0.0
 11
1.274653
 21
4.576517
 31
0.0
  0
LINE
  5
1B2
330
18
100
AcDbEntity
  8
0
100
AcDbLine
 10
1.274653
 20
4.576517
 30
0.0
 11
1.299413
 21
4.606319
 31
0.0
  0
LINE
  5
1B3
330
18
100
AcDbEntity
  8
0
100
AcDbLine
 10
1.299413
 20
4.606319
 30
0.0
 11
1.325144
 21
4.630131
 31
0.0
  0
LINE
  5
1B4
330
18
100
AcDbEntity
  8
0
100
AcDbLine
 10
1.325144
 20
4.630131
 30
0.0
 11
1.346929
 21
4.654959
 31
0.0
  0
LINE
  5
1B5
330
18
100
AcDbEntity
  8
0
100
AcDbLine
 10
1.346929
 20
4.654959
 30
0.0
 11
1.358839
 21
4.67884
 31
0.0
  0
LINE
  5
1B6
330
18
100
AcDbEntity
  8
0
100
AcDbLine
 10
1.358839
 20
4.67884
 30
0.0
 11
1.370762
 21
4.707707
 31
0.0
  0
LINE
  5
1B7
330
18
100
AcDbEntity
  8
0
100
AcDbLine
 10
1.370762
 20
4.707707
 30
0.0
 11
1.378723
 21
4.731607
 31
0.0
  0
LINE
  5
1B8
330
18
100
AcDbEntity
  8
0
100
AcDbLine
 10
1.378723
 20
4.731607
 30
0.0
 11
1.390626
 21
4.752495
 31
0.0
  0
LINE
  5
1B9
330
18
100
AcDbEntity
  8
0
100
AcDbLine
 10
1.390626
 20
4.752495
 30
0.0
 11
1.410436
 21
4.777333000000001
 31
0.0
  0
LINE
  5
1BA
330
18
100
AcDbEntity
  8
0
100
AcDbLine
 10
1.410436
 20
4.777333000000001
 30
0.0
 11
1.421354
 21
4.799223000000001
 31
0.0
  0
LINE
  5
1BB
330
18
100
AcDbEntity
  8
0
100
AcDbLine
 10
1.421354
 20
4.799223000000001
 30
0.0
 11
1.433264
 21
4.823104
 31
0.0
  0
LINE
  5
1BC
330
18
100
AcDbEntity
  8
0
100
AcDbLine
 10
1.433264
 20
4.823104
 30
0.0
 11
1.45012
 21
4.850949
 31
0.0
  0
LINE
  5
1BD
330
18
100
AcDbEntity
  8
0
100
AcDbLine
 10
1.45012
 20
4.850949
 30
0.0
 11
1.470934
 21
4.881768
 31
0.0
  0
LINE
  5
1BE
330
18
100
AcDbEntity
  8
0
100
AcDbLine
 10
1.470934
 20
4.881768
 30
0.0
 11
1.478885
 21
4.901678
 31
0.0
  0
LINE
  5
1BF
330
18
100
AcDbEntity
  8
0
100
AcDbLine
 10
1.478885
 20
4.901678
 30
0.0
 11
1.496747
 21
4.9365
 31
0.0
  0
LINE
  5
1C0
330
18
100
AcDbEntity
  8
0
100
AcDbLine
 10
1.496747
 20
4.9365
 30
0.0
 11
1.514596
 21
4.966336
 31
0.0
  0
LINE
  5
1C1
330
18
100
AcDbEntity
  8
0
100
AcDbLine
 10
1.514596
 20
4.966336
 30
0.0
 11
1.521544
 21
4.980266
 31
0.0
  0
LINE
  5
1C2
330
18
100
AcDbEntity
  8
0
100
AcDbLine
 10
1.521544
 20
4.980266
 30
0.0
 11
1.526525
 21
4.997198
 31
0.0
  0
LINE
  5
1C3
330
18
100
AcDbEntity
  8
0
100
AcDbLine
 10
1.526525
 20
4.997198
 30
0.0
 11
1.526566
 21
5.013157
 31
0.0
  0
LINE
  5
1C4
330
18
100
AcDbEntity
  8
0
100
AcDbLine
 10
1.526566
 20
5.013157
 30
0.0
 11
1.519695
 21
5.028153
 31
0.0
  0
LINE
  5
1C5
330
18
100
AcDbEntity
  8
0
100
AcDbLine
 10
1.519695
 20
5.028153
 30
0.0
 11
1.516746
 21
5.033155000000001
 31
0.0
  0
LINE
  5
1C6
330
18
100
AcDbEntity
  8
0
100
AcDbLine
 10
1.516746
 20
5.033155000000001
 30
0.0
 11
1.511878
 21
5.059113
 31
0.0
  0
LINE
  5
1C7
330
18
100
AcDbEntity
  8
0
100
AcDbLine
 10
1.511878
 20
5.059113
 30
0.0
 11
1.506002
 21
5.077097
 31
0.0
  0
LINE
  5
1C8
330
18
100
AcDbEntity
  8
0
100
AcDbLine
 10
1.506002
 20
5.077097
 30
0.0
 11
1.497151
 21
5.090107
 31
0.0
  0
LINE
  5
1C9
330
18
100
AcDbEntity
  8
0
100
AcDbLine
 10
1.497151
 20
5.090107
 30
0.0
 11
1.481391
 21
5.10415
 31
0.0
  0
LINE
  5
1CA
330
18
100
AcDbEntity
  8
0
100
AcDbLine
 10
1.481391
 20
5.10415
 30
0.0
 11
1.463642
 21
5.112217
 31
0.0
  0
LINE
  5
1CB
330
18
100
AcDbEntity
  8
0
100
AcDbLine
 10
1.463642
 20
5.112217
 30
0.0
 11
1.445884
 21
5.117292
 31
0.0
  0
LINE
  5
1CC
330
18
100
AcDbEntity
  8
0
100
AcDbLine
 10
1.445884
 20
5.117292
 30
0.0
 11
1.422211
 21
5.125389
 31
0.0
  0
LINE
  5
1CD
330
18
100
AcDbEntity
  8
0
100
AcDbLine
 10
1.422211
 20
5.125389
 30
0.0
 11
1.389655
 21
5.134526999999999
 31
0.0
  0
LINE
  5
1CE
330
18
100
AcDbEntity
  8
0
100
AcDbLine
 10
1.389655
 20
5.134526999999999
 30
0.0
 11
1.364992
 21
5.141630999999999
 31
0.0
  0
LINE
  5
1CF
330
18
100
AcDbEntity
  8
0
100
AcDbLine
 10
1.364992
 20
5.141630999999999
 30
0.0
 11
1.34031
 21
5.141753
 31
0.0
  0
LINE
  5
1D0
330
18
100
AcDbEntity
  8
0
100
AcDbLine
 10
1.34031
 20
5.141753
 30
0.0
 11
1.307728
 21
5.140917
 31
0.0
  0
LINE
  5
1D1
330
18
100
AcDbEntity
  8
0
100
AcDbLine
 10
1.307728
 20
5.140917
 30
0.0
 11
1.280082
 21
5.140056
 31
0.0
  0
LINE
  5
1D2
330
18
100
AcDbEntity
  8
0
100
AcDbLine
 10
1.280082
 20
5.140056
 30
0.0
 11
1.265268
 21
5.138134
 31
0.0
  0
LINE
  5
1D3
330
18
100
AcDbEntity
  8
0
100
AcDbLine
 10
1.265268
 20
5.138134
 30
0.0
 11
1.2465
 21
5.134237000000001
 31
0.0
  0
LINE
  5
1D4
330
18
100
AcDbEntity
  8
0
100
AcDbLine
 10
1.2465
 20
5.134237000000001
 30
0.0
 11
1.224767
 21
5.129357
 31
0.0
  0
LINE
  5
1D5
330
18
100
AcDbEntity
  8
0
100
AcDbLine
 10
1.224767
 20
5.129357
 30
0.0
 11
1.213892
 21
5.123426
 31
0.0
  0
LINE
  5
1D6
330
18
100
AcDbEntity
  8
0
100
AcDbLine
 10
1.213892
 20
5.123426
 30
0.0
 11
1.199072
 21
5.11951
 31
0.0
  0
LINE
  5
1D7
330
18
100
AcDbEntity
  8
0
100
AcDbLine
 10
1.199072
 20
5.11951
 30
0.0
 11
1.192159
 21
5.118546
 31
0.0
  0
LINE
  5
1D8
330
18
100
AcDbEntity
  8
0
100
AcDbLine
 10
1.192159
 20
5.118546
 30
0.0
 11
1.17437
 21
5.111651999999999
 31
0.0
  0
LINE
  5
1D9
330
18
100
AcDbEntity
  8
0
100
AcDbLine
 10
1.17437
 20
5.111651999999999
 30
0.0
 11
1.156591
 21
5.108748
 31
0.0
  0
LINE
  5
1DA
330
18
100
AcDbEntity
  8
0
100
AcDbLine
 10
1.156591
 20
5.108748
 30
0.0
 11
1.135846
 21
5.103863
 31
0.0
  0
LINE
  5
1DB
330
18
100
AcDbEntity
  8
0
100
AcDbLine
 10
1.135846
 20
5.103863
 30
0.0
 11
1.110156
 21
5.09601
 31
0.0
  0
LINE
  5
1DC
330
18
100
AcDbEntity
  8
0
100
AcDbLine
 10
1.110156
 20
5.09601
 30
0.0
 11
1.093711
 21
5.093948
 31
0.0
  0
LINE
  5
1DD
330
18
100
AcDbEntity
  8
0
100
AcDbLine
 10
5.866695
 20
5.090586
 30
0.0
 11
5.810045
 21
5.024292
 31
0.0
  0
LINE
  5
1DE
330
18
100
AcDbEntity
  8
0
100
AcDbLine
 10
5.810045
 20
5.024292
 30
0.0
 11
5.76593
 21
4.905349
 31
0.0
  0
LINE
  5
1DF
330
18
100
AcDbEntity
  8
0
100
AcDbLine
 10
5.76593
 20
4.905349
 30
0.0
 11
5.723667
 21
4.750668
 31
0.0
  0
LINE
  5
1E0
330
18
100
AcDbEntity
  8
0
100
AcDbLine
 10
5.723667
 20
4.750668
 30
0.0
 11
5.665563
 21
4.606963
 31
0.0
  0
LINE
  5
1E1
330
18
100
AcDbEntity
  8
0
100
AcDbLine
 10
5.665563
 20
4.606963
 30
0.0
 11
5.59652
 21
4.457345
 31
0.0
  0
LINE
  5
1E2
330
18
100
AcDbEntity
  8
0
100
AcDbLine
 10
5.59652
 20
4.457345
 30
0.0
 11
5.519474
 21
4.290882
 31
0.0
  0
LINE
  5
1E3
330
18
100
AcDbEntity
  8
0
100
AcDbLine
 10
5.519474
 20
4.290882
 30
0.0
 11
5.419451000000001
 21
4.084803
 31
0.0
  0
LINE
  5
1E4
330
18
100
AcDbEntity
  8
0
100
AcDbLine
 10
5.419451000000001
 20
4.084803
 30
0.0
 11
5.341401
 21
3.915366000000001
 31
0.0
  0
LINE
  5
1E5
330
18
100
AcDbEntity
  8
0
100
AcDbLine
 10
5.341401
 20
3.915366000000001
 30
0.0
 11
5.260477
 21
3.773732
 31
0.0
  0
LINE
  5
1E6
330
18
100
AcDbEntity
  8
0
100
AcDbLine
 10
5.260477
 20
3.773732
 30
0.0
 11
5.155665
 21
3.61432
 31
0.0
  0
LINE
  5
1E7
330
18
100
AcDbEntity
  8
0
100
AcDbLine
 10
5.155665
 20
3.61432
 30
0.0
 11
5.031973000000001
 21
3.449024
 31
0.0
  0
LINE
  5
1E8
330
18
100
AcDbEntity
  8
0
100
AcDbLine
 10
5.031973000000001
 20
3.449024
 30
0.0
 11
4.939238
 21
3.334233
 31
0.0
  0
LINE
  5
1E9
330
18
100
AcDbEntity
  8
0
100
AcDbLine
 10
4.939238
 20
3.334233
 30
0.0
 11
4.837519
 21
3.205579
 31
0.0
  0
LINE
  5
1EA
330
18
100
AcDbEntity
  8
0
100
AcDbLine
 10
4.837519
 20
3.205579
 30
0.0
 11
4.737832
 21
3.089821
 31
0.0
  0
LINE
  5
1EB
330
18
100
AcDbEntity
  8
0
100
AcDbLine
 10
4.737832
 20
3.089821
 30
0.0
 11
4.63225
 21
2.989966
 31
0.0
  0
LINE
  5
1EC
330
18
100
AcDbEntity
  8
0
100
AcDbLine
 10
4.63225
 20
2.989966
 30
0.0
 11
4.577497
 21
2.944165
 31
0.0
  0
LINE
  5
1ED
330
18
100
AcDbEntity
  8
0
100
AcDbLine
 10
5.866695
 20
4.233741
 30
0.0
 11
5.838692
 21
4.187461
 31
0.0
  0
LINE
  5
1EE
330
18
100
AcDbEntity
  8
0
100
AcDbLine
 10
5.838692
 20
4.187461
 30
0.0
 11
5.799787
 21
4.135
 31
0.0
  0
LINE
  5
1EF
330
18
100
AcDbEntity
  8
0
100
AcDbLine
 10
5.799787
 20
4.135
 30
0.0
 11
5.747719999999999
 21
4.013109
 31
0.0
  0
LINE
  5
1F0
330
18
100
AcDbEntity
  8
0
100
AcDbLine
 10
5.747719999999999
 20
4.013109
 30
0.0
 11
5.690647
 21
3.879327
 31
0.0
  0
LINE
  5
1F1
330
18
100
AcDbEntity
  8
0
100
AcDbLine
 10
5.690647
 20
3.879327
 30
0.0
 11
5.599804
 21
3.739714
 31
0.0
  0
LINE
  5
1F2
330
18
100
AcDbEntity
  8
0
100
AcDbLine
 10
5.599804
 20
3.739714
 30
0.0
 11
5.508929
 21
3.591169
 31
0.0
  0
LINE
  5
1F3
330
18
100
AcDbEntity
  8
0
100
AcDbLine
 10
5.508929
 20
3.591169
 30
0.0
 11
5.420994
 21
3.432688
 31
0.0
  0
LINE
  5
1F4
330
18
100
AcDbEntity
  8
0
100
AcDbLine
 10
5.420994
 20
3.432688
 30
0.0
 11
5.360076
 21
3.332666
 31
0.0
  0
LINE
  5
1F5
330
18
100
AcDbEntity
  8
0
100
AcDbLine
 10
5.360076
 20
3.332666
 30
0.0
 11
5.286258
 21
3.233685
 31
0.0
  0
LINE
  5
1F6
330
18
100
AcDbEntity
  8
0
100
AcDbLine
 10
5.286258
 20
3.233685
 30
0.0
 11
5.205493
 21
3.134731
 31
0.0
  0
LINE
  5
1F7
330
18
100
AcDbEntity
  8
0
100
AcDbLine
 10
5.205493
 20
3.134731
 30
0.0
 11
5.101833
 21
3.017995
 31
0.0
  0
LINE
  5
1F8
330
18
100
AcDbEntity
  8
0
100
AcDbLine
 10
5.101833
 20
3.017995
 30
0.0
 11
5.002146
 21
2.902237
 31
0.0
  0
LINE
  5
1F9
330
18
100
AcDbEntity
  8
0
100
AcDbLine
 10
5.002146
 20
2.902237
 30
0.0
 11
4.891516
 21
2.779572
 31
0.0
  0
LINE
  5
1FA
330
18
100
AcDbEntity
  8
0
100
AcDbLine
 10
4.891516
 20
2.779572
 30
0.0
 11
4.789874
 21
2.671761
 31
0.0
  0
LINE
  5
1FB
330
18
100
AcDbEntity
  8
0
100
AcDbLine
 10
4.789874
 20
2.671761
 30
0.0
 11
4.675288
 21
2.553081
 31
0.0
  0
LINE
  5
1FC
330
18
100
AcDbEntity
  8
0
100
AcDbLine
 10
4.675288
 20
2.553081
 30
0.0
 11
4.577497
 21
2.478063
 31
0.0
  0
LINE
  5
1FD
330
18
100
AcDbEntity
  8
0
100
AcDbLine
 10
2.230821
 20
4.213013
 30
0.0
 11
2.324278
 21
4.248183999999999
 31
0.0
  0
LINE
  5
1FE
330
18
100
AcDbEntity
  8
0
100
AcDbLine
 10
2.324278
 20
4.248183999999999
 30
0.0
 11
2.34715
 21
4.26001
 31
0.0
  0
LINE
  5
1FF
330
18
100
AcDbEntity
  8
0
100
AcDbLine
 10
2.34715
 20
4.26001
 30
0.0
 11
2.434923
 21
4.374819000000001
 31
0.0
  0
LINE
  5
200
330
18
100
AcDbEntity
  8
0
100
AcDbLine
 10
2.434923
 20
4.374819000000001
 30
0.0
 11
2.49566
 21
4.426206
 31
0.0
  0
LINE
  5
201
330
18
100
AcDbEntity
  8
0
100
AcDbLine
 10
2.49566
 20
4.426206
 30
0.0
 11
2.560408
 21
4.488496
 31
0.0
  0
LINE
  5
202
330
18
100
AcDbEntity
  8
0
100
AcDbLine
 10
2.560408
 20
4.488496
 30
0.0
 11
2.574166
 21
4.498608
 31
0.0
  0
LINE
  5
203
330
18
100
AcDbEntity
  8
0
100
AcDbLine
 10
2.230821
 20
5.283018
 30
0.0
 11
2.285289
 21
5.239893
 31
0.0
  0
LINE
  5
204
330
18
100
AcDbEntity
  8
0
100
AcDbLine
 10
2.285289
 20
5.239893
 30
0.0
 11
2.341827
 21
5.229757
 31
0.0
  0
LINE
  5
205
330
18
100
AcDbEntity
  8
0
100
AcDbLine
 10
2.341827
 20
5.229757
 30
0.0
 11
2.432119
 21
5.221480000000001
 31
0.0
  0
LINE
  5
206
330
18
100
AcDbEntity
  8
0
100
AcDbLine
 10
2.432119
 20
5.221480000000001
 30
0.0
 11
2.500394
 21
5.16465
 31
0.0
  0
LINE
  5
207
330
18
100
AcDbEntity
  8
0
100
AcDbLine
 10
2.500394
 20
5.16465
 30
0.0
 11
2.563706
 21
5.107839
 31
0.0
  0
LINE
  5
208
330
18
100
AcDbEntity
  8
0
100
AcDbLine
 10
2.563706
 20
5.107839
 30
0.0
 11
2.574166
 21
5.088763
 31
0.0
  0
LINE
  5
209
330
18
100
AcDbEntity
  8
0
100
AcDbLine
 10
2.230821
 20
3.442473
 30
0.0
 11
2.296583
 21
3.474094
 31
0.0
  0
LINE
  5
20A
330
18
100
AcDbEntity
  8
0
100
AcDbLine
 10
2.296583
 20
3.474094
 30
0.0
 11
2.386151
 21
3.538276
 31
0.0
  0
LINE
  5
20B
330
18
100
AcDbEntity
  8
0
100
AcDbLine
 10
2.386151
 20
3.538276
 30
0.0
 11
2.46688
 21
3.627306
 31
0.0
  0
LINE
  5
20C
330
18
100
AcDbEntity
  8
0
100
AcDbLine
 10
2.46688
 20
3.627306
 30
0.0
 11
2.498782
 21
3.664904
 31
0.0
  0
LINE
  5
20D
330
18
100
AcDbEntity
  8
0
100
AcDbLine
 10
2.498782
 20
3.664904
 30
0.0
 11
2.567607
 21
3.755963
 31
0.0
  0
LINE
  5
20E
330
18
100
AcDbEntity
  8
0
100
AcDbLine
 10
2.567607
 20
3.755963
 30
0.0
 11
2.574166
 21
3.764641000000001
 31
0.0
  0
LINE
  5
20F
330
18
100
AcDbEntity
  8
0
100
AcDbLine
 10
2.230821
 20
6.176883999999999
 30
0.0
 11
2.382035
 21
6.165587
 31
0.0
  0
LINE
  5
210
330
18
100
AcDbEntity
  8
0
100
AcDbLine
 10
2.382035
 20
6.165587
 30
0.0
 11
2.415789
 21
6.167447
 31
0.0
  0
LINE
  5
211
330
18
100
AcDbEntity
  8
0
100
AcDbLine
 10
2.415789
 20
6.167447
 30
0.0
 11
2.500203
 21
6.180036
 31
0.0
  0
LINE
  5
212
330
18
100
AcDbEntity
  8
0
100
AcDbLine
 10
2.500203
 20
6.180036
 30
0.0
 11
2.558785
 21
6.185773
 31
0.0
  0
LINE
  5
213
330
18
100
AcDbEntity
  8
0
100
AcDbLine
 10
2.558785
 20
6.185773
 30
0.0
 11
2.609257
 21
6.145883
 31
0.0
  0
LINE
  5
214
330
18
100
AcDbEntity
  8
0
100
AcDbLine
 10
2.609257
 20
6.145883
 30
0.0
 11
2.69636
 21
6.081042
 31
0.0
  0
LINE
  5
215
330
18
100
AcDbEntity
  8
0
100
AcDbLine
 10
2.69636
 20
6.081042
 30
0.0
 11
2.774649
 21
6.047997000000001
 31
0.0
  0
LINE
  5
216
330
18
100
AcDbEntity
  8
0
100
AcDbLine
 10
2.774649
 20
6.047997000000001
 30
0.0
 11
2.808015
 21
6.034202
 31
0.0
  0
LINE
  5
217
330
18
100
AcDbEntity
  8
0
100
AcDbLine
 10
1.265836
 20
2.39167
 30
0.0
 11
1.235727
 21
2.457695
 31
0.0
  0
LINE
  5
218
330
18
100
AcDbEntity
  8
0
100
AcDbLine
 10
1.235727
 20
2.457695
 30
0.0
 11
1.215036
 21
2.498467
 31
0.0
  0
LINE
  5
219
330
18
100
AcDbEntity
  8
0
100
AcDbLine
 10
1.215036
 20
2.498467
 30
0.0
 11
1.196351
 21
2.545186
 31
0.0
  0
LINE
  5
21A
330
18
100
AcDbEntity
  8
0
100
AcDbLine
 10
1.196351
 20
2.545186
 30
0.0
 11
1.1756
 21
2.570078
 31
0.0
  0
LINE
  5
21B
330
18
100
AcDbEntity
  8
0
100
AcDbLine
 10
1.1756
 20
2.570078
 30
0.0
 11
1.155893
 21
2.608861
 31
0.0
  0
LINE
  5
21C
330
18
100
AcDbEntity
  8
0
100
AcDbLine
 10
1.155893
 20
2.608861
 30
0.0
 11
1.155354
 21
2.609352
 31
0.0
  0
LINE
  5
21D
330
18
100
AcDbEntity
  8
0
100
AcDbLine
 10
1.155354
 20
2.609352
 30
0.0
 11
1.149885
 21
2.618395
 31
0.0
  0
LINE
  5
21E
330
18
100
AcDbEntity
  8
0
100
AcDbLine
 10
1.149885
 20
2.618395
 30
0.0
 11
1.145422
 21
2.622856
 31
0.0
  0
LINE
  5
21F
330
18
100
AcDbEntity
  8
0
100
AcDbLine
 10
1.145422
 20
2.622856
 30
0.0
 11
1.1404
 21
2.629547
 31
0.0
  0
LINE
  5
220
330
18
100
AcDbEntity
  8
0
100
AcDbLine
 10
1.1404
 20
2.629547
 30
0.0
 11
1.137053
 21
2.633451
 31
0.0
  0
LINE
  5
221
330
18
100
AcDbEntity
  8
0
100
AcDbLine
 10
1.137053
 20
2.633451
 30
0.0
 11
1.13451
 21
2.636628
 31
0.0
  0
LINE
  5
222
330
18
100
AcDbEntity
  8
0
100
AcDbLine
 10
1.093711
 20
2.556753
 30
0.0
 11
1.106952
 21
2.526661
 31
0.0
  0
LINE
  5
223
330
18
100
AcDbEntity
  8
0
100
AcDbLine
 10
1.106952
 20
2.526661
 30
0.0
 11
1.131603
 21
2.482896
 31
0.0
  0
LINE
  5
224
330
18
100
AcDbEntity
  8
0
100
AcDbLine
 10
1.131603
 20
2.482896
 30
0.0
 11
1.150343
 21
2.451065
 31
0.0
  0
LINE
  5
225
330
18
100
AcDbEntity
  8
0
100
AcDbLine
 10
1.150343
 20
2.451065
 30
0.0
 11
1.16909
 21
2.421218
 31
0.0
  0
LINE
  5
226
330
18
100
AcDbEntity
  8
0
100
AcDbLine
 10
1.16909
 20
2.421218
 30
0.0
 11
1.187786
 21
2.377476
 31
0.0
  0
LINE
  5
227
330
18
100
AcDbEntity
  8
0
100
AcDbLine
 10
1.187786
 20
2.377476
 30
0.0
 11
1.218319
 21
2.313839
 31
0.0
  0
LINE
  5
228
330
18
100
AcDbEntity
  8
0
100
AcDbLine
 10
1.218319
 20
2.313839
 30
0.0
 11
1.237059
 21
2.282008
 31
0.0
  0
LINE
  5
229
330
18
100
AcDbEntity
  8
0
100
AcDbLine
 10
1.237059
 20
2.282008
 30
0.0
 11
1.265836
 21
2.196771
 31
0.0
  0
LINE
  5
22A
330
18
100
AcDbEntity
  8
0
100
AcDbLine
 10
1.00214
 20
2.538665
 30
0.0
 11
1.016575
 21
2.512109
 31
0.0
  0
LINE
  5
22B
330
18
100
AcDbEntity
  8
0
100
AcDbLine
 10
1.016575
 20
2.512109
 30
0.0
 11
1.060981
 21
2.442464
 31
0.0
  0
LINE
  5
22C
330
18
100
AcDbEntity
  8
0
100
AcDbLine
 10
1.060981
 20
2.442464
 30
0.0
 11
1.110324
 21
2.365854
 31
0.0
  0
LINE
  5
22D
330
18
100
AcDbEntity
  8
0
100
AcDbLine
 10
1.110324
 20
2.365854
 30
0.0
 11
1.136
 21
2.331019
 31
0.0
  0
LINE
  5
22E
330
18
100
AcDbEntity
  8
0
100
AcDbLine
 10
1.136
 20
2.331019
 30
0.0
 11
1.159674
 21
2.291229
 31
0.0
  0
LINE
  5
22F
330
18
100
AcDbEntity
  8
0
100
AcDbLine
 10
1.159674
 20
2.291229
 30
0.0
 11
1.182354
 21
2.251442
 31
0.0
  0
LINE
  5
230
330
18
100
AcDbEntity
  8
0
100
AcDbLine
 10
1.182354
 20
2.251442
 30
0.0
 11
1.265836
 21
2.09036
 31
0.0
  0
LINE
  5
231
330
18
100
AcDbEntity
  8
0
100
AcDbLine
 10
0.7934770000000001
 20
2.879913
 30
0.0
 11
0.808431
 21
2.8573
 31
0.0
  0
LINE
  5
232
330
18
100
AcDbEntity
  8
0
100
AcDbLine
 10
0.808431
 20
2.8573
 30
0.0
 11
0.836082
 21
2.81948
 31
0.0
  0
LINE
  5
233
330
18
100
AcDbEntity
  8
0
100
AcDbLine
 10
0.836082
 20
2.81948
 30
0.0
 11
0.8637290000000001
 21
2.780668
 31
0.0
  0
LINE
  5
234
330
18
100
AcDbEntity
  8
0
100
AcDbLine
 10
0.8637290000000001
 20
2.780668
 30
0.0
 11
0.8854200000000001
 21
2.741877
 31
0.0
  0
LINE
  5
235
330
18
100
AcDbEntity
  8
0
100
AcDbLine
 10
0.8854200000000001
 20
2.741877
 30
0.0
 11
0.911071
 21
2.700094
 31
0.0
  0
LINE
  5
236
330
18
100
AcDbEntity
  8
0
100
AcDbLine
 10
0.911071
 20
2.700094
 30
0.0
 11
0.929241
 21
2.668873
 31
0.0
  0
LINE
  5
237
330
18
100
AcDbEntity
  8
0
100
AcDbLine
 10
0.711453
 20
2.886555
 30
0.0
 11
0.730075
 21
2.87248
 31
0.0
  0
LINE
  5
238
330
18
100
AcDbEntity
  8
0
100
AcDbLine
 10
0.730075
 20
2.87248
 30
0.0
 11
0.742934
 21
2.860522
 31
0.0
  0
LINE
  5
239
330
18
100
AcDbEntity
  8
0
100
AcDbLine
 10
0.742934
 20
2.860522
 30
0.0
 11
0.7655960000000001
 21
2.815772
 31
0.0
  0
LINE
  5
23A
330
18
100
AcDbEntity
  8
0
100
AcDbLine
 10
0.7655960000000001
 20
2.815772
 30
0.0
 11
0.7883180000000001
 21
2.786904
 31
0.0
  0
LINE
  5
23B
330
18
100
AcDbEntity
  8
0
100
AcDbLine
 10
0.7883180000000001
 20
2.786904
 30
0.0
 11
0.819894
 21
2.737158
 31
0.0
  0
LINE
  5
23C
330
18
100
AcDbEntity
  8
0
100
AcDbLine
 10
0.819894
 20
2.737158
 30
0.0
 11
0.8474860000000001
 21
2.683458
 31
0.0
  0
LINE
  5
23D
330
18
100
AcDbEntity
  8
0
100
AcDbLine
 10
0.8474860000000001
 20
2.683458
 30
0.0
 11
0.8771110000000001
 21
2.642653
 31
0.0
  0
LINE
  5
23E
330
18
100
AcDbEntity
  8
0
100
AcDbLine
 10
0.8771110000000001
 20
2.642653
 30
0.0
 11
0.8978209999999999
 21
2.606843
 31
0.0
  0
LINE
  5
23F
330
18
100
AcDbEntity
  8
0
100
AcDbLine
 10
0.8978209999999999
 20
2.606843
 30
0.0
 11
0.92245
 21
2.557124
 31
0.0
  0
LINE
  5
240
330
18
100
AcDbEntity
  8
0
100
AcDbLine
 10
0.92245
 20
2.557124
 30
0.0
 11
0.952045
 21
2.508379
 31
0.0
  0
LINE
  5
241
330
18
100
AcDbEntity
  8
0
100
AcDbLine
 10
0.952045
 20
2.508379
 30
0.0
 11
0.979663
 21
2.461626
 31
0.0
  0
LINE
  5
242
330
18
100
AcDbEntity
  8
0
100
AcDbLine
 10
0.979663
 20
2.461626
 30
0.0
 11
1.001336
 21
2.417873
 31
0.0
  0
LINE
  5
243
330
18
100
AcDbEntity
  8
0
100
AcDbLine
 10
1.001336
 20
2.417873
 30
0.0
 11
1.028924
 21
2.363179
 31
0.0
  0
LINE
  5
244
330
18
100
AcDbEntity
  8
0
100
AcDbLine
 10
1.028924
 20
2.363179
 30
0.0
 11
1.04669
 21
2.336314
 31
0.0
  0
LINE
  5
245
330
18
100
AcDbEntity
  8
0
100
AcDbLine
 10
1.04669
 20
2.336314
 30
0.0
 11
1.069304
 21
2.278662
 31
0.0
  0
LINE
  5
246
330
18
100
AcDbEntity
  8
0
100
AcDbLine
 10
1.069304
 20
2.278662
 30
0.0
 11
1.108729
 21
2.204073
 31
0.0
  0
LINE
  5
247
330
18
100
AcDbEntity
  8
0
100
AcDbLine
 10
1.108729
 20
2.204073
 30
0.0
 11
1.130387
 21
2.15635
 31
0.0
  0
LINE
  5
248
330
18
100
AcDbEntity
  8
0
100
AcDbLine
 10
1.130387
 20
2.15635
 30
0.0
 11
1.152743
 21
2.096253
 31
0.0
  0
LINE
  5
249
330
18
100
AcDbEntity
  8
0
100
AcDbLine
 10
0.711781
 20
2.757412
 30
0.0
 11
0.741376
 21
2.708666
 31
0.0
  0
LINE
  5
24A
330
18
100
AcDbEntity
  8
0
100
AcDbLine
 10
0.741376
 20
2.708666
 30
0.0
 11
0.75722
 21
2.698682
 31
0.0
  0
LINE
  5
24B
330
18
100
AcDbEntity
  8
0
100
AcDbLine
 10
0.75722
 20
2.698682
 30
0.0
 11
0.777989
 21
2.678753
 31
0.0
  0
LINE
  5
24C
330
18
100
AcDbEntity
  8
0
100
AcDbLine
 10
0.777989
 20
2.678753
 30
0.0
 11
0.810592
 21
2.637937
 31
0.0
  0
LINE
  5
24D
330
18
100
AcDbEntity
  8
0
100
AcDbLine
 10
0.810592
 20
2.637937
 30
0.0
 11
0.836239
 21
2.595162
 31
0.0
  0
LINE
  5
24E
330
18
100
AcDbEntity
  8
0
100
AcDbLine
 10
0.836239
 20
2.595162
 30
0.0
 11
0.864768
 21
2.526569
 31
0.0
  0
LINE
  5
24F
330
18
100
AcDbEntity
  8
0
100
AcDbLine
 10
0.864768
 20
2.526569
 30
0.0
 11
0.8805190000000001
 21
2.491771
 31
0.0
  0
LINE
  5
250
330
18
100
AcDbEntity
  8
0
100
AcDbLine
 10
0.8805190000000001
 20
2.491771
 30
0.0
 11
0.8923260000000001
 21
2.463936
 31
0.0
  0
LINE
  5
251
330
18
100
AcDbEntity
  8
0
100
AcDbLine
 10
0.8923260000000001
 20
2.463936
 30
0.0
 11
0.9268360000000001
 21
2.402269
 31
0.0
  0
LINE
  5
252
330
18
100
AcDbEntity
  8
0
100
AcDbLine
 10
0.9268360000000001
 20
2.402269
 30
0.0
 11
0.948528
 21
2.363479
 31
0.0
  0
LINE
  5
253
330
18
100
AcDbEntity
  8
0
100
AcDbLine
 10
0.948528
 20
2.363479
 30
0.0
 11
0.95935
 21
2.337632
 31
0.0
  0
LINE
  5
254
330
18
100
AcDbEntity
  8
0
100
AcDbLine
 10
0.95935
 20
2.337632
 30
0.0
 11
0.992864
 21
2.274976
 31
0.0
  0
LINE
  5
255
330
18
100
AcDbEntity
  8
0
100
AcDbLine
 10
0.992864
 20
2.274976
 30
0.0
 11
1.036329
 21
2.219231
 31
0.0
  0
LINE
  5
256
330
18
100
AcDbEntity
  8
0
100
AcDbLine
 10
1.036329
 20
2.219231
 30
0.0
 11
1.072826
 21
2.153264
 31
0.0
  0
LINE
  5
257
330
18
100
AcDbEntity
  8
0
100
AcDbLine
 10
0.7118939999999999
 20
2.521183
 30
0.0
 11
0.74453
 21
2.4893
 31
0.0
  0
LINE
  5
258
330
18
100
AcDbEntity
  8
0
100
AcDbLine
 10
0.74453
 20
2.4893
 30
0.0
 11
0.761296
 21
2.460453
 31
0.0
  0
LINE
  5
259
330
18
100
AcDbEntity
  8
0
100
AcDbLine
 10
0.761296
 20
2.460453
 30
0.0
 11
0.774037
 21
2.416733
 31
0.0
  0
LINE
  5
25A
330
18
100
AcDbEntity
  8
0
100
AcDbLine
 10
0.774037
 20
2.416733
 30
0.0
 11
0.787722
 21
2.360107
 31
0.0
  0
LINE
  5
25B
330
18
100
AcDbEntity
  8
0
100
AcDbLine
 10
0.787722
 20
2.360107
 30
0.0
 11
0.7884800000000001
 21
2.35611
 31
0.0
  0
LINE
  5
25C
330
18
100
AcDbEntity
  8
0
100
AcDbLine
 10
0.711453
 20
2.670389
 30
0.0
 11
0.7460140000000001
 21
2.621304
 31
0.0
  0
LINE
  5
25D
330
18
100
AcDbEntity
  8
0
100
AcDbLine
 10
0.7460140000000001
 20
2.621304
 30
0.0
 11
0.7657540000000001
 21
2.591454
 31
0.0
  0
LINE
  5
25E
330
18
100
AcDbEntity
  8
0
100
AcDbLine
 10
0.7657540000000001
 20
2.591454
 30
0.0
 11
0.784446
 21
2.54672
 31
0.0
  0
LINE
  5
25F
330
18
100
AcDbEntity
  8
0
100
AcDbLine
 10
0.784446
 20
2.54672
 30
0.0
 11
0.804079
 21
2.488086
 31
0.0
  0
LINE
  5
260
330
18
100
AcDbEntity
  8
0
100
AcDbLine
 10
0.804079
 20
2.488086
 30
0.0
 11
0.8325520000000001
 21
2.404605
 31
0.0
  0
LINE
  5
261
330
18
100
AcDbEntity
  8
0
100
AcDbLine
 10
0.8325520000000001
 20
2.404605
 30
0.0
 11
0.875943
 21
2.329009
 31
0.0
  0
LINE
  5
262
330
18
100
AcDbEntity
  8
0
100
AcDbLine
 10
0.875943
 20
2.329009
 30
0.0
 11
0.8976129999999999
 21
2.284264
 31
0.0
  0
LINE
  5
263
330
18
100
AcDbEntity
  8
0
100
AcDbLine
 10
0.8976129999999999
 20
2.284264
 30
0.0
 11
0.9013959999999999
 21
2.275558
 31
0.0
  0
LINE
  5
264
330
18
100
AcDbEntity
  8
0
100
AcDbLine
 10
1.093711
 20
6.785183
 30
0.0
 11
1.096006
 21
6.785758
 31
0.0
  0
LINE
  5
265
330
18
100
AcDbEntity
  8
0
100
AcDbLine
 10
1.096006
 20
6.785758
 30
0.0
 11
1.156602
 21
6.799428999999999
 31
0.0
  0
LINE
  5
266
330
18
100
AcDbEntity
  8
0
100
AcDbLine
 10
1.156602
 20
6.799428999999999
 30
0.0
 11
1.195312
 21
6.799285
 31
0.0
  0
LINE
  5
267
330
18
100
AcDbEntity
  8
0
100
AcDbLine
 10
1.195312
 20
6.799285
 30
0.0
 11
1.273711
 21
6.796015
 31
0.0
  0
LINE
  5
268
330
18
100
AcDbEntity
  8
0
100
AcDbLine
 10
1.273711
 20
6.796015
 30
0.0
 11
1.283417
 21
6.79473
 31
0.0
  0
LINE
  5
269
330
18
100
AcDbEntity
  8
0
100
AcDbLine
 10
1.093711
 20
6.884364
 30
0.0
 11
1.107297
 21
6.885964
 31
0.0
  0
LINE
  5
26A
330
18
100
AcDbEntity
  8
0
100
AcDbLine
 10
1.107297
 20
6.885964
 30
0.0
 11
1.161916
 21
6.893702
 31
0.0
  0
LINE
  5
26B
330
18
100
AcDbEntity
  8
0
100
AcDbLine
 10
1.161916
 20
6.893702
 30
0.0
 11
1.215528
 21
6.897472000000001
 31
0.0
  0
LINE
  5
26C
330
18
100
AcDbEntity
  8
0
100
AcDbLine
 10
1.215528
 20
6.897472000000001
 30
0.0
 11
1.266166
 21
6.902247
 31
0.0
  0
LINE
  5
26D
330
18
100
AcDbEntity
  8
0
100
AcDbLine
 10
1.266166
 20
6.902247
 30
0.0
 11
1.283417
 21
6.904646000000001
 31
0.0
  0
LINE
  5
26E
330
18
100
AcDbEntity
  8
0
100
AcDbLine
 10
0.9200860000000001
 20
6.837449
 30
0.0
 11
0.929241
 21
6.841121
 31
0.0
  0
LINE
  5
26F
330
18
100
AcDbEntity
  8
0
100
AcDbLine
 10
1.093711
 20
6.964016
 30
0.0
 11
1.140372
 21
6.972194
 31
0.0
  0
LINE
  5
270
330
18
100
AcDbEntity
  8
0
100
AcDbLine
 10
1.140372
 20
6.972194
 30
0.0
 11
1.197973
 21
6.980911999999999
 31
0.0
  0
LINE
  5
271
330
18
100
AcDbEntity
  8
0
100
AcDbLine
 10
1.197973
 20
6.980911999999999
 30
0.0
 11
1.245618
 21
6.981728
 31
0.0
  0
LINE
  5
272
330
18
100
AcDbEntity
  8
0
100
AcDbLine
 10
1.245618
 20
6.981728
 30
0.0
 11
1.283417
 21
6.982867999999999
 31
0.0
  0
LINE
  5
273
330
18
100
AcDbEntity
  8
0
100
AcDbLine
 10
0.808186
 20
6.896468
 30
0.0
 11
0.814537
 21
6.897972
 31
0.0
  0
LINE
  5
274
330
18
100
AcDbEntity
  8
0
100
AcDbLine
 10
0.814537
 20
6.897972
 30
0.0
 11
0.9119280000000001
 21
6.930364
 31
0.0
  0
LINE
  5
275
330
18
100
AcDbEntity
  8
0
100
AcDbLine
 10
0.9119280000000001
 20
6.930364
 30
0.0
 11
0.929241
 21
6.9303
 31
0.0
  0
LINE
  5
276
330
18
100
AcDbEntity
  8
0
100
AcDbLine
 10
0.989401
 20
7.033136
 30
0.0
 11
1.046332
 21
7.040038000000001
 31
0.0
  0
LINE
  5
277
330
18
100
AcDbEntity
  8
0
100
AcDbLine
 10
1.046332
 20
7.040038000000001
 30
0.0
 11
1.118817
 21
7.047708
 31
0.0
  0
LINE
  5
278
330
18
100
AcDbEntity
  8
0
100
AcDbLine
 10
1.118817
 20
7.047708
 30
0.0
 11
1.170459
 21
7.055456
 31
0.0
  0
LINE
  5
279
330
18
100
AcDbEntity
  8
0
100
AcDbLine
 10
1.170459
 20
7.055456
 30
0.0
 11
1.21613
 21
7.059257000000001
 31
0.0
  0
LINE
  5
27A
330
18
100
AcDbEntity
  8
0
100
AcDbLine
 10
1.21613
 20
7.059257000000001
 30
0.0
 11
1.283417
 21
7.058031
 31
0.0
  0
LINE
  5
27B
330
18
100
AcDbEntity
  8
0
100
AcDbLine
 10
0.7617010000000001
 20
6.970758999999999
 30
0.0
 11
0.783068
 21
6.976501
 31
0.0
  0
LINE
  5
27C
330
18
100
AcDbEntity
  8
0
100
AcDbLine
 10
0.783068
 20
6.976501
 30
0.0
 11
0.843709
 21
7.002082000000001
 31
0.0
  0
LINE
  5
27D
330
18
100
AcDbEntity
  8
0
100
AcDbLine
 10
0.843709
 20
7.002082000000001
 30
0.0
 11
0.893392
 21
7.016785000000001
 31
0.0
  0
LINE
  5
27E
330
18
100
AcDbEntity
  8
0
100
AcDbLine
 10
0.893392
 20
7.016785000000001
 30
0.0
 11
0.929241
 21
7.023708
 31
0.0
  0
LINE
  5
27F
330
18
100
AcDbEntity
  8
0
100
AcDbLine
 10
0.7617010000000001
 20
7.222621000000001
 30
0.0
 11
0.78801
 21
7.237525
 31
0.0
  0
LINE
  5
280
330
18
100
AcDbEntity
  8
0
100
AcDbLine
 10
0.78801
 20
7.237525
 30
0.0
 11
0.810879
 21
7.248358000000001
 31
0.0
  0
LINE
  5
281
330
18
100
AcDbEntity
  8
0
100
AcDbLine
 10
0.810879
 20
7.248358000000001
 30
0.0
 11
0.861591
 21
7.272983
 31
0.0
  0
LINE
  5
282
330
18
100
AcDbEntity
  8
0
100
AcDbLine
 10
0.861591
 20
7.272983
 30
0.0
 11
0.9042959999999999
 21
7.279772
 31
0.0
  0
LINE
  5
283
330
18
100
AcDbEntity
  8
0
100
AcDbLine
 10
0.9042959999999999
 20
7.279772
 30
0.0
 11
0.9589409999999999
 21
7.294457
 31
0.0
  0
LINE
  5
284
330
18
100
AcDbEntity
  8
0
100
AcDbLine
 10
0.9589409999999999
 20
7.294457
 30
0.0
 11
1.009602
 21
7.305186999999999
 31
0.0
  0
LINE
  5
285
330
18
100
AcDbEntity
  8
0
100
AcDbLine
 10
1.009602
 20
7.305186999999999
 30
0.0
 11
1.06622
 21
7.31568
 31
0.0
  0
LINE
  5
286
330
18
100
AcDbEntity
  8
0
100
AcDbLine
 10
0.7617010000000001
 20
7.287779
 30
0.0
 11
0.782324
 21
7.310003
 31
0.0
  0
LINE
  5
287
330
18
100
AcDbEntity
  8
0
100
AcDbLine
 10
0.782324
 20
7.310003
 30
0.0
 11
0.80816
 21
7.317847
 31
0.0
  0
LINE
  5
288
330
18
100
AcDbEntity
  8
0
100
AcDbLine
 10
0.80816
 20
7.317847
 30
0.0
 11
0.834018
 21
7.331647
 31
0.0
  0
LINE
  5
289
330
18
100
AcDbEntity
  8
0
100
AcDbLine
 10
0.834018
 20
7.331647
 30
0.0
 11
0.8667860000000001
 21
7.335495
 31
0.0
  0
LINE
  5
28A
330
18
100
AcDbEntity
  8
0
100
AcDbLine
 10
0.8667860000000001
 20
7.335495
 30
0.0
 11
0.898596
 21
7.34828
 31
0.0
  0
LINE
  5
28B
330
18
100
AcDbEntity
  8
0
100
AcDbLine
 10
0.898596
 20
7.34828
 30
0.0
 11
0.9502370000000001
 21
7.356028
 31
0.0
  0
LINE
  5
28C
330
18
100
AcDbEntity
  8
0
100
AcDbLine
 10
0.9502370000000001
 20
7.356028
 30
0.0
 11
0.987958
 21
7.35688
 31
0.0
  0
LINE
  5
28D
330
18
100
AcDbEntity
  8
0
100
AcDbLine
 10
0.880006
 20
7.413894
 30
0.0
 11
0.8372209999999999
 21
7.392181
 31
0.0
  0
LINE
  5
28E
330
18
100
AcDbEntity
  8
0
100
AcDbLine
 10
0.8372209999999999
 20
7.392181
 30
0.0
 11
0.80543
 21
7.384359
 31
0.0
  0
LINE
  5
28F
330
18
100
AcDbEntity
  8
0
100
AcDbLine
 10
0.80543
 20
7.384359
 30
0.0
 11
0.78155
 21
7.368567
 31
0.0
  0
LINE
  5
290
330
18
100
AcDbEntity
  8
0
100
AcDbLine
 10
0.78155
 20
7.368567
 30
0.0
 11
0.7617010000000001
 21
7.343839999999999
 31
0.0
  0
LINE
  5
291
330
18
100
AcDbEntity
  8
0
100
AcDbLine
 10
0.7617010000000001
 20
7.036214
 30
0.0
 11
0.783297
 21
7.038039
 31
0.0
  0
LINE
  5
292
330
18
100
AcDbEntity
  8
0
100
AcDbLine
 10
0.783297
 20
7.038039
 30
0.0
 11
0.8180729999999999
 21
7.047835000000001
 31
0.0
  0
LINE
  5
293
330
18
100
AcDbEntity
  8
0
100
AcDbLine
 10
0.8180729999999999
 20
7.047835000000001
 30
0.0
 11
0.8468899999999999
 21
7.056661
 31
0.0
  0
LINE
  5
294
330
18
100
AcDbEntity
  8
0
100
AcDbLine
 10
0.8468899999999999
 20
7.056661
 30
0.0
 11
0.896576
 21
7.072357000000001
 31
0.0
  0
LINE
  5
295
330
18
100
AcDbEntity
  8
0
100
AcDbLine
 10
0.896576
 20
7.072357000000001
 30
0.0
 11
0.948233
 21
7.084075
 31
0.0
  0
LINE
  5
296
330
18
100
AcDbEntity
  8
0
100
AcDbLine
 10
0.948233
 20
7.084075
 30
0.0
 11
1.015781
 21
7.098712
 31
0.0
  0
LINE
  5
297
330
18
100
AcDbEntity
  8
0
100
AcDbLine
 10
1.015781
 20
7.098712
 30
0.0
 11
1.085296
 21
7.108378999999999
 31
0.0
  0
LINE
  5
298
330
18
100
AcDbEntity
  8
0
100
AcDbLine
 10
1.085296
 20
7.108378999999999
 30
0.0
 11
1.154766
 21
7.106135000000001
 31
0.0
  0
LINE
  5
299
330
18
100
AcDbEntity
  8
0
100
AcDbLine
 10
1.154766
 20
7.106135000000001
 30
0.0
 11
1.203405
 21
7.106947
 31
0.0
  0
LINE
  5
29A
330
18
100
AcDbEntity
  8
0
100
AcDbLine
 10
1.203405
 20
7.106947
 30
0.0
 11
1.244106
 21
7.10878
 31
0.0
  0
LINE
  5
29B
330
18
100
AcDbEntity
  8
0
100
AcDbLine
 10
1.244106
 20
7.10878
 30
0.0
 11
1.283417
 21
7.115182000000001
 31
0.0
  0
LINE
  5
29C
330
18
100
AcDbEntity
  8
0
100
AcDbLine
 10
0.7617010000000001
 20
7.074526
 30
0.0
 11
0.794389
 21
7.084648
 31
0.0
  0
LINE
  5
29D
330
18
100
AcDbEntity
  8
0
100
AcDbLine
 10
0.794389
 20
7.084648
 30
0.0
 11
0.813276
 21
7.092517999999999
 31
0.0
  0
LINE
  5
29E
330
18
100
AcDbEntity
  8
0
100
AcDbLine
 10
0.813276
 20
7.092517999999999
 30
0.0
 11
0.8570180000000001
 21
7.111214
 31
0.0
  0
LINE
  5
29F
330
18
100
AcDbEntity
  8
0
100
AcDbLine
 10
0.8570180000000001
 20
7.111214
 30
0.0
 11
0.886861
 21
7.128969000000001
 31
0.0
  0
LINE
  5
2A0
330
18
100
AcDbEntity
  8
0
100
AcDbLine
 10
0.886861
 20
7.128969000000001
 30
0.0
 11
0.9316110000000001
 21
7.151631
 31
0.0
  0
LINE
  5
2A1
330
18
100
AcDbEntity
  8
0
100
AcDbLine
 10
0.9316110000000001
 20
7.151631
 30
0.0
 11
0.9833
 21
7.172282000000001
 31
0.0
  0
LINE
  5
2A2
330
18
100
AcDbEntity
  8
0
100
AcDbLine
 10
0.9833
 20
7.172282000000001
 30
0.0
 11
1.051867
 21
7.193863
 31
0.0
  0
LINE
  5
2A3
330
18
100
AcDbEntity
  8
0
100
AcDbLine
 10
1.051867
 20
7.193863
 30
0.0
 11
1.134241
 21
7.191571000000001
 31
0.0
  0
LINE
  5
2A4
330
18
100
AcDbEntity
  8
0
100
AcDbLine
 10
1.134241
 20
7.191571000000001
 30
0.0
 11
1.216622
 21
7.191265
 31
0.0
  0
LINE
  5
2A5
330
18
100
AcDbEntity
  8
0
100
AcDbLine
 10
1.216622
 20
7.191265
 30
0.0
 11
1.262279
 21
7.191095
 31
0.0
  0
LINE
  5
2A6
330
18
100
AcDbEntity
  8
0
100
AcDbLine
 10
1.262279
 20
7.191095
 30
0.0
 11
1.283417
 21
7.189827999999999
 31
0.0
  0
LINE
  5
2A7
330
18
100
AcDbEntity
  8
0
100
AcDbLine
 10
0.7617010000000001
 20
7.149104
 30
0.0
 11
0.787766
 21
7.172016999999999
 31
0.0
  0
LINE
  5
2A8
330
18
100
AcDbEntity
  8
0
100
AcDbLine
 10
0.787766
 20
7.172016999999999
 30
0.0
 11
0.838441
 21
7.186717
 31
0.0
  0
LINE
  5
2A9
330
18
100
AcDbEntity
  8
0
100
AcDbLine
 10
0.838441
 20
7.186717
 30
0.0
 11
0.8901120000000001
 21
7.202406
 31
0.0
  0
LINE
  5
2AA
330
18
100
AcDbEntity
  8
0
100
AcDbLine
 10
0.8901120000000001
 20
7.202406
 30
0.0
 11
0.9497610000000001
 21
7.227989999999999
 31
0.0
  0
LINE
  5
2AB
330
18
100
AcDbEntity
  8
0
100
AcDbLine
 10
0.9497610000000001
 20
7.227989999999999
 30
0.0
 11
1.01532
 21
7.241642
 31
0.0
  0
LINE
  5
2AC
330
18
100
AcDbEntity
  8
0
100
AcDbLine
 10
1.01532
 20
7.241642
 30
0.0
 11
1.076917
 21
7.257292999999999
 31
0.0
  0
LINE
  5
2AD
330
18
100
AcDbEntity
  8
0
100
AcDbLine
 10
1.076917
 20
7.257292999999999
 30
0.0
 11
1.130544
 21
7.265034
 31
0.0
  0
LINE
  5
2AE
330
18
100
AcDbEntity
  8
0
100
AcDbLine
 10
1.130544
 20
7.265034
 30
0.0
 11
1.154018
 21
7.269373
 31
0.0
  0
LINE
  5
2AF
330
18
100
AcDbEntity
  8
0
100
AcDbLine
 10
2.230821
 20
6.800358999999999
 30
0.0
 11
2.328721
 21
6.775214999999999
 31
0.0
  0
LINE
  5
2B0
330
18
100
AcDbEntity
  8
0
100
AcDbLine
 10
2.328721
 20
6.775214999999999
 30
0.0
 11
2.444911
 21
6.791656
 31
0.0
  0
LINE
  5
2B1
330
18
100
AcDbEntity
  8
0
100
AcDbLine
 10
2.444911
 20
6.791656
 30
0.0
 11
2.579978
 21
6.812989
 31
0.0
  0
LINE
  5
2B2
330
18
100
AcDbEntity
  8
0
100
AcDbLine
 10
2.579978
 20
6.812989
 30
0.0
 11
2.668196
 21
6.780899000000001
 31
0.0
  0
LINE
  5
2B3
330
18
100
AcDbEntity
  8
0
100
AcDbLine
 10
2.668196
 20
6.780899000000001
 30
0.0
 11
2.746459
 21
6.740906
 31
0.0
  0
LINE
  5
2B4
330
18
100
AcDbEntity
  8
0
100
AcDbLine
 10
2.746459
 20
6.740906
 30
0.0
 11
2.834585
 21
6.684002
 31
0.0
  0
LINE
  5
2B5
330
18
100
AcDbEntity
  8
0
100
AcDbLine
 10
2.834585
 20
6.684002
 30
0.0
 11
2.909944
 21
6.663869999999999
 31
0.0
  0
LINE
  5
2B6
330
18
100
AcDbEntity
  8
0
100
AcDbLine
 10
2.909944
 20
6.663869999999999
 30
0.0
 11
2.993292
 21
6.656612
 31
0.0
  0
LINE
  5
2B7
330
18
100
AcDbEntity
  8
0
100
AcDbLine
 10
2.993292
 20
6.656612
 30
0.0
 11
3.104275
 21
6.607564
 31
0.0
  0
LINE
  5
2B8
330
18
100
AcDbEntity
  8
0
100
AcDbLine
 10
3.104275
 20
6.607564
 30
0.0
 11
3.183441
 21
6.577931
 31
0.0
  0
LINE
  5
2B9
330
18
100
AcDbEntity
  8
0
100
AcDbLine
 10
3.010134
 20
7.203736
 30
0.0
 11
3.045803
 21
7.164605
 31
0.0
  0
LINE
  5
2BA
330
18
100
AcDbEntity
  8
0
100
AcDbLine
 10
3.045803
 20
7.164605
 30
0.0
 11
3.101308
 21
7.143555
 31
0.0
  0
LINE
  5
2BB
330
18
100
AcDbEntity
  8
0
100
AcDbLine
 10
3.101308
 20
7.143555
 30
0.0
 11
3.169778
 21
7.13933
 31
0.0
  0
LINE
  5
2BC
330
18
100
AcDbEntity
  8
0
100
AcDbLine
 10
3.169778
 20
7.13933
 30
0.0
 11
3.183441
 21
7.133006
 31
0.0
  0
LINE
  5
2BD
330
18
100
AcDbEntity
  8
0
100
AcDbLine
 10
1.093711
 20
3.481267
 30
0.0
 11
1.121538
 21
3.512214
 31
0.0
  0
LINE
  5
2BE
330
18
100
AcDbEntity
  8
0
100
AcDbLine
 10
1.121538
 20
3.512214
 30
0.0
 11
1.179313
 21
3.567582
 31
0.0
  0
LINE
  5
2BF
330
18
100
AcDbEntity
  8
0
100
AcDbLine
 10
1.179313
 20
3.567582
 30
0.0
 11
1.264867
 21
3.619869
 31
0.0
  0
LINE
  5
2C0
330
18
100
AcDbEntity
  8
0
100
AcDbLine
 10
1.264867
 20
3.619869
 30
0.0
 11
1.310635
 21
3.649476
 31
0.0
  0
LINE
  5
2C1
330
18
100
AcDbEntity
  8
0
100
AcDbLine
 10
1.310635
 20
3.649476
 30
0.0
 11
1.379172
 21
3.663116000000001
 31
0.0
  0
LINE
  5
2C2
330
18
100
AcDbEntity
  8
0
100
AcDbLine
 10
1.379172
 20
3.663116000000001
 30
0.0
 11
1.438913
 21
3.713514
 31
0.0
  0
LINE
  5
2C3
330
18
100
AcDbEntity
  8
0
100
AcDbLine
 10
1.438913
 20
3.713514
 30
0.0
 11
1.498632
 21
3.757957
 31
0.0
  0
LINE
  5
2C4
330
18
100
AcDbEntity
  8
0
100
AcDbLine
 10
1.498632
 20
3.757957
 30
0.0
 11
1.595134
 21
3.818144
 31
0.0
  0
LINE
  5
2C5
330
18
100
AcDbEntity
  8
0
100
AcDbLine
 10
1.595134
 20
3.818144
 30
0.0
 11
1.643923
 21
3.85965
 31
0.0
  0
LINE
  5
2C6
330
18
100
AcDbEntity
  8
0
100
AcDbLine
 10
1.643923
 20
3.85965
 30
0.0
 11
1.720744
 21
3.965567
 31
0.0
  0
LINE
  5
2C7
330
18
100
AcDbEntity
  8
0
100
AcDbLine
 10
1.720744
 20
3.965567
 30
0.0
 11
1.731836
 21
4.012176
 31
0.0
  0
LINE
  5
2C8
330
18
100
AcDbEntity
  8
0
100
AcDbLine
 10
1.731836
 20
4.012176
 30
0.0
 11
1.801654
 21
4.103231
 31
0.0
  0
LINE
  5
2C9
330
18
100
AcDbEntity
  8
0
100
AcDbLine
 10
1.801654
 20
4.103231
 30
0.0
 11
1.83453
 21
4.135863
 31
0.0
  0
LINE
  5
2CA
330
18
100
AcDbEntity
  8
0
100
AcDbLine
 10
1.83453
 20
4.135863
 30
0.0
 11
1.86745
 21
4.180406
 31
0.0
  0
LINE
  5
2CB
330
18
100
AcDbEntity
  8
0
100
AcDbLine
 10
1.86745
 20
4.180406
 30
0.0
 11
1.905488
 21
4.266616
 31
0.0
  0
LINE
  5
2CC
330
18
100
AcDbEntity
  8
0
100
AcDbLine
 10
1.905488
 20
4.266616
 30
0.0
 11
1.951429
 21
4.342872
 31
0.0
  0
LINE
  5
2CD
330
18
100
AcDbEntity
  8
0
100
AcDbLine
 10
1.951429
 20
4.342872
 30
0.0
 11
1.968043
 21
4.365538
 31
0.0
  0
LINE
  5
2CE
330
18
100
AcDbEntity
  8
0
100
AcDbLine
 10
1.093711
 20
2.896499
 30
0.0
 11
1.105367
 21
2.90086
 31
0.0
  0
LINE
  5
2CF
330
18
100
AcDbEntity
  8
0
100
AcDbLine
 10
1.105367
 20
2.90086
 30
0.0
 11
1.168034
 21
2.937351
 31
0.0
  0
LINE
  5
2D0
330
18
100
AcDbEntity
  8
0
100
AcDbLine
 10
1.168034
 20
2.937351
 30
0.0
 11
1.236704
 21
2.986724
 31
0.0
  0
LINE
  5
2D1
330
18
100
AcDbEntity
  8
0
100
AcDbLine
 10
1.236704
 20
2.986724
 30
0.0
 11
1.3143
 21
3.034077
 31
0.0
  0
LINE
  5
2D2
330
18
100
AcDbEntity
  8
0
100
AcDbLine
 10
1.3143
 20
3.034077
 30
0.0
 11
1.400887
 21
3.097279
 31
0.0
  0
LINE
  5
2D3
330
18
100
AcDbEntity
  8
0
100
AcDbLine
 10
1.400887
 20
3.097279
 30
0.0
 11
1.484416
 21
3.138655
 31
0.0
  0
LINE
  5
2D4
330
18
100
AcDbEntity
  8
0
100
AcDbLine
 10
1.484416
 20
3.138655
 30
0.0
 11
1.533246
 21
3.191079
 31
0.0
  0
LINE
  5
2D5
330
18
100
AcDbEntity
  8
0
100
AcDbLine
 10
1.533246
 20
3.191079
 30
0.0
 11
1.607964
 21
3.265242
 31
0.0
  0
LINE
  5
2D6
330
18
100
AcDbEntity
  8
0
100
AcDbLine
 10
1.607964
 20
3.265242
 30
0.0
 11
1.678671
 21
3.328503
 31
0.0
  0
LINE
  5
2D7
330
18
100
AcDbEntity
  8
0
100
AcDbLine
 10
1.678671
 20
3.328503
 30
0.0
 11
1.747448
 21
3.406658999999999
 31
0.0
  0
LINE
  5
2D8
330
18
100
AcDbEntity
  8
0
100
AcDbLine
 10
1.747448
 20
3.406658999999999
 30
0.0
 11
1.816277
 21
3.49871
 31
0.0
  0
LINE
  5
2D9
330
18
100
AcDbEntity
  8
0
100
AcDbLine
 10
1.816277
 20
3.49871
 30
0.0
 11
1.902976
 21
3.591688
 31
0.0
  0
LINE
  5
2DA
330
18
100
AcDbEntity
  8
0
100
AcDbLine
 10
1.902976
 20
3.591688
 30
0.0
 11
1.968043
 21
3.63417
 31
0.0
  0
LINE
  5
2DB
330
18
100
AcDbEntity
  8
0
100
AcDbLine
 10
1.093711
 20
5.555631
 30
0.0
 11
1.176547
 21
5.491166000000001
 31
0.0
  0
LINE
  5
2DC
330
18
100
AcDbEntity
  8
0
100
AcDbLine
 10
1.176547
 20
5.491166000000001
 30
0.0
 11
1.304455
 21
5.45595
 31
0.0
  0
LINE
  5
2DD
330
18
100
AcDbEntity
  8
0
100
AcDbLine
 10
1.304455
 20
5.45595
 30
0.0
 11
1.41955
 21
5.444604
 31
0.0
  0
LINE
  5
2DE
330
18
100
AcDbEntity
  8
0
100
AcDbLine
 10
1.41955
 20
5.444604
 30
0.0
 11
1.471162
 21
5.444412000000001
 31
0.0
  0
LINE
  5
2DF
330
18
100
AcDbEntity
  8
0
100
AcDbLine
 10
1.471162
 20
5.444412000000001
 30
0.0
 11
1.548469
 21
5.414347
 31
0.0
  0
LINE
  5
2E0
330
18
100
AcDbEntity
  8
0
100
AcDbLine
 10
1.548469
 20
5.414347
 30
0.0
 11
1.607915
 21
5.385342
 31
0.0
  0
LINE
  5
2E1
330
18
100
AcDbEntity
  8
0
100
AcDbLine
 10
1.607915
 20
5.385342
 30
0.0
 11
1.689111
 21
5.333427
 31
0.0
  0
LINE
  5
2E2
330
18
100
AcDbEntity
  8
0
100
AcDbLine
 10
1.689111
 20
5.333427
 30
0.0
 11
1.734469
 21
5.252861
 31
0.0
  0
LINE
  5
2E3
330
18
100
AcDbEntity
  8
0
100
AcDbLine
 10
1.734469
 20
5.252861
 30
0.0
 11
1.739225
 21
5.19726
 31
0.0
  0
LINE
  5
2E4
330
18
100
AcDbEntity
  8
0
100
AcDbLine
 10
1.739225
 20
5.19726
 30
0.0
 11
1.741999
 21
5.142659
 31
0.0
  0
LINE
  5
2E5
330
18
100
AcDbEntity
  8
0
100
AcDbLine
 10
1.741999
 20
5.142659
 30
0.0
 11
1.777413
 21
5.057168
 31
0.0
  0
LINE
  5
2E6
330
18
100
AcDbEntity
  8
0
100
AcDbLine
 10
1.777413
 20
5.057168
 30
0.0
 11
1.801975
 21
4.989582
 31
0.0
  0
LINE
  5
2E7
330
18
100
AcDbEntity
  8
0
100
AcDbLine
 10
1.801975
 20
4.989582
 30
0.0
 11
1.782807
 21
4.906279000000001
 31
0.0
  0
LINE
  5
2E8
330
18
100
AcDbEntity
  8
0
100
AcDbLine
 10
1.782807
 20
4.906279000000001
 30
0.0
 11
1.749739
 21
4.822035
 31
0.0
  0
LINE
  5
2E9
330
18
100
AcDbEntity
  8
0
100
AcDbLine
 10
1.749739
 20
4.822035
 30
0.0
 11
1.662955
 21
4.706229
 31
0.0
  0
LINE
  5
2EA
330
18
100
AcDbEntity
  8
0
100
AcDbLine
 10
1.662955
 20
4.706229
 30
0.0
 11
1.573194
 21
4.590433999999999
 31
0.0
  0
LINE
  5
2EB
330
18
100
AcDbEntity
  8
0
100
AcDbLine
 10
1.573194
 20
4.590433999999999
 30
0.0
 11
1.500318
 21
4.477554000000001
 31
0.0
  0
LINE
  5
2EC
330
18
100
AcDbEntity
  8
0
100
AcDbLine
 10
1.500318
 20
4.477554000000001
 30
0.0
 11
1.447395
 21
4.392391
 31
0.0
  0
LINE
  5
2ED
330
18
100
AcDbEntity
  8
0
100
AcDbLine
 10
1.447395
 20
4.392391
 30
0.0
 11
1.410394
 21
4.318087
 31
0.0
  0
LINE
  5
2EE
330
18
100
AcDbEntity
  8
0
100
AcDbLine
 10
1.410394
 20
4.318087
 30
0.0
 11
1.37029
 21
4.210048000000001
 31
0.0
  0
LINE
  5
2EF
330
18
100
AcDbEntity
  8
0
100
AcDbLine
 10
1.37029
 20
4.210048000000001
 30
0.0
 11
1.321289
 21
4.111967
 31
0.0
  0
LINE
  5
2F0
330
18
100
AcDbEntity
  8
0
100
AcDbLine
 10
1.321289
 20
4.111967
 30
0.0
 11
1.23375
 21
4.059687
 31
0.0
  0
LINE
  5
2F1
330
18
100
AcDbEntity
  8
0
100
AcDbLine
 10
1.23375
 20
4.059687
 30
0.0
 11
1.157032
 21
3.981561
 31
0.0
  0
LINE
  5
2F2
330
18
100
AcDbEntity
  8
0
100
AcDbLine
 10
1.157032
 20
3.981561
 30
0.0
 11
1.121138
 21
3.938022
 31
0.0
  0
LINE
  5
2F3
330
18
100
AcDbEntity
  8
0
100
AcDbLine
 10
1.121138
 20
3.938022
 30
0.0
 11
1.093711
 21
3.924942
 31
0.0
  0
LINE
  5
2F4
330
18
100
AcDbEntity
  8
0
100
AcDbLine
 10
1.093711
 20
6.011805000000001
 30
0.0
 11
1.213066
 21
5.969442
 31
0.0
  0
LINE
  5
2F5
330
18
100
AcDbEntity
  8
0
100
AcDbLine
 10
1.213066
 20
5.969442
 30
0.0
 11
1.291429
 21
5.956247
 31
0.0
  0
LINE
  5
2F6
330
18
100
AcDbEntity
  8
0
100
AcDbLine
 10
1.291429
 20
5.956247
 30
0.0
 11
1.363885
 21
5.955977
 31
0.0
  0
LINE
  5
2F7
330
18
100
AcDbEntity
  8
0
100
AcDbLine
 10
1.363885
 20
5.955977
 30
0.0
 11
1.45528
 21
5.977473000000001
 31
0.0
  0
LINE
  5
2F8
330
18
100
AcDbEntity
  8
0
100
AcDbLine
 10
1.45528
 20
5.977473000000001
 30
0.0
 11
1.511803
 21
5.963367
 31
0.0
  0
LINE
  5
2F9
330
18
100
AcDbEntity
  8
0
100
AcDbLine
 10
1.511803
 20
5.963367
 30
0.0
 11
1.551387
 21
5.931458
 31
0.0
  0
LINE
  5
2FA
330
18
100
AcDbEntity
  8
0
100
AcDbLine
 10
1.551387
 20
5.931458
 30
0.0
 11
1.615784
 21
5.899456
 31
0.0
  0
LINE
  5
2FB
330
18
100
AcDbEntity
  8
0
100
AcDbLine
 10
1.615784
 20
5.899456
 30
0.0
 11
1.652474
 21
5.890387000000001
 31
0.0
  0
LINE
  5
2FC
330
18
100
AcDbEntity
  8
0
100
AcDbLine
 10
1.652474
 20
5.890387000000001
 30
0.0
 11
1.723949
 21
5.893098999999999
 31
0.0
  0
LINE
  5
2FD
330
18
100
AcDbEntity
  8
0
100
AcDbLine
 10
1.723949
 20
5.893098999999999
 30
0.0
 11
1.793349
 21
5.871997
 31
0.0
  0
LINE
  5
2FE
330
18
100
AcDbEntity
  8
0
100
AcDbLine
 10
1.793349
 20
5.871997
 30
0.0
 11
1.861724
 21
5.841965
 31
0.0
  0
LINE
  5
2FF
330
18
100
AcDbEntity
  8
0
100
AcDbLine
 10
1.861724
 20
5.841965
 30
0.0
 11
1.904281
 21
5.809053
 31
0.0
  0
LINE
  5
300
330
18
100
AcDbEntity
  8
0
100
AcDbLine
 10
1.904281
 20
5.809053
 30
0.0
 11
1.968043
 21
5.780519
 31
0.0
  0
LINE
  5
301
330
18
100
AcDbEntity
  8
0
100
AcDbLine
 10
1.093711
 20
6.604114
 30
0.0
 11
1.174604
 21
6.569089
 31
0.0
  0
LINE
  5
302
330
18
100
AcDbEntity
  8
0
100
AcDbLine
 10
1.174604
 20
6.569089
 30
0.0
 11
1.228194
 21
6.566903999999999
 31
0.0
  0
LINE
  5
303
330
18
100
AcDbEntity
  8
0
100
AcDbLine
 10
1.228194
 20
6.566903999999999
 30
0.0
 11
1.288591
 21
6.526977
 31
0.0
  0
LINE
  5
304
330
18
100
AcDbEntity
  8
0
100
AcDbLine
 10
1.288591
 20
6.526977
 30
0.0
 11
1.378842
 21
6.507783
 31
0.0
  0
LINE
  5
305
330
18
100
AcDbEntity
  8
0
100
AcDbLine
 10
1.378842
 20
6.507783
 30
0.0
 11
1.459238
 21
6.507483000000001
 31
0.0
  0
LINE
  5
306
330
18
100
AcDbEntity
  8
0
100
AcDbLine
 10
1.459238
 20
6.507483000000001
 30
0.0
 11
1.536623
 21
6.498262
 31
0.0
  0
LINE
  5
307
330
18
100
AcDbEntity
  8
0
100
AcDbLine
 10
1.536623
 20
6.498262
 30
0.0
 11
1.611045
 21
6.493022
 31
0.0
  0
LINE
  5
308
330
18
100
AcDbEntity
  8
0
100
AcDbLine
 10
1.611045
 20
6.493022
 30
0.0
 11
1.658669
 21
6.487882
 31
0.0
  0
LINE
  5
309
330
18
100
AcDbEntity
  8
0
100
AcDbLine
 10
1.658669
 20
6.487882
 30
0.0
 11
1.704359
 21
6.496645
 31
0.0
  0
LINE
  5
30A
330
18
100
AcDbEntity
  8
0
100
AcDbLine
 10
1.704359
 20
6.496645
 30
0.0
 11
1.763
 21
6.518263
 31
0.0
  0
LINE
  5
30B
330
18
100
AcDbEntity
  8
0
100
AcDbLine
 10
1.763
 20
6.518263
 30
0.0
 11
1.838448
 21
6.521953
 31
0.0
  0
LINE
  5
30C
330
18
100
AcDbEntity
  8
0
100
AcDbLine
 10
1.838448
 20
6.521953
 30
0.0
 11
1.897875
 21
6.487985
 31
0.0
  0
LINE
  5
30D
330
18
100
AcDbEntity
  8
0
100
AcDbLine
 10
1.897875
 20
6.487985
 30
0.0
 11
1.942432
 21
6.459035
 31
0.0
  0
LINE
  5
30E
330
18
100
AcDbEntity
  8
0
100
AcDbLine
 10
1.942432
 20
6.459035
 30
0.0
 11
1.968043
 21
6.458265
 31
0.0
  0
LINE
  5
30F
330
18
100
AcDbEntity
  8
0
100
AcDbLine
 10
5.866695
 20
3.617013
 30
0.0
 11
5.834383
 21
3.563159
 31
0.0
  0
LINE
  5
310
330
18
100
AcDbEntity
  8
0
100
AcDbLine
 10
5.834383
 20
3.563159
 30
0.0
 11
5.788497
 21
3.501791
 31
0.0
  0
LINE
  5
311
330
18
100
AcDbEntity
  8
0
100
AcDbLine
 10
5.788497
 20
3.501791
 30
0.0
 11
5.735501
 21
3.396778
 31
0.0
  0
LINE
  5
312
330
18
100
AcDbEntity
  8
0
100
AcDbLine
 10
5.735501
 20
3.396778
 30
0.0
 11
5.694544000000001
 21
3.326459
 31
0.0
  0
LINE
  5
313
330
18
100
AcDbEntity
  8
0
100
AcDbLine
 10
5.694544000000001
 20
3.326459
 30
0.0
 11
5.622627
 21
3.204642
 31
0.0
  0
LINE
  5
314
330
18
100
AcDbEntity
  8
0
100
AcDbLine
 10
5.622627
 20
3.204642
 30
0.0
 11
5.556716000000001
 21
3.096699
 31
0.0
  0
LINE
  5
315
330
18
100
AcDbEntity
  8
0
100
AcDbLine
 10
5.556716000000001
 20
3.096699
 30
0.0
 11
5.468903
 21
2.970971
 31
0.0
  0
LINE
  5
316
330
18
100
AcDbEntity
  8
0
100
AcDbLine
 10
5.468903
 20
2.970971
 30
0.0
 11
5.345281
 21
2.824533
 31
0.0
  0
LINE
  5
317
330
18
100
AcDbEntity
  8
0
100
AcDbLine
 10
5.345281
 20
2.824533
 30
0.0
 11
5.241651
 21
2.715737
 31
0.0
  0
LINE
  5
318
330
18
100
AcDbEntity
  8
0
100
AcDbLine
 10
5.241651
 20
2.715737
 30
0.0
 11
5.113162
 21
2.595124
 31
0.0
  0
LINE
  5
319
330
18
100
AcDbEntity
  8
0
100
AcDbLine
 10
5.113162
 20
2.595124
 30
0.0
 11
4.968763
 21
2.466629
 31
0.0
  0
LINE
  5
31A
330
18
100
AcDbEntity
  8
0
100
AcDbLine
 10
4.968763
 20
2.466629
 30
0.0
 11
4.834378
 21
2.361918
 31
0.0
  0
LINE
  5
31B
330
18
100
AcDbEntity
  8
0
100
AcDbLine
 10
4.834378
 20
2.361918
 30
0.0
 11
4.720904
 21
2.274996
 31
0.0
  0
LINE
  5
31C
330
18
100
AcDbEntity
  8
0
100
AcDbLine
 10
4.720904
 20
2.274996
 30
0.0
 11
4.648223000000001
 21
2.21472
 31
0.0
  0
LINE
  5
31D
330
18
100
AcDbEntity
  8
0
100
AcDbLine
 10
4.648223000000001
 20
2.21472
 30
0.0
 11
4.595381
 21
2.151393
 31
0.0
  0
LINE
  5
31E
330
18
100
AcDbEntity
  8
0
100
AcDbLine
 10
4.595381
 20
2.151393
 30
0.0
 11
4.577497
 21
2.124406
 31
0.0
  0
LINE
  5
31F
330
18
100
AcDbEntity
  8
0
100
AcDbLine
 10
5.864548
 20
4.734262999999999
 30
0.0
 11
5.818437
 21
4.61235
 31
0.0
  0
LINE
  5
320
330
18
100
AcDbEntity
  8
0
100
AcDbLine
 10
5.818437
 20
4.61235
 30
0.0
 11
5.770355
 21
4.494415
 31
0.0
  0
LINE
  5
321
330
18
100
AcDbEntity
  8
0
100
AcDbLine
 10
5.770355
 20
4.494415
 30
0.0
 11
5.725155
 21
4.350662000000001
 31
0.0
  0
LINE
  5
322
330
18
100
AcDbEntity
  8
0
100
AcDbLine
 10
5.725155
 20
4.350662000000001
 30
0.0
 11
5.660053
 21
4.193088
 31
0.0
  0
LINE
  5
323
330
18
100
AcDbEntity
  8
0
100
AcDbLine
 10
5.660053
 20
4.193088
 30
0.0
 11
5.578088
 21
4.038555000000001
 31
0.0
  0
LINE
  5
324
330
18
100
AcDbEntity
  8
0
100
AcDbLine
 10
5.578088
 20
4.038555000000001
 30
0.0
 11
5.502104
 21
3.890947
 31
0.0
  0
LINE
  5
325
330
18
100
AcDbEntity
  8
0
100
AcDbLine
 10
5.502104
 20
3.890947
 30
0.0
 11
5.424099
 21
3.733421
 31
0.0
  0
LINE
  5
326
330
18
100
AcDbEntity
  8
0
100
AcDbLine
 10
5.424099
 20
3.733421
 30
0.0
 11
5.348148
 21
3.594745
 31
0.0
  0
LINE
  5
327
330
18
100
AcDbEntity
  8
0
100
AcDbLine
 10
5.348148
 20
3.594745
 30
0.0
 11
5.252292
 21
3.441256
 31
0.0
  0
LINE
  5
328
330
18
100
AcDbEntity
  8
0
100
AcDbLine
 10
5.252292
 20
3.441256
 30
0.0
 11
5.172482
 21
3.332372
 31
0.0
  0
LINE
  5
329
330
18
100
AcDbEntity
  8
0
100
AcDbLine
 10
5.172482
 20
3.332372
 30
0.0
 11
5.069766
 21
3.202729
 31
0.0
  0
LINE
  5
32A
330
18
100
AcDbEntity
  8
0
100
AcDbLine
 10
5.069766
 20
3.202729
 30
0.0
 11
4.992015
 21
3.113689
 31
0.0
  0
LINE
  5
32B
330
18
100
AcDbEntity
  8
0
100
AcDbLine
 10
4.992015
 20
3.113689
 30
0.0
 11
4.863449
 21
2.972232
 31
0.0
  0
LINE
  5
32C
330
18
100
AcDbEntity
  8
0
100
AcDbLine
 10
4.863449
 20
2.972232
 30
0.0
 11
4.719013
 21
2.833812
 31
0.0
  0
LINE
  5
32D
330
18
100
AcDbEntity
  8
0
100
AcDbLine
 10
4.719013
 20
2.833812
 30
0.0
 11
4.592554
 21
2.725101
 31
0.0
  0
LINE
  5
32E
330
18
100
AcDbEntity
  8
0
100
AcDbLine
 10
4.592554
 20
2.725101
 30
0.0
 11
4.577497
 21
2.712092
 31
0.0
  0
LINE
  5
32F
330
18
100
AcDbEntity
  8
0
100
AcDbLine
 10
5.866695
 20
5.812323999999999
 30
0.0
 11
5.85551
 21
5.77251
 31
0.0
  0
LINE
  5
330
330
18
100
AcDbEntity
  8
0
100
AcDbLine
 10
5.85551
 20
5.77251
 30
0.0
 11
5.812354
 21
5.644631
 31
0.0
  0
LINE
  5
331
330
18
100
AcDbEntity
  8
0
100
AcDbLine
 10
5.812354
 20
5.644631
 30
0.0
 11
5.792082
 21
5.531555
 31
0.0
  0
LINE
  5
332
330
18
100
AcDbEntity
  8
0
100
AcDbLine
 10
5.792082
 20
5.531555
 30
0.0
 11
5.748789
 21
5.366951
 31
0.0
  0
LINE
  5
333
330
18
100
AcDbEntity
  8
0
100
AcDbLine
 10
5.748789
 20
5.366951
 30
0.0
 11
5.723676
 21
5.286648000000001
 31
0.0
  0
LINE
  5
334
330
18
100
AcDbEntity
  8
0
100
AcDbLine
 10
5.723676
 20
5.286648000000001
 30
0.0
 11
5.721603
 21
5.262834
 31
0.0
  0
LINE
  5
335
330
18
100
AcDbEntity
  8
0
100
AcDbLine
 10
5.721603
 20
5.262834
 30
0.0
 11
5.692353
 21
5.137881
 31
0.0
  0
LINE
  5
336
330
18
100
AcDbEntity
  8
0
100
AcDbLine
 10
5.692353
 20
5.137881
 30
0.0
 11
5.631129000000001
 21
4.955479
 31
0.0
  0
LINE
  5
337
330
18
100
AcDbEntity
  8
0
100
AcDbLine
 10
5.631129000000001
 20
4.955479
 30
0.0
 11
5.568919
 21
4.775065000000001
 31
0.0
  0
LINE
  5
338
330
18
100
AcDbEntity
  8
0
100
AcDbLine
 10
5.568919
 20
4.775065000000001
 30
0.0
 11
5.508764
 21
4.613502
 31
0.0
  0
LINE
  5
339
330
18
100
AcDbEntity
  8
0
100
AcDbLine
 10
5.508764
 20
4.613502
 30
0.0
 11
5.439669
 21
4.449987999999999
 31
0.0
  0
LINE
  5
33A
330
18
100
AcDbEntity
  8
0
100
AcDbLine
 10
5.439669
 20
4.449987999999999
 30
0.0
 11
5.391554
 21
4.323119999999999
 31
0.0
  0
LINE
  5
33B
330
18
100
AcDbEntity
  8
0
100
AcDbLine
 10
5.391554
 20
4.323119999999999
 30
0.0
 11
5.308586
 21
4.165612
 31
0.0
  0
LINE
  5
33C
330
18
100
AcDbEntity
  8
0
100
AcDbLine
 10
5.308586
 20
4.165612
 30
0.0
 11
5.221647
 21
4.00812
 31
0.0
  0
LINE
  5
33D
330
18
100
AcDbEntity
  8
0
100
AcDbLine
 10
5.221647
 20
4.00812
 30
0.0
 11
5.127787000000001
 21
3.8576
 31
0.0
  0
LINE
  5
33E
330
18
100
AcDbEntity
  8
0
100
AcDbLine
 10
5.127787000000001
 20
3.8576
 30
0.0
 11
5.028923000000001
 21
3.696182
 31
0.0
  0
LINE
  5
33F
330
18
100
AcDbEntity
  8
0
100
AcDbLine
 10
5.028923000000001
 20
3.696182
 30
0.0
 11
4.94404
 21
3.55754
 31
0.0
  0
LINE
  5
340
330
18
100
AcDbEntity
  8
0
100
AcDbLine
 10
4.94404
 20
3.55754
 30
0.0
 11
4.857164
 21
3.41692
 31
0.0
  0
LINE
  5
341
330
18
100
AcDbEntity
  8
0
100
AcDbLine
 10
4.857164
 20
3.41692
 30
0.0
 11
4.752448
 21
3.283315
 31
0.0
  0
LINE
  5
342
330
18
100
AcDbEntity
  8
0
100
AcDbLine
 10
4.752448
 20
3.283315
 30
0.0
 11
4.642873000000001
 21
3.177519
 31
0.0
  0
LINE
  5
343
330
18
100
AcDbEntity
  8
0
100
AcDbLine
 10
4.642873000000001
 20
3.177519
 30
0.0
 11
4.577497
 21
3.116992
 31
0.0
  0
LINE
  5
344
330
18
100
AcDbEntity
  8
0
100
AcDbLine
 10
5.866695
 20
6.661358
 30
0.0
 11
5.849506
 21
6.559628999999999
 31
0.0
  0
LINE
  5
345
330
18
100
AcDbEntity
  8
0
100
AcDbLine
 10
5.849506
 20
6.559628999999999
 30
0.0
 11
5.830013
 21
6.388982
 31
0.0
  0
LINE
  5
346
330
18
100
AcDbEntity
  8
0
100
AcDbLine
 10
5.830013
 20
6.388982
 30
0.0
 11
5.799534
 21
6.20051
 31
0.0
  0
LINE
  5
347
330
18
100
AcDbEntity
  8
0
100
AcDbLine
 10
5.799534
 20
6.20051
 30
0.0
 11
5.768066999999999
 21
6.013033999999999
 31
0.0
  0
LINE
  5
348
330
18
100
AcDbEntity
  8
0
100
AcDbLine
 10
5.768066999999999
 20
6.013033999999999
 30
0.0
 11
5.742678
 21
5.858289
 31
0.0
  0
LINE
  5
349
330
18
100
AcDbEntity
  8
0
100
AcDbLine
 10
5.742678
 20
5.858289
 30
0.0
 11
5.705381
 21
5.704582
 31
0.0
  0
LINE
  5
34A
330
18
100
AcDbEntity
  8
0
100
AcDbLine
 10
5.705381
 20
5.704582
 30
0.0
 11
5.665099
 21
5.548901
 31
0.0
  0
LINE
  5
34B
330
18
100
AcDbEntity
  8
0
100
AcDbLine
 10
5.665099
 20
5.548901
 30
0.0
 11
5.621892
 21
5.407126
 31
0.0
  0
LINE
  5
34C
330
18
100
AcDbEntity
  8
0
100
AcDbLine
 10
5.621892
 20
5.407126
 30
0.0
 11
5.578691
 21
5.267336
 31
0.0
  0
LINE
  5
34D
330
18
100
AcDbEntity
  8
0
100
AcDbLine
 10
5.578691
 20
5.267336
 30
0.0
 11
5.520511
 21
5.102789
 31
0.0
  0
LINE
  5
34E
330
18
100
AcDbEntity
  8
0
100
AcDbLine
 10
5.520511
 20
5.102789
 30
0.0
 11
5.45929
 21
4.921379
 31
0.0
  0
LINE
  5
34F
330
18
100
AcDbEntity
  8
0
100
AcDbLine
 10
5.45929
 20
4.921379
 30
0.0
 11
5.409175
 21
4.790548
 31
0.0
  0
LINE
  5
350
330
18
100
AcDbEntity
  8
0
100
AcDbLine
 10
5.409175
 20
4.790548
 30
0.0
 11
5.325037
 21
4.585401999999999
 31
0.0
  0
LINE
  5
351
330
18
100
AcDbEntity
  8
0
100
AcDbLine
 10
5.325037
 20
4.585401999999999
 30
0.0
 11
5.242991
 21
4.409033
 31
0.0
  0
LINE
  5
352
330
18
100
AcDbEntity
  8
0
100
AcDbLine
 10
5.242991
 20
4.409033
 30
0.0
 11
5.177965
 21
4.272302
 31
0.0
  0
LINE
  5
353
330
18
100
AcDbEntity
  8
0
100
AcDbLine
 10
5.177965
 20
4.272302
 30
0.0
 11
5.086983
 21
4.094973
 31
0.0
  0
LINE
  5
354
330
18
100
AcDbEntity
  8
0
100
AcDbLine
 10
5.086983
 20
4.094973
 30
0.0
 11
4.960147
 21
3.885023
 31
0.0
  0
LINE
  5
355
330
18
100
AcDbEntity
  8
0
100
AcDbLine
 10
4.960147
 20
3.885023
 30
0.0
 11
4.874297
 21
3.753333
 31
0.0
  0
LINE
  5
356
330
18
100
AcDbEntity
  8
0
100
AcDbLine
 10
4.874297
 20
3.753333
 30
0.0
 11
4.801409
 21
3.637475
 31
0.0
  0
LINE
  5
357
330
18
100
AcDbEntity
  8
0
100
AcDbLine
 10
4.801409
 20
3.637475
 30
0.0
 11
4.749487
 21
3.554294
 31
0.0
  0
LINE
  5
358
330
18
100
AcDbEntity
  8
0
100
AcDbLine
 10
4.749487
 20
3.554294
 30
0.0
 11
4.651674
 21
3.408752
 31
0.0
  0
LINE
  5
359
330
18
100
AcDbEntity
  8
0
100
AcDbLine
 10
4.651674
 20
3.408752
 30
0.0
 11
4.577497
 21
3.324054
 31
0.0
  0
LINE
  5
35A
330
18
100
AcDbEntity
  8
0
100
AcDbLine
 10
5.645038
 20
7.754369000000001
 30
0.0
 11
5.657154
 21
7.68094
 31
0.0
  0
LINE
  5
35B
330
18
100
AcDbEntity
  8
0
100
AcDbLine
 10
5.657154
 20
7.68094
 30
0.0
 11
5.673547
 21
7.551847
 31
0.0
  0
LINE
  5
35C
330
18
100
AcDbEntity
  8
0
100
AcDbLine
 10
5.673547
 20
7.551847
 30
0.0
 11
5.694921
 21
7.427698
 31
0.0
  0
LINE
  5
35D
330
18
100
AcDbEntity
  8
0
100
AcDbLine
 10
5.694921
 20
7.427698
 30
0.0
 11
5.692485
 21
7.306615
 31
0.0
  0
LINE
  5
35E
330
18
100
AcDbEntity
  8
0
100
AcDbLine
 10
5.692485
 20
7.306615
 30
0.0
 11
5.683983000000001
 21
7.155778
 31
0.0
  0
LINE
  5
35F
330
18
100
AcDbEntity
  8
0
100
AcDbLine
 10
5.683983000000001
 20
7.155778
 30
0.0
 11
5.696269
 21
6.989976
 31
0.0
  0
LINE
  5
360
330
18
100
AcDbEntity
  8
0
100
AcDbLine
 10
5.696269
 20
6.989976
 30
0.0
 11
5.699519
 21
6.796415
 31
0.0
  0
LINE
  5
361
330
18
100
AcDbEntity
  8
0
100
AcDbLine
 10
5.699519
 20
6.796415
 30
0.0
 11
5.693552
 21
6.526462
 31
0.0
  0
LINE
  5
362
330
18
100
AcDbEntity
  8
0
100
AcDbLine
 10
5.693552
 20
6.526462
 30
0.0
 11
5.673977
 21
6.333979
 31
0.0
  0
LINE
  5
363
330
18
100
AcDbEntity
  8
0
100
AcDbLine
 10
5.673977
 20
6.333979
 30
0.0
 11
5.642547
 21
6.156429
 31
0.0
  0
LINE
  5
364
330
18
100
AcDbEntity
  8
0
100
AcDbLine
 10
5.642547
 20
6.156429
 30
0.0
 11
5.589941000000001
 21
5.889627
 31
0.0
  0
LINE
  5
365
330
18
100
AcDbEntity
  8
0
100
AcDbLine
 10
5.589941000000001
 20
5.889627
 30
0.0
 11
5.546681
 21
5.733957
 31
0.0
  0
LINE
  5
366
330
18
100
AcDbEntity
  8
0
100
AcDbLine
 10
5.546681
 20
5.733957
 30
0.0
 11
5.495496
 21
5.582286
 31
0.0
  0
LINE
  5
367
330
18
100
AcDbEntity
  8
0
100
AcDbLine
 10
5.495496
 20
5.582286
 30
0.0
 11
5.427453
 21
5.434648999999999
 31
0.0
  0
LINE
  5
368
330
18
100
AcDbEntity
  8
0
100
AcDbLine
 10
5.427453
 20
5.434648999999999
 30
0.0
 11
5.37439
 21
5.311769
 31
0.0
  0
LINE
  5
369
330
18
100
AcDbEntity
  8
0
100
AcDbLine
 10
5.37439
 20
5.311769
 30
0.0
 11
5.309173
 21
5.123426
 31
0.0
  0
LINE
  5
36A
330
18
100
AcDbEntity
  8
0
100
AcDbLine
 10
5.309173
 20
5.123426
 30
0.0
 11
5.257025
 21
4.9797
 31
0.0
  0
LINE
  5
36B
330
18
100
AcDbEntity
  8
0
100
AcDbLine
 10
5.257025
 20
4.9797
 30
0.0
 11
5.197882
 21
4.823096
 31
0.0
  0
LINE
  5
36C
330
18
100
AcDbEntity
  8
0
100
AcDbLine
 10
5.197882
 20
4.823096
 30
0.0
 11
5.139786
 21
4.681377
 31
0.0
  0
LINE
  5
36D
330
18
100
AcDbEntity
  8
0
100
AcDbLine
 10
5.139786
 20
4.681377
 30
0.0
 11
5.098669999999999
 21
4.568379
 31
0.0
  0
LINE
  5
36E
330
18
100
AcDbEntity
  8
0
100
AcDbLine
 10
5.098669999999999
 20
4.568379
 30
0.0
 11
5.028613
 21
4.412808
 31
0.0
  0
LINE
  5
36F
330
18
100
AcDbEntity
  8
0
100
AcDbLine
 10
5.028613
 20
4.412808
 30
0.0
 11
4.956507
 21
4.240372
 31
0.0
  0
LINE
  5
370
330
18
100
AcDbEntity
  8
0
100
AcDbLine
 10
4.956507
 20
4.240372
 30
0.0
 11
4.893511
 21
4.115544
 31
0.0
  0
LINE
  5
371
330
18
100
AcDbEntity
  8
0
100
AcDbLine
 10
4.893511
 20
4.115544
 30
0.0
 11
4.811561
 21
3.964981
 31
0.0
  0
LINE
  5
372
330
18
100
AcDbEntity
  8
0
100
AcDbLine
 10
4.811561
 20
3.964981
 30
0.0
 11
4.754668
 21
3.879833
 31
0.0
  0
LINE
  5
373
330
18
100
AcDbEntity
  8
0
100
AcDbLine
 10
4.754668
 20
3.879833
 30
0.0
 11
4.679629
 21
3.719318
 31
0.0
  0
LINE
  5
374
330
18
100
AcDbEntity
  8
0
100
AcDbLine
 10
4.679629
 20
3.719318
 30
0.0
 11
4.646595
 21
3.644007
 31
0.0
  0
LINE
  5
375
330
18
100
AcDbEntity
  8
0
100
AcDbLine
 10
4.646595
 20
3.644007
 30
0.0
 11
4.60966
 21
3.587569
 31
0.0
  0
LINE
  5
376
330
18
100
AcDbEntity
  8
0
100
AcDbLine
 10
4.60966
 20
3.587569
 30
0.0
 11
4.577497
 21
3.555644
 31
0.0
  0
LINE
  5
377
330
18
100
AcDbEntity
  8
0
100
AcDbLine
 10
5.475581
 20
7.690955000000001
 30
0.0
 11
5.491167
 21
7.619027
 31
0.0
  0
LINE
  5
378
330
18
100
AcDbEntity
  8
0
100
AcDbLine
 10
5.491167
 20
7.619027
 30
0.0
 11
5.5117
 21
7.535576
 31
0.0
  0
LINE
  5
379
330
18
100
AcDbEntity
  8
0
100
AcDbLine
 10
5.5117
 20
7.535576
 30
0.0
 11
5.531011
 21
7.390591000000001
 31
0.0
  0
LINE
  5
37A
330
18
100
AcDbEntity
  8
0
100
AcDbLine
 10
5.531011
 20
7.390591000000001
 30
0.0
 11
5.551248999999999
 21
7.227736
 31
0.0
  0
LINE
  5
37B
330
18
100
AcDbEntity
  8
0
100
AcDbLine
 10
5.551248999999999
 20
7.227736
 30
0.0
 11
5.537677
 21
7.048133999999999
 31
0.0
  0
LINE
  5
37C
330
18
100
AcDbEntity
  8
0
100
AcDbLine
 10
5.537677
 20
7.048133999999999
 30
0.0
 11
5.530097000000001
 21
6.878435000000001
 31
0.0
  0
LINE
  5
37D
330
18
100
AcDbEntity
  8
0
100
AcDbLine
 10
5.530097000000001
 20
6.878435000000001
 30
0.0
 11
5.513507
 21
6.687925999999999
 31
0.0
  0
LINE
  5
37E
330
18
100
AcDbEntity
  8
0
100
AcDbLine
 10
5.513507
 20
6.687925999999999
 30
0.0
 11
5.49094
 21
6.491484
 31
0.0
  0
LINE
  5
37F
330
18
100
AcDbEntity
  8
0
100
AcDbLine
 10
5.49094
 20
6.491484
 30
0.0
 11
5.443253
 21
6.212754
 31
0.0
  0
LINE
  5
380
330
18
100
AcDbEntity
  8
0
100
AcDbLine
 10
5.443253
 20
6.212754
 30
0.0
 11
5.383477
 21
5.886425
 31
0.0
  0
LINE
  5
381
330
18
100
AcDbEntity
  8
0
100
AcDbLine
 10
5.383477
 20
5.886425
 30
0.0
 11
5.352125
 21
5.729718
 31
0.0
  0
LINE
  5
382
330
18
100
AcDbEntity
  8
0
100
AcDbLine
 10
5.352125
 20
5.729718
 30
0.0
 11
5.333882
 21
5.628545
 31
0.0
  0
LINE
  5
383
330
18
100
AcDbEntity
  8
0
100
AcDbLine
 10
5.333882
 20
5.628545
 30
0.0
 11
5.308592
 21
5.5006
 31
0.0
  0
LINE
  5
384
330
18
100
AcDbEntity
  8
0
100
AcDbLine
 10
5.308592
 20
5.5006
 30
0.0
 11
5.27642
 21
5.390546
 31
0.0
  0
LINE
  5
385
330
18
100
AcDbEntity
  8
0
100
AcDbLine
 10
5.27642
 20
5.390546
 30
0.0
 11
5.226236
 21
5.240857
 31
0.0
  0
LINE
  5
386
330
18
100
AcDbEntity
  8
0
100
AcDbLine
 10
5.226236
 20
5.240857
 30
0.0
 11
5.158092
 21
5.066421
 31
0.0
  0
LINE
  5
387
330
18
100
AcDbEntity
  8
0
100
AcDbLine
 10
5.158092
 20
5.066421
 30
0.0
 11
5.101997
 21
4.928664
 31
0.0
  0
LINE
  5
388
330
18
100
AcDbEntity
  8
0
100
AcDbLine
 10
5.101997
 20
4.928664
 30
0.0
 11
5.048889
 21
4.793874
 31
0.0
  0
LINE
  5
389
330
18
100
AcDbEntity
  8
0
100
AcDbLine
 10
5.048889
 20
4.793874
 30
0.0
 11
4.99186
 21
4.672002
 31
0.0
  0
LINE
  5
38A
330
18
100
AcDbEntity
  8
0
100
AcDbLine
 10
4.99186
 20
4.672002
 30
0.0
 11
4.944841
 21
4.572922
 31
0.0
  0
LINE
  5
38B
330
18
100
AcDbEntity
  8
0
100
AcDbLine
 10
4.944841
 20
4.572922
 30
0.0
 11
4.887849
 21
4.460975
 31
0.0
  0
LINE
  5
38C
330
18
100
AcDbEntity
  8
0
100
AcDbLine
 10
4.887849
 20
4.460975
 30
0.0
 11
4.809928
 21
4.326276999999999
 31
0.0
  0
LINE
  5
38D
330
18
100
AcDbEntity
  8
0
100
AcDbLine
 10
4.809928
 20
4.326276999999999
 30
0.0
 11
4.742018
 21
4.214371
 31
0.0
  0
LINE
  5
38E
330
18
100
AcDbEntity
  8
0
100
AcDbLine
 10
4.742018
 20
4.214371
 30
0.0
 11
4.689066
 21
4.121268
 31
0.0
  0
LINE
  5
38F
330
18
100
AcDbEntity
  8
0
100
AcDbLine
 10
4.689066
 20
4.121268
 30
0.0
 11
4.64308
 21
4.033102
 31
0.0
  0
LINE
  5
390
330
18
100
AcDbEntity
  8
0
100
AcDbLine
 10
4.64308
 20
4.033102
 30
0.0
 11
4.603127
 21
3.965757
 31
0.0
  0
LINE
  5
391
330
18
100
AcDbEntity
  8
0
100
AcDbLine
 10
4.603127
 20
3.965757
 30
0.0
 11
4.577497
 21
3.936894
 31
0.0
  0
LINE
  5
392
330
18
100
AcDbEntity
  8
0
100
AcDbLine
 10
5.36621
 20
7.647284
 30
0.0
 11
5.375906
 21
7.585709
 31
0.0
  0
LINE
  5
393
330
18
100
AcDbEntity
  8
0
100
AcDbLine
 10
5.375906
 20
7.585709
 30
0.0
 11
5.386403
 21
7.472519
 31
0.0
  0
LINE
  5
394
330
18
100
AcDbEntity
  8
0
100
AcDbLine
 10
5.386403
 20
7.472519
 30
0.0
 11
5.395874
 21
7.350399
 31
0.0
  0
LINE
  5
395
330
18
100
AcDbEntity
  8
0
100
AcDbLine
 10
5.395874
 20
7.350399
 30
0.0
 11
5.411197000000001
 21
7.200466000000001
 31
0.0
  0
LINE
  5
396
330
18
100
AcDbEntity
  8
0
100
AcDbLine
 10
5.411197000000001
 20
7.200466000000001
 30
0.0
 11
5.394566
 21
6.999039
 31
0.0
  0
LINE
  5
397
330
18
100
AcDbEntity
  8
0
100
AcDbLine
 10
5.394566
 20
6.999039
 30
0.0
 11
5.37908
 21
6.838303
 31
0.0
  0
LINE
  5
398
330
18
100
AcDbEntity
  8
0
100
AcDbLine
 10
5.37908
 20
6.838303
 30
0.0
 11
5.363589
 21
6.676574000000001
 31
0.0
  0
LINE
  5
399
330
18
100
AcDbEntity
  8
0
100
AcDbLine
 10
5.363589
 20
6.676574000000001
 30
0.0
 11
5.346118
 21
6.515845
 31
0.0
  0
LINE
  5
39A
330
18
100
AcDbEntity
  8
0
100
AcDbLine
 10
5.346118
 20
6.515845
 30
0.0
 11
5.328694000000001
 21
6.368019
 31
0.0
  0
LINE
  5
39B
330
18
100
AcDbEntity
  8
0
100
AcDbLine
 10
5.328694000000001
 20
6.368019
 30
0.0
 11
5.31541
 21
6.265835
 31
0.0
  0
LINE
  5
39C
330
18
100
AcDbEntity
  8
0
100
AcDbLine
 10
5.31541
 20
6.265835
 30
0.0
 11
5.29899
 21
6.120983
 31
0.0
  0
LINE
  5
39D
330
18
100
AcDbEntity
  8
0
100
AcDbLine
 10
5.29899
 20
6.120983
 30
0.0
 11
5.271656
 21
5.977164
 31
0.0
  0
LINE
  5
39E
330
18
100
AcDbEntity
  8
0
100
AcDbLine
 10
5.271656
 20
5.977164
 30
0.0
 11
5.235304
 21
5.81055
 31
0.0
  0
LINE
  5
39F
330
18
100
AcDbEntity
  8
0
100
AcDbLine
 10
5.235304
 20
5.81055
 30
0.0
 11
5.185041
 21
5.640018
 31
0.0
  0
LINE
  5
3A0
330
18
100
AcDbEntity
  8
0
100
AcDbLine
 10
5.185041
 20
5.640018
 30
0.0
 11
5.140766999999999
 21
5.478396
 31
0.0
  0
LINE
  5
3A1
330
18
100
AcDbEntity
  8
0
100
AcDbLine
 10
5.140766999999999
 20
5.478396
 30
0.0
 11
5.074543
 21
5.286086
 31
0.0
  0
LINE
  5
3A2
330
18
100
AcDbEntity
  8
0
100
AcDbLine
 10
5.074543
 20
5.286086
 30
0.0
 11
5.017380999999999
 21
5.128483
 31
0.0
  0
LINE
  5
3A3
330
18
100
AcDbEntity
  8
0
100
AcDbLine
 10
5.017380999999999
 20
5.128483
 30
0.0
 11
4.932279
 21
4.931280999999999
 31
0.0
  0
LINE
  5
3A4
330
18
100
AcDbEntity
  8
0
100
AcDbLine
 10
4.932279
 20
4.931280999999999
 30
0.0
 11
4.840312
 21
4.755941
 31
0.0
  0
LINE
  5
3A5
330
18
100
AcDbEntity
  8
0
100
AcDbLine
 10
4.840312
 20
4.755941
 30
0.0
 11
4.758406
 21
4.617287999999999
 31
0.0
  0
LINE
  5
3A6
330
18
100
AcDbEntity
  8
0
100
AcDbLine
 10
4.758406
 20
4.617287999999999
 30
0.0
 11
4.677437
 21
4.463743
 31
0.0
  0
LINE
  5
3A7
330
18
100
AcDbEntity
  8
0
100
AcDbLine
 10
4.677437
 20
4.463743
 30
0.0
 11
4.613564
 21
4.369688
 31
0.0
  0
LINE
  5
3A8
330
18
100
AcDbEntity
  8
0
100
AcDbLine
 10
4.613564
 20
4.369688
 30
0.0
 11
4.577497
 21
4.32594
 31
0.0
  0
LINE
  5
3A9
330
18
100
AcDbEntity
  8
0
100
AcDbLine
 10
5.227284
 20
7.598039
 30
0.0
 11
5.243636
 21
7.515730000000001
 31
0.0
  0
LINE
  5
3AA
330
18
100
AcDbEntity
  8
0
100
AcDbLine
 10
5.243636
 20
7.515730000000001
 30
0.0
 11
5.252129
 21
7.397583999999999
 31
0.0
  0
LINE
  5
3AB
330
18
100
AcDbEntity
  8
0
100
AcDbLine
 10
5.252129
 20
7.397583999999999
 30
0.0
 11
5.250686
 21
7.276497999999999
 31
0.0
  0
LINE
  5
3AC
330
18
100
AcDbEntity
  8
0
100
AcDbLine
 10
5.250686
 20
7.276497999999999
 30
0.0
 11
5.244936
 21
7.065105
 31
0.0
  0
LINE
  5
3AD
330
18
100
AcDbEntity
  8
0
100
AcDbLine
 10
5.244936
 20
7.065105
 30
0.0
 11
5.266347000000001
 21
6.950881
 31
0.0
  0
LINE
  5
3AE
330
18
100
AcDbEntity
  8
0
100
AcDbLine
 10
5.266347000000001
 20
6.950881
 30
0.0
 11
5.241046
 21
6.819958
 31
0.0
  0
LINE
  5
3AF
330
18
100
AcDbEntity
  8
0
100
AcDbLine
 10
5.241046
 20
6.819958
 30
0.0
 11
5.214667
 21
6.66621
 31
0.0
  0
LINE
  5
3B0
330
18
100
AcDbEntity
  8
0
100
AcDbLine
 10
5.214667
 20
6.66621
 30
0.0
 11
5.203332
 21
6.554092999999999
 31
0.0
  0
LINE
  5
3B1
330
18
100
AcDbEntity
  8
0
100
AcDbLine
 10
5.203332
 20
6.554092999999999
 30
0.0
 11
5.198922000000001
 21
6.435996
 31
0.0
  0
LINE
  5
3B2
330
18
100
AcDbEntity
  8
0
100
AcDbLine
 10
5.198922000000001
 20
6.435996
 30
0.0
 11
5.152578
 21
6.251553
 31
0.0
  0
LINE
  5
3B3
330
18
100
AcDbEntity
  8
0
100
AcDbLine
 10
5.152578
 20
6.251553
 30
0.0
 11
5.105238
 21
6.066121
 31
0.0
  0
LINE
  5
3B4
330
18
100
AcDbEntity
  8
0
100
AcDbLine
 10
5.105238
 20
6.066121
 30
0.0
 11
5.084992
 21
5.959993
 31
0.0
  0
LINE
  5
3B5
330
18
100
AcDbEntity
  8
0
100
AcDbLine
 10
5.084992
 20
5.959993
 30
0.0
 11
5.057683
 21
5.823122
 31
0.0
  0
LINE
  5
3B6
330
18
100
AcDbEntity
  8
0
100
AcDbLine
 10
5.057683
 20
5.823122
 30
0.0
 11
5.025464
 21
5.700165
 31
0.0
  0
LINE
  5
3B7
330
18
100
AcDbEntity
  8
0
100
AcDbLine
 10
5.025464
 20
5.700165
 30
0.0
 11
4.973109
 21
5.500856
 31
0.0
  0
LINE
  5
3B8
330
18
100
AcDbEntity
  8
0
100
AcDbLine
 10
4.973109
 20
5.500856
 30
0.0
 11
4.874968
 21
5.266978
 31
0.0
  0
LINE
  5
3B9
330
18
100
AcDbEntity
  8
0
100
AcDbLine
 10
4.874968
 20
5.266978
 30
0.0
 11
4.775713
 21
5.00035
 31
0.0
  0
LINE
  5
3BA
330
18
100
AcDbEntity
  8
0
100
AcDbLine
 10
4.775713
 20
5.00035
 30
0.0
 11
4.665927
 21
4.83798
 31
0.0
  0
LINE
  5
3BB
330
18
100
AcDbEntity
  8
0
100
AcDbLine
 10
4.665927
 20
4.83798
 30
0.0
 11
4.625037
 21
4.785526
 31
0.0
  0
LINE
  5
3BC
330
18
100
AcDbEntity
  8
0
100
AcDbLine
 10
4.625037
 20
4.785526
 30
0.0
 11
4.577497
 21
4.726553
 31
0.0
  0
LINE
  5
3BD
330
18
100
AcDbEntity
  8
0
100
AcDbLine
 10
5.031992
 20
7.524958
 30
0.0
 11
5.04799
 21
7.485689
 31
0.0
  0
LINE
  5
3BE
330
18
100
AcDbEntity
  8
0
100
AcDbLine
 10
5.04799
 20
7.485689
 30
0.0
 11
5.041629
 21
7.376531
 31
0.0
  0
LINE
  5
3BF
330
18
100
AcDbEntity
  8
0
100
AcDbLine
 10
5.041629
 20
7.376531
 30
0.0
 11
5.068213
 21
7.318864
 31
0.0
  0
LINE
  5
3C0
330
18
100
AcDbEntity
  8
0
100
AcDbLine
 10
5.068213
 20
7.318864
 30
0.0
 11
5.071973000000001
 21
7.262275
 31
0.0
  0
LINE
  5
3C1
330
18
100
AcDbEntity
  8
0
100
AcDbLine
 10
5.071973000000001
 20
7.262275
 30
0.0
 11
5.082577
 21
7.177867999999999
 31
0.0
  0
LINE
  5
3C2
330
18
100
AcDbEntity
  8
0
100
AcDbLine
 10
5.082577
 20
7.177867999999999
 30
0.0
 11
5.078130000000001
 21
7.049845
 31
0.0
  0
LINE
  5
3C3
330
18
100
AcDbEntity
  8
0
100
AcDbLine
 10
5.078130000000001
 20
7.049845
 30
0.0
 11
5.080598
 21
6.912863000000001
 31
0.0
  0
LINE
  5
3C4
330
18
100
AcDbEntity
  8
0
100
AcDbLine
 10
5.080598
 20
6.912863000000001
 30
0.0
 11
5.072288
 21
6.813638
 31
0.0
  0
LINE
  5
3C5
330
18
100
AcDbEntity
  8
0
100
AcDbLine
 10
5.072288
 20
6.813638
 30
0.0
 11
5.048769
 21
6.628118
 31
0.0
  0
LINE
  5
3C6
330
18
100
AcDbEntity
  8
0
100
AcDbLine
 10
5.048769
 20
6.628118
 30
0.0
 11
5.0374
 21
6.507068
 31
0.0
  0
LINE
  5
3C7
330
18
100
AcDbEntity
  8
0
100
AcDbLine
 10
5.0374
 20
6.507068
 30
0.0
 11
5.017036
 21
6.369179
 31
0.0
  0
LINE
  5
3C8
330
18
100
AcDbEntity
  8
0
100
AcDbLine
 10
5.017036
 20
6.369179
 30
0.0
 11
4.992712
 21
6.234282
 31
0.0
  0
LINE
  5
3C9
330
18
100
AcDbEntity
  8
0
100
AcDbLine
 10
4.992712
 20
6.234282
 30
0.0
 11
4.956397
 21
6.077593
 31
0.0
  0
LINE
  5
3CA
330
18
100
AcDbEntity
  8
0
100
AcDbLine
 10
4.956397
 20
6.077593
 30
0.0
 11
4.898113
 21
5.885254
 31
0.0
  0
LINE
  5
3CB
330
18
100
AcDbEntity
  8
0
100
AcDbLine
 10
4.898113
 20
5.885254
 30
0.0
 11
4.841899
 21
5.715736
 31
0.0
  0
LINE
  5
3CC
330
18
100
AcDbEntity
  8
0
100
AcDbLine
 10
4.841899
 20
5.715736
 30
0.0
 11
4.791622
 21
5.541233999999999
 31
0.0
  0
LINE
  5
3CD
330
18
100
AcDbEntity
  8
0
100
AcDbLine
 10
4.791622
 20
5.541233999999999
 30
0.0
 11
4.778563
 21
5.499594999999999
 31
0.0
  0
LINE
  5
3CE
330
18
100
AcDbEntity
  8
0
100
AcDbLine
 10
4.778563
 20
5.499594999999999
 30
0.0
 11
4.728426
 21
5.362809
 31
0.0
  0
LINE
  5
3CF
330
18
100
AcDbEntity
  8
0
100
AcDbLine
 10
4.728426
 20
5.362809
 30
0.0
 11
4.669449
 21
5.25087
 31
0.0
  0
LINE
  5
3D0
330
18
100
AcDbEntity
  8
0
100
AcDbLine
 10
4.669449
 20
5.25087
 30
0.0
 11
4.577497
 21
5.086026
 31
0.0
  0
LINE
  5
3D1
330
18
100
AcDbEntity
  8
0
100
AcDbLine
 10
4.87085
 20
7.464656
 30
0.0
 11
4.886785
 21
7.375122999999999
 31
0.0
  0
LINE
  5
3D2
330
18
100
AcDbEntity
  8
0
100
AcDbLine
 10
4.886785
 20
7.375122999999999
 30
0.0
 11
4.890467
 21
7.297689999999999
 31
0.0
  0
LINE
  5
3D3
330
18
100
AcDbEntity
  8
0
100
AcDbLine
 10
4.890467
 20
7.297689999999999
 30
0.0
 11
4.898064
 21
7.205353999999999
 31
0.0
  0
LINE
  5
3D4
330
18
100
AcDbEntity
  8
0
100
AcDbLine
 10
4.898064
 20
7.205353999999999
 30
0.0
 11
4.907508999999999
 21
7.076286
 31
0.0
  0
LINE
  5
3D5
330
18
100
AcDbEntity
  8
0
100
AcDbLine
 10
4.907508999999999
 20
7.076286
 30
0.0
 11
4.917157
 21
7.001809
 31
0.0
  0
LINE
  5
3D6
330
18
100
AcDbEntity
  8
0
100
AcDbLine
 10
4.917157
 20
7.001809
 30
0.0
 11
4.888782
 21
6.845089999999999
 31
0.0
  0
LINE
  5
3D7
330
18
100
AcDbEntity
  8
0
100
AcDbLine
 10
4.888782
 20
6.845089999999999
 30
0.0
 11
4.892379
 21
6.744828999999999
 31
0.0
  0
LINE
  5
3D8
330
18
100
AcDbEntity
  8
0
100
AcDbLine
 10
4.892379
 20
6.744828999999999
 30
0.0
 11
4.869067
 21
6.614891
 31
0.0
  0
LINE
  5
3D9
330
18
100
AcDbEntity
  8
0
100
AcDbLine
 10
4.869067
 20
6.614891
 30
0.0
 11
4.833818
 21
6.478049
 31
0.0
  0
LINE
  5
3DA
330
18
100
AcDbEntity
  8
0
100
AcDbLine
 10
4.833818
 20
6.478049
 30
0.0
 11
4.809524
 21
6.351093
 31
0.0
  0
LINE
  5
3DB
330
18
100
AcDbEntity
  8
0
100
AcDbLine
 10
4.809524
 20
6.351093
 30
0.0
 11
4.784271
 21
6.233073
 31
0.0
  0
LINE
  5
3DC
330
18
100
AcDbEntity
  8
0
100
AcDbLine
 10
4.784271
 20
6.233073
 30
0.0
 11
4.746104
 21
6.112123
 31
0.0
  0
LINE
  5
3DD
330
18
100
AcDbEntity
  8
0
100
AcDbLine
 10
4.746104
 20
6.112123
 30
0.0
 11
4.716836
 21
5.982207
 31
0.0
  0
LINE
  5
3DE
330
18
100
AcDbEntity
  8
0
100
AcDbLine
 10
4.716836
 20
5.982207
 30
0.0
 11
4.691483
 21
5.837388
 31
0.0
  0
LINE
  5
3DF
330
18
100
AcDbEntity
  8
0
100
AcDbLine
 10
4.691483
 20
5.837388
 30
0.0
 11
4.661304
 21
5.729312
 31
0.0
  0
LINE
  5
3E0
330
18
100
AcDbEntity
  8
0
100
AcDbLine
 10
4.661304
 20
5.729312
 30
0.0
 11
4.609227
 21
5.604444
 31
0.0
  0
LINE
  5
3E1
330
18
100
AcDbEntity
  8
0
100
AcDbLine
 10
4.609227
 20
5.604444
 30
0.0
 11
4.577497
 21
5.572465
 31
0.0
  0
LINE
  5
3E2
330
18
100
AcDbEntity
  8
0
100
AcDbLine
 10
5.769529
 20
7.800955
 30
0.0
 11
5.790169000000001
 21
7.684415
 31
0.0
  0
LINE
  5
3E3
330
18
100
AcDbEntity
  8
0
100
AcDbLine
 10
5.790169000000001
 20
7.684415
 30
0.0
 11
5.803611
 21
7.562281
 31
0.0
  0
LINE
  5
3E4
330
18
100
AcDbEntity
  8
0
100
AcDbLine
 10
5.803611
 20
7.562281
 30
0.0
 11
5.828925
 21
7.430177000000001
 31
0.0
  0
LINE
  5
3E5
330
18
100
AcDbEntity
  8
0
100
AcDbLine
 10
5.828925
 20
7.430177000000001
 30
0.0
 11
5.85217
 21
7.275252
 31
0.0
  0
LINE
  5
3E6
330
18
100
AcDbEntity
  8
0
100
AcDbLine
 10
5.85217
 20
7.275252
 30
0.0
 11
5.866471
 21
7.117382000000001
 31
0.0
  0
LINE
  5
3E7
330
18
100
AcDbEntity
  8
0
100
AcDbLine
 10
5.866471
 20
7.117382000000001
 30
0.0
 11
5.866695
 21
7.114764999999999
 31
0.0
  0
LINE
  5
3E8
330
18
100
AcDbEntity
  8
0
100
AcDbLine
 10
5.866695
 20
3.02465
 30
0.0
 11
5.823285
 21
2.981563
 31
0.0
  0
LINE
  5
3E9
330
18
100
AcDbEntity
  8
0
100
AcDbLine
 10
5.823285
 20
2.981563
 30
0.0
 11
5.791347
 21
2.934039
 31
0.0
  0
LINE
  5
3EA
330
18
100
AcDbEntity
  8
0
100
AcDbLine
 10
5.791347
 20
2.934039
 30
0.0
 11
5.760419000000001
 21
2.891474
 31
0.0
  0
LINE
  5
3EB
330
18
100
AcDbEntity
  8
0
100
AcDbLine
 10
5.760419000000001
 20
2.891474
 30
0.0
 11
5.72751
 21
2.849909
 31
0.0
  0
LINE
  5
3EC
330
18
100
AcDbEntity
  8
0
100
AcDbLine
 10
5.72751
 20
2.849909
 30
0.0
 11
5.676635
 21
2.781612
 31
0.0
  0
LINE
  5
3ED
330
18
100
AcDbEntity
  8
0
100
AcDbLine
 10
5.676635
 20
2.781612
 30
0.0
 11
5.638701
 21
2.723193
 31
0.0
  0
LINE
  5
3EE
330
18
100
AcDbEntity
  8
0
100
AcDbLine
 10
5.638701
 20
2.723193
 30
0.0
 11
5.625797
 21
2.706298
 31
0.0
  0
LINE
  5
3EF
330
18
100
AcDbEntity
  8
0
100
AcDbLine
 10
5.866695
 20
3.146468
 30
0.0
 11
5.838694
 21
3.121456
 31
0.0
  0
LINE
  5
3F0
330
18
100
AcDbEntity
  8
0
100
AcDbLine
 10
5.838694
 20
3.121456
 30
0.0
 11
5.828698999999999
 21
3.102634
 31
0.0
  0
LINE
  5
3F1
330
18
100
AcDbEntity
  8
0
100
AcDbLine
 10
5.828698999999999
 20
3.102634
 30
0.0
 11
5.773843
 21
3.031374
 31
0.0
  0
LINE
  5
3F2
330
18
100
AcDbEntity
  8
0
100
AcDbLine
 10
5.773843
 20
3.031374
 30
0.0
 11
5.753929
 21
3.014575
 31
0.0
  0
LINE
  5
3F3
330
18
100
AcDbEntity
  8
0
100
AcDbLine
 10
5.753929
 20
3.014575
 30
0.0
 11
5.697118
 21
2.951263
 31
0.0
  0
LINE
  5
3F4
330
18
100
AcDbEntity
  8
0
100
AcDbLine
 10
5.697118
 20
2.951263
 30
0.0
 11
5.649269
 21
2.895858
 31
0.0
  0
LINE
  5
3F5
330
18
100
AcDbEntity
  8
0
100
AcDbLine
 10
5.649269
 20
2.895858
 30
0.0
 11
5.603424
 21
2.845408
 31
0.0
  0
LINE
  5
3F6
330
18
100
AcDbEntity
  8
0
100
AcDbLine
 10
5.603424
 20
2.845408
 30
0.0
 11
5.563523
 21
2.791959
 31
0.0
  0
LINE
  5
3F7
330
18
100
AcDbEntity
  8
0
100
AcDbLine
 10
5.563523
 20
2.791959
 30
0.0
 11
5.522573
 21
2.723625
 31
0.0
  0
LINE
  5
3F8
330
18
100
AcDbEntity
  8
0
100
AcDbLine
 10
5.522573
 20
2.723625
 30
0.0
 11
5.462729
 21
2.645436
 31
0.0
  0
LINE
  5
3F9
330
18
100
AcDbEntity
  8
0
100
AcDbLine
 10
5.462729
 20
2.645436
 30
0.0
 11
5.429772
 21
2.596784
 31
0.0
  0
LINE
  5
3FA
330
18
100
AcDbEntity
  8
0
100
AcDbLine
 10
5.819774
 20
7.819758
 30
0.0
 11
5.85201
 21
7.765575
 31
0.0
  0
LINE
  5
3FB
330
18
100
AcDbEntity
  8
0
100
AcDbLine
 10
5.85201
 20
7.765575
 30
0.0
 11
5.866695
 21
7.745017999999999
 31
0.0
  0
LINE
  5
3FC
330
18
100
AcDbEntity
  8
0
100
AcDbLine
 10
4.7301
 20
7.412430000000001
 30
0.0
 11
4.743833
 21
7.368707000000001
 31
0.0
  0
LINE
  5
3FD
330
18
100
AcDbEntity
  8
0
100
AcDbLine
 10
4.743833
 20
7.368707000000001
 30
0.0
 11
4.752585
 21
7.320039
 31
0.0
  0
LINE
  5
3FE
330
18
100
AcDbEntity
  8
0
100
AcDbLine
 10
4.752585
 20
7.320039
 30
0.0
 11
4.751312
 21
7.244610000000001
 31
0.0
  0
LINE
  5
3FF
330
18
100
AcDbEntity
  8
0
100
AcDbLine
 10
4.751312
 20
7.244610000000001
 30
0.0
 11
4.746053
 21
7.165225
 31
0.0
  0
LINE
  5
400
330
18
100
AcDbEntity
  8
0
100
AcDbLine
 10
4.746053
 20
7.165225
 30
0.0
 11
4.734795
 21
7.073950999999999
 31
0.0
  0
LINE
  5
401
330
18
100
AcDbEntity
  8
0
100
AcDbLine
 10
4.734795
 20
7.073950999999999
 30
0.0
 11
4.725467
 21
6.967783
 31
0.0
  0
LINE
  5
402
330
18
100
AcDbEntity
  8
0
100
AcDbLine
 10
4.725467
 20
6.967783
 30
0.0
 11
4.718146
 21
6.867562
 31
0.0
  0
LINE
  5
403
330
18
100
AcDbEntity
  8
0
100
AcDbLine
 10
4.718146
 20
6.867562
 30
0.0
 11
4.710925
 21
6.79414
 31
0.0
  0
LINE
  5
404
330
18
100
AcDbEntity
  8
0
100
AcDbLine
 10
4.710925
 20
6.79414
 30
0.0
 11
4.700689
 21
6.710803
 31
0.0
  0
LINE
  5
405
330
18
100
AcDbEntity
  8
0
100
AcDbLine
 10
4.700689
 20
6.710803
 30
0.0
 11
4.684447000000001
 21
6.613592999999999
 31
0.0
  0
LINE
  5
406
330
18
100
AcDbEntity
  8
0
100
AcDbLine
 10
4.684447000000001
 20
6.613592999999999
 30
0.0
 11
4.669141000000001
 21
6.501491000000001
 31
0.0
  0
LINE
  5
407
330
18
100
AcDbEntity
  8
0
100
AcDbLine
 10
4.669141000000001
 20
6.501491000000001
 30
0.0
 11
4.649969000000001
 21
6.417195
 31
0.0
  0
LINE
  5
408
330
18
100
AcDbEntity
  8
0
100
AcDbLine
 10
4.649969000000001
 20
6.417195
 30
0.0
 11
4.61886
 21
6.325996
 31
0.0
  0
LINE
  5
409
330
18
100
AcDbEntity
  8
0
100
AcDbLine
 10
4.61886
 20
6.325996
 30
0.0
 11
4.596928
 21
6.300271
 31
0.0
  0
LINE
  5
40A
330
18
100
AcDbEntity
  8
0
100
AcDbLine
 10
4.596928
 20
6.300271
 30
0.0
 11
4.577497
 21
6.290646
 31
0.0
  0
TEXT
  5
40B
330
18
100
AcDbEntity
  8
0
100
AcDbText
 10
1.526169
 20
1.593972
 30
0.0
 40
0.2
  1
Simpson Strong-Tie
100
AcDbText
  0
TEXT
  5
40C
330
18
100
AcDbEntity
  8
0
100
AcDbText
 10
1.526169
 20
1.270163
 30
0.0
 40
0.2
  1
U (Wood Web Installation)
100
AcDbText
  0
ENDSEC
  0
SECTION
  2
OBJECTS
  0
DICTIONARY
  5
C
330
0
100
AcDbDictionary
281
     1
  3
ACAD_COLOR
350
412
  3
ACAD_GROUP
350
D
  3
ACAD_LAYOUT
350
15
  3
ACAD_MATERIAL
350
414
  3
ACAD_MLINESTYLE
350
12
  3
ACAD_PLOTSETTINGS
350
14
  3
ACAD_PLOTSTYLENAME
350
E
  3
ACDBHEADERROUNDTRIPXREC
350
411
  0
DICTIONARY
  5
412
102
{ACAD_REACTORS
330
C
102
}
330
C
100
AcDbDictionary
281
     1
  0
DICTIONARY
  5
D
102
{ACAD_REACTORS
330
C
102
}
330
C
100
AcDbDictionary
281
     1
  0
DICTIONARY
  5
15
102
{ACAD_REACTORS
330
C
102
}
330
C
100
AcDbDictionary
281
     1
  3
Layout1
350
17
  3
Model
350
19
  0
DICTIONARY
  5
414
102
{ACAD_REACTORS
330
C
102
}
330
C
100
AcDbDictionary
281
     1
  0
DICTIONARY
  5
12
102
{ACAD_REACTORS
330
C
102
}
330
C
100
AcDbDictionary
281
     1
  3
Standard
350
13
  0
DICTIONARY
  5
14
102
{ACAD_REACTORS
330
C
102
}
330
C
100
AcDbDictionary
281
     1
  0
ACDBDICTIONARYWDFLT
  5
E
102
{ACAD_REACTORS
330
C
102
}
330
C
100
AcDbDictionary
281
     1
  3
Normal
350
F
100
AcDbDictionaryWithDefault
340
F
  0
DICTIONARY
  5
411
102
{ACAD_REACTORS
330
C
102
}
330
C
100
AcDbDictionary
281
     1
  3
COLORDICT
350
413
  3
MATERIALDICT
350
415
  0
LAYOUT
  5
17
102
{ACAD_REACTORS
330
15
102
}
102
{ACAD_XDICTIONARY
360
416
102
}
330
15
100
AcDbPlotSettings
  1

  2

  4

  6

 40
0.0
 41
0.0
 42
0.0
 43
0.0
 44
0.0
 45
0.0
 46
0.0
 47
0.0
 48
0.0
 49
0.0
140
0.0
141
0.0
142
1.0
143
1.0
 70
   688
 72
     0
 73
     0
 74
     5
  7

 75
    16
147
1.0
148
0.0
149
0.0
100
AcDbLayout
  1
Layout1
 70
     1
 71
     1
 10
0.0
 20
0.0
 11
12.0
 21
9.0
 12
0.0
 22
0.0
 32
0.0
 14
1.000000000000000E+20
 24
1.000000000000000E+20
 34
1.000000000000000E+20
 15
-1.000000000000000E+20
 25
-1.000000000000000E+20
 35
-1.000000000000000E+20
146
0.0
 13
0.0
 23
0.0
 33
0.0
 16
1.0
 26
0.0
 36
0.0
 17
0.0
 27
1.0
 37
0.0
 76
     0
330
16
  0
LAYOUT
  5
19
102
{ACAD_REACTORS
330
15
102
}
102
{ACAD_XDICTIONARY
360
418
102
}
330
15
100
AcDbPlotSettings
  1

  2

  4

  6

 40
0.0
 41
0.0
 42
0.0
 43
0.0
 44
0.0
 45
0.0
 46
0.0
 47
0.0
 48
0.0
 49
0.0
140
0.0
141
0.0
142
1.0
143
1.0
 70
  1712
 72
     0
 73
     0
 74
     0
  7

 75
     0
147
1.0
148
0.0
149
0.0
100
AcDbLayout
  1
Model
 70
     1
 71
     0
 10
0.0
 20
0.0
 11
0.0
 21
0.0
 12
0.0
 22
0.0
 32
0.0
 14
0.0
 24
0.0
 34
0.0
 15
0.0
 25
0.0
 35
0.0
146
0.0
 13
0.0
 23
0.0
 33
0.0
 16
1.0
 26
0.0
 36
0.0
 17
0.0
 27
1.0
 37
0.0
 76
     0
330
18
  0
MLINESTYLE
  5
13
102
{ACAD_REACTORS
330
12
102
}
330
12
100
AcDbMlineStyle
  2
Standard
 70
     0
  3

 62
   256
 51
90.0
 52
90.0
 71
     2
 49
0.5
 62
   256
  6
BYLAYER
 49
-0.5
 62
   256
  6
BYLAYER
  0
ACDBPLACEHOLDER
  5
F
102
{ACAD_REACTORS
330
E
102
}
330
E
  0
XRECORD
  5
413
102
{ACAD_REACTORS
330
411
102
}
330
411
100
AcDbXrecord
340
412
  0
XRECORD
  5
415
102
{ACAD_REACTORS
330
411
102
}
330
411
100
AcDbXrecord
340
414
  0
DICTIONARY
  5
416
330
17
100
AcDbDictionary
280
     1
281
     1
  3
ACAD_XREC_ROUNDTRIP
360
417
  0
DICTIONARY
  5
418
330
19
100
AcDbDictionary
280
     1
281
     1
  3
ACAD_XREC_ROUNDTRIP
360
419
  0
XRECORD
  5
417
102
{ACAD_REACTORS
330
416
102
}
330
416
100
AcDbXrecord
102
SHADEPLOT
 70
     0
102
SHADEPLOTRESLEVEL
 70
     0
102
SHADEPLOTCUSTOMDPI
 70
     0
  0
XRECORD
  5
419
102
{ACAD_REACTORS
330
418
102
}
330
418
100
AcDbXrecord
102
SHADEPLOT
 70
     0
102
SHADEPLOTRESLEVEL
 70
     0
102
SHADEPLOTCUSTOMDPI
 70
     0
  0
ENDSEC
  0
EOF
