  0
SECTION
  2
HEADER
  9
$ACADVER
  1
AC1015
  9
$ACADMAINTVER
 70
     6
  9
$DWGCODEPAGE
  3
ANSI_1252
  9
$INSBASE
 10
0.0
 20
0.0
 30
0.0
  9
$EXTMIN
 10
0.247816
 20
0.7609999999999999
 30
0.0
  9
$EXTMAX
 10
6.104
 20
7.455
 30
0.0
  9
$LIMMIN
 10
0.0
 20
0.0
  9
$LIMMAX
 10
17.0
 20
11.0
  9
$ORTHOMODE
 70
     1
  9
$REGENMODE
 70
     0
  9
$FILLMODE
 70
     1
  9
$QTEXTMODE
 70
     0
  9
$MIRRTEXT
 70
     1
  9
$LTSCALE
 40
0.125
  9
$ATTMODE
 70
     1
  9
$TEXTSIZE
 40
0.18
  9
$TRACEWID
 40
0.05
  9
$TEXTSTYLE
  7
STANDARD
  9
$CLAYER
  8
0
  9
$CELTYPE
  6
ByLayer
  9
$CECOLOR
 62
   256
  9
$CELTSCALE
 40
1.0
  9
$DISPSILH
 70
     0
  9
$DIMSCALE
 40
1.0
  9
$DIMASZ
 40
0.125
  9
$DIMEXO
 40
0.063
  9
$DIMDLI
 40
0.38
  9
$DIMRND
 40
0.0
  9
$DIMDLE
 40
0.0
  9
$DIMEXE
 40
0.18
  9
$DIMTP
 40
0.0
  9
$DIMTM
 40
0.0
  9
$DIMTXT
 40
0.125
  9
$DIMCEN
 40
0.09
  9
$DIMTSZ
 40
0.0
  9
$DIMTOL
 70
     0
  9
$DIMLIM
 70
     0
  9
$DIMTIH
 70
     1
  9
$DIMTOH
 70
     1
  9
$DIMSE1
 70
     0
  9
$DIMSE2
 70
     0
  9
$DIMTAD
 70
     0
  9
$DIMZIN
 70
     0
  9
$DIMBLK
  1

  9
$DIMASO
 70
     0
  9
$DIMSHO
 70
     0
  9
$DIMPOST
  1

  9
$DIMAPOST
  1

  9
$DIMALT
 70
     0
  9
$DIMALTD
 70
     2
  9
$DIMALTF
 40
25.4
  9
$DIMLFAC
 40
1.0
  9
$DIMTOFL
 70
     0
  9
$DIMTVP
 40
0.0
  9
$DIMTIX
 70
     0
  9
$DIMSOXD
 70
     0
  9
$DIMSAH
 70
     0
  9
$DIMBLK1
  1

  9
$DIMBLK2
  1

  9
$DIMSTYLE
  2
Standard
  9
$DIMCLRD
 70
     0
  9
$DIMCLRE
 70
     0
  9
$DIMCLRT
 70
     0
  9
$DIMTFAC
 40
1.0
  9
$DIMGAP
 40
0.09
  9
$DIMJUST
 70
     0
  9
$DIMSD1
 70
     0
  9
$DIMSD2
 70
     0
  9
$DIMTOLJ
 70
     1
  9
$DIMTZIN
 70
     0
  9
$DIMALTZ
 70
     0
  9
$DIMALTTZ
 70
     0
  9
$DIMUPT
 70
     0
  9
$DIMDEC
 70
     4
  9
$DIMTDEC
 70
     4
  9
$DIMALTU
 70
     2
  9
$DIMALTTD
 70
     2
  9
$DIMTXSTY
  7
STANDARD
  9
$DIMAUNIT
 70
     0
  9
$DIMADEC
 70
     0
  9
$DIMALTRND
 40
0.0
  9
$DIMAZIN
 70
     0
  9
$DIMDSEP
 70
    46
  9
$DIMATFIT
 70
     3
  9
$DIMFRAC
 70
     0
  9
$DIMLDRBLK
  1

  9
$DIMLUNIT
 70
     2
  9
$DIMLWD
 70
    -2
  9
$DIMLWE
 70
    -2
  9
$DIMTMOVE
 70
     0
  9
$LUNITS
 70
     2
  9
$LUPREC
 70
     4
  9
$SKETCHINC
 40
0.1
  9
$FILLETRAD
 40
0.0
  9
$AUNITS
 70
     0
  9
$AUPREC
 70
     0
  9
$MENU
  1
acad
  9
$ELEVATION
 40
0.0
  9
$PELEVATION
 40
0.0
  9
$THICKNESS
 40
0.0
  9
$LIMCHECK
 70
     0
  9
$CHAMFERA
 40
0.0
  9
$CHAMFERB
 40
0.0
  9
$CHAMFERC
 40
1.0
  9
$CHAMFERD
 40
0.0
  9
$SKPOLY
 70
     0
  9
$TDCREATE
 40
2453955.560335243
  9
$TDUCREATE
 40
2453955.893668577
  9
$TDUPDATE
 40
2453955.602001921
  9
$TDUUPDATE
 40
2453955.893668588
  9
$TDINDWG
 40
0.0000000116
  9
$TDUSRTIMER
 40
0.0000000116
  9
$USRTIMER
 70
     1
  9
$ANGBASE
 50
0.0
  9
$ANGDIR
 70
     0
  9
$PDMODE
 70
     0
  9
$PDSIZE
 40
0.0
  9
$PLINEWID
 40
0.0
  9
$SPLFRAME
 70
     0
  9
$SPLINETYPE
 70
     6
  9
$SPLINESEGS
 70
     8
  9
$HANDSEED
  5
319
  9
$SURFTAB1
 70
     6
  9
$SURFTAB2
 70
     6
  9
$SURFTYPE
 70
     6
  9
$SURFU
 70
     6
  9
$SURFV
 70
     6
  9
$UCSBASE
  2

  9
$UCSNAME
  2

  9
$UCSORG
 10
0.0
 20
0.0
 30
0.0
  9
$UCSXDIR
 10
1.0
 20
0.0
 30
0.0
  9
$UCSYDIR
 10
0.0
 20
1.0
 30
0.0
  9
$UCSORTHOREF
  2

  9
$UCSORTHOVIEW
 70
     0
  9
$UCSORGTOP
 10
0.0
 20
0.0
 30
0.0
  9
$UCSORGBOTTOM
 10
0.0
 20
0.0
 30
0.0
  9
$UCSORGLEFT
 10
0.0
 20
0.0
 30
0.0
  9
$UCSORGRIGHT
 10
0.0
 20
0.0
 30
0.0
  9
$UCSORGFRONT
 10
0.0
 20
0.0
 30
0.0
  9
$UCSORGBACK
 10
0.0
 20
0.0
 30
0.0
  9
$PUCSBASE
  2

  9
$PUCSNAME
  2

  9
$PUCSORG
 10
0.0
 20
0.0
 30
0.0
  9
$PUCSXDIR
 10
1.0
 20
0.0
 30
0.0
  9
$PUCSYDIR
 10
0.0
 20
1.0
 30
0.0
  9
$PUCSORTHOREF
  2

  9
$PUCSORTHOVIEW
 70
     0
  9
$PUCSORGTOP
 10
0.0
 20
0.0
 30
0.0
  9
$PUCSORGBOTTOM
 10
0.0
 20
0.0
 30
0.0
  9
$PUCSORGLEFT
 10
0.0
 20
0.0
 30
0.0
  9
$PUCSORGRIGHT
 10
0.0
 20
0.0
 30
0.0
  9
$PUCSORGFRONT
 10
0.0
 20
0.0
 30
0.0
  9
$PUCSORGBACK
 10
0.0
 20
0.0
 30
0.0
  9
$USERI1
 70
     0
  9
$USERI2
 70
     0
  9
$USERI3
 70
     0
  9
$USERI4
 70
     0
  9
$USERI5
 70
     0
  9
$USERR1
 40
0.0
  9
$USERR2
 40
0.0
  9
$USERR3
 40
0.0
  9
$USERR4
 40
0.0
  9
$USERR5
 40
0.0
  9
$WORLDVIEW
 70
     1
  9
$SHADEDGE
 70
     3
  9
$SHADEDIF
 70
    70
  9
$TILEMODE
 70
     1
  9
$MAXACTVP
 70
    16
  9
$PINSBASE
 10
0.0
 20
0.0
 30
0.0
  9
$PLIMCHECK
 70
     0
  9
$PEXTMIN
 10
1.000000000000000E+20
 20
1.000000000000000E+20
 30
1.000000000000000E+20
  9
$PEXTMAX
 10
-1.000000000000000E+20
 20
-1.000000000000000E+20
 30
-1.000000000000000E+20
  9
$PLIMMIN
 10
0.0
 20
0.0
  9
$PLIMMAX
 10
12.0
 20
9.0
  9
$UNITMODE
 70
     0
  9
$VISRETAIN
 70
     0
  9
$PLINEGEN
 70
     0
  9
$PSLTSCALE
 70
     0
  9
$TREEDEPTH
 70
  3020
  9
$CMLSTYLE
  2
Standard
  9
$CMLJUST
 70
     0
  9
$CMLSCALE
 40
1.0
  9
$PROXYGRAPHICS
 70
     1
  9
$MEASUREMENT
 70
     0
  9
$CELWEIGHT
370
    -1
  9
$ENDCAPS
280
     0
  9
$JOINSTYLE
280
     0
  9
$LWDISPLAY
290
     0
  9
$INSUNITS
 70
     1
  9
$HYPERLINKBASE
  1

  9
$STYLESHEET
  1

  9
$XEDIT
290
     1
  9
$CEPSNTYPE
380
     0
  9
$PSTYLEMODE
290
     0
  9
$FINGERPRINTGUID
  2
{FAEB1C30-E019-11D5-929B-00C0DF256EC4}
  9
$VERSIONGUID
  2
{FAEB1C32-E019-11D5-929B-00C0DF256EC4}
  9
$EXTNAMES
290
     1
  9
$PSVPSCALE
 40
0.0
  9
$OLESTARTUP
290
     0
  0
ENDSEC
  0
SECTION
  2
CLASSES
  0
CLASS
  1
ACDBDICTIONARYWDFLT
  2
AcDbDictionaryWithDefault
  3
AutoCAD 2000
 90
        0
280
     0
281
     0
  0
CLASS
  1
ACDBPLACEHOLDER
  2
AcDbPlaceHolder
  3
ObjectDBX Classes
 90
        0
280
     0
281
     0
  0
CLASS
  1
LAYOUT
  2
AcDbLayout
  3
ObjectDBX Classes
 90
        0
280
     0
281
     0
  0
ENDSEC
  0
SECTION
  2
TABLES
  0
TABLE
  2
VPORT
  5
8
330
0
100
AcDbSymbolTable
 70
     2
  0
VPORT
  5
1E
330
8
100
AcDbSymbolTableRecord
100
AcDbViewportTableRecord
  2
*ACTIVE
 70
     0
 10
0.0
 20
0.0
 11
1.0
 21
1.0
 12
8.5
 22
6.12652705061082
 13
0.0
 23
0.0
 14
1.0
 24
1.0
 15
0.0
 25
0.0
 16
0.0
 26
0.0
 36
1.0
 17
0.0
 27
0.0
 37
0.0
 40
12.25305410122164
 41
0.7207678883071553
 42
50.0
 43
0.0
 44
0.0
 50
0.0
 51
0.0
 71
     0
 72
  2000
 73
     1
 74
     0
 75
     0
 76
     0
 77
     0
 78
     2
281
     0
 65
     1
110
0.0
120
0.0
130
0.0
111
1.0
121
0.0
131
0.0
112
0.0
122
1.0
132
0.0
 79
     0
146
0.0
  0
ENDTAB
  0
TABLE
  2
LTYPE
  5
5
330
0
100
AcDbSymbolTable
 70
     1
  0
LTYPE
  5
10
330
5
100
AcDbSymbolTableRecord
100
AcDbLinetypeTableRecord
  2
ByBlock
 70
     0
  3

 72
    65
 73
     0
 40
0.0
  0
LTYPE
  5
11
330
5
100
AcDbSymbolTableRecord
100
AcDbLinetypeTableRecord
  2
ByLayer
 70
     0
  3

 72
    65
 73
     0
 40
0.0
  0
LTYPE
  5
1B
330
5
100
AcDbSymbolTableRecord
100
AcDbLinetypeTableRecord
  2
CONTINUOUS
 70
     0
  3
Solid line
 72
    65
 73
     0
 40
0.0
  0
ENDTAB
  0
TABLE
  2
LAYER
  5
2
330
0
100
AcDbSymbolTable
 70
     1
  0
LAYER
  5
1C
330
2
100
AcDbSymbolTableRecord
100
AcDbLayerTableRecord
  2
0
 70
     0
 62
     7
  6
CONTINUOUS
370
    -3
390
F
  0
ENDTAB
  0
TABLE
  2
STYLE
  5
3
330
0
100
AcDbSymbolTable
 70
     1
  0
STYLE
  5
20
330
3
100
AcDbSymbolTableRecord
100
AcDbTextStyleTableRecord
  2
STANDARD
 70
     0
 40
0.0
 41
1.0
 50
0.0
 71
     0
 42
0.18
  3
ROMANS
  4

  0
ENDTAB
  0
TABLE
  2
VIEW
  5
6
330
0
100
AcDbSymbolTable
 70
     0
  0
ENDTAB
  0
TABLE
  2
UCS
  5
7
330
0
100
AcDbSymbolTable
 70
     0
  0
ENDTAB
  0
TABLE
  2
APPID
  5
9
330
0
100
AcDbSymbolTable
 70
     1
  0
APPID
  5
1F
330
9
100
AcDbSymbolTableRecord
100
AcDbRegAppTableRecord
  2
ACAD
 70
     0
  0
ENDTAB
  0
TABLE
  2
DIMSTYLE
  5
A
330
0
100
AcDbSymbolTable
 70
     1
100
AcDbDimStyleTable
  0
DIMSTYLE
105
21
330
A
100
AcDbSymbolTableRecord
100
AcDbDimStyleTableRecord
  2
Standard
 70
     0
  3

  4

340
20
  0
ENDTAB
  0
TABLE
  2
BLOCK_RECORD
  5
1
330
0
100
AcDbSymbolTable
 70
     0
  0
BLOCK_RECORD
  5
18
330
1
100
AcDbSymbolTableRecord
100
AcDbBlockTableRecord
  2
*Model_Space
340
19
  0
BLOCK_RECORD
  5
16
330
1
100
AcDbSymbolTableRecord
100
AcDbBlockTableRecord
  2
*Paper_Space
340
17
  0
ENDTAB
  0
ENDSEC
  0
SECTION
  2
BLOCKS
  0
BLOCK
  5
30E
330
18
100
AcDbEntity
  8
0
100
AcDbBlockBegin
  2
*Model_Space
 70
     0
 10
0.0
 20
0.0
 30
0.0
  3
*Model_Space
  1

  4

  0
ENDBLK
  5
30F
330
18
100
AcDbEntity
  8
0
100
AcDbBlockEnd
  0
BLOCK
  5
30C
330
16
100
AcDbEntity
 67
     1
  8
0
100
AcDbBlockBegin
  2
*Paper_Space
 70
     0
 10
0.0
 20
0.0
 30
0.0
  3
*Paper_Space
  1

  4

  0
ENDBLK
  5
30D
330
16
100
AcDbEntity
 67
     1
  8
0
100
AcDbBlockEnd
  0
ENDSEC
  0
SECTION
  2
ENTITIES
  0
LINE
  5
22
330
18
100
AcDbEntity
  8
0
100
AcDbLine
 10
5.962999999999999
 20
3.816
 30
0.0
 11
6.0
 21
3.779
 31
0.0
  0
LINE
  5
23
330
18
100
AcDbEntity
  8
0
100
AcDbLine
 10
5.879
 20
3.896
 30
0.0
 11
5.962999999999999
 21
3.816
 31
0.0
  0
LINE
  5
24
330
18
100
AcDbEntity
  8
0
100
AcDbLine
 10
5.97
 20
3.574
 30
0.0
 11
6.0
 21
3.535
 31
0.0
  0
LINE
  5
25
330
18
100
AcDbEntity
  8
0
100
AcDbLine
 10
5.906000000000001
 20
3.638
 30
0.0
 11
5.97
 21
3.574
 31
0.0
  0
LINE
  5
26
330
18
100
AcDbEntity
  8
0
100
AcDbLine
 10
5.797999999999999
 20
3.74
 30
0.0
 11
5.906000000000001
 21
3.638
 31
0.0
  0
LINE
  5
27
330
18
100
AcDbEntity
  8
0
100
AcDbLine
 10
5.741000000000001
 20
3.831
 30
0.0
 11
5.797999999999999
 21
3.74
 31
0.0
  0
LINE
  5
28
330
18
100
AcDbEntity
  8
0
100
AcDbLine
 10
5.944
 20
3.358
 30
0.0
 11
6.0
 21
3.321
 31
0.0
  0
LINE
  5
29
330
18
100
AcDbEntity
  8
0
100
AcDbLine
 10
5.855
 20
3.428
 30
0.0
 11
5.944
 21
3.358
 31
0.0
  0
LINE
  5
2A
330
18
100
AcDbEntity
  8
0
100
AcDbLine
 10
5.754
 20
3.517
 30
0.0
 11
5.855
 21
3.428
 31
0.0
  0
LINE
  5
2B
330
18
100
AcDbEntity
  8
0
100
AcDbLine
 10
5.658
 20
3.631
 30
0.0
 11
5.754
 21
3.517
 31
0.0
  0
LINE
  5
2C
330
18
100
AcDbEntity
  8
0
100
AcDbLine
 10
5.601
 20
3.764
 30
0.0
 11
5.658
 21
3.631
 31
0.0
  0
LINE
  5
2D
330
18
100
AcDbEntity
  8
0
100
AcDbLine
 10
5.932
 20
3.136
 30
0.0
 11
6.0
 21
3.058
 31
0.0
  0
LINE
  5
2E
330
18
100
AcDbEntity
  8
0
100
AcDbLine
 10
5.779
 20
3.282
 30
0.0
 11
5.932
 21
3.136
 31
0.0
  0
LINE
  5
2F
330
18
100
AcDbEntity
  8
0
100
AcDbLine
 10
5.671
 20
3.371
 30
0.0
 11
5.779
 21
3.282
 31
0.0
  0
LINE
  5
30
330
18
100
AcDbEntity
  8
0
100
AcDbLine
 10
5.531000000000001
 20
3.517
 30
0.0
 11
5.671
 21
3.371
 31
0.0
  0
LINE
  5
31
330
18
100
AcDbEntity
  8
0
100
AcDbLine
 10
5.452000000000001
 20
3.693
 30
0.0
 11
5.531000000000001
 21
3.517
 31
0.0
  0
LINE
  5
32
330
18
100
AcDbEntity
  8
0
100
AcDbLine
 10
5.785
 20
2.907
 30
0.0
 11
5.861000000000001
 21
2.804
 31
0.0
  0
LINE
  5
33
330
18
100
AcDbEntity
  8
0
100
AcDbLine
 10
5.716
 20
2.996
 30
0.0
 11
5.785
 21
2.907
 31
0.0
  0
LINE
  5
34
330
18
100
AcDbEntity
  8
0
100
AcDbLine
 10
5.595
 20
3.142
 30
0.0
 11
5.716
 21
2.996
 31
0.0
  0
LINE
  5
35
330
18
100
AcDbEntity
  8
0
100
AcDbLine
 10
5.492999999999999
 20
3.295
 30
0.0
 11
5.595
 21
3.142
 31
0.0
  0
LINE
  5
36
330
18
100
AcDbEntity
  8
0
100
AcDbLine
 10
5.392
 20
3.453
 30
0.0
 11
5.492999999999999
 21
3.295
 31
0.0
  0
LINE
  5
37
330
18
100
AcDbEntity
  8
0
100
AcDbLine
 10
5.297000000000001
 20
3.62
 30
0.0
 11
5.392
 21
3.453
 31
0.0
  0
LINE
  5
38
330
18
100
AcDbEntity
  8
0
100
AcDbLine
 10
5.671
 20
2.741
 30
0.0
 11
5.689
 21
2.711
 31
0.0
  0
LINE
  5
39
330
18
100
AcDbEntity
  8
0
100
AcDbLine
 10
5.531000000000001
 20
2.97
 30
0.0
 11
5.671
 21
2.741
 31
0.0
  0
LINE
  5
3A
330
18
100
AcDbEntity
  8
0
100
AcDbLine
 10
5.284
 20
3.295
 30
0.0
 11
5.531000000000001
 21
2.97
 31
0.0
  0
LINE
  5
3B
330
18
100
AcDbEntity
  8
0
100
AcDbLine
 10
5.145
 20
3.547
 30
0.0
 11
5.284
 21
3.295
 31
0.0
  0
LINE
  5
3C
330
18
100
AcDbEntity
  8
0
100
AcDbLine
 10
5.492999999999999
 20
2.691
 30
0.0
 11
5.532
 21
2.627
 31
0.0
  0
LINE
  5
3D
330
18
100
AcDbEntity
  8
0
100
AcDbLine
 10
5.422999999999999
 20
2.811
 30
0.0
 11
5.492999999999999
 21
2.691
 31
0.0
  0
LINE
  5
3E
330
18
100
AcDbEntity
  8
0
100
AcDbLine
 10
5.366000000000001
 20
2.926
 30
0.0
 11
5.422999999999999
 21
2.811
 31
0.0
  0
LINE
  5
3F
330
18
100
AcDbEntity
  8
0
100
AcDbLine
 10
5.29
 20
3.034
 30
0.0
 11
5.366000000000001
 21
2.926
 31
0.0
  0
LINE
  5
40
330
18
100
AcDbEntity
  8
0
100
AcDbLine
 10
5.201000000000001
 20
3.148
 30
0.0
 11
5.29
 21
3.034
 31
0.0
  0
LINE
  5
41
330
18
100
AcDbEntity
  8
0
100
AcDbLine
 10
5.106
 20
3.256
 30
0.0
 11
5.201000000000001
 21
3.148
 31
0.0
  0
LINE
  5
42
330
18
100
AcDbEntity
  8
0
100
AcDbLine
 10
5.032
 20
3.376
 30
0.0
 11
5.106
 21
3.256
 31
0.0
  0
LINE
  5
43
330
18
100
AcDbEntity
  8
0
100
AcDbLine
 10
5.233
 20
2.773
 30
0.0
 11
5.359
 21
2.534
 31
0.0
  0
LINE
  5
44
330
18
100
AcDbEntity
  8
0
100
AcDbLine
 10
5.15
 20
2.9
 30
0.0
 11
5.233
 21
2.773
 31
0.0
  0
LINE
  5
45
330
18
100
AcDbEntity
  8
0
100
AcDbLine
 10
5.042
 20
3.015
 30
0.0
 11
5.15
 21
2.9
 31
0.0
  0
LINE
  5
46
330
18
100
AcDbEntity
  8
0
100
AcDbLine
 10
5.032
 20
3.028
 30
0.0
 11
5.042
 21
3.015
 31
0.0
  0
LINE
  5
47
330
18
100
AcDbEntity
  8
0
100
AcDbLine
 10
5.162999999999999
 20
2.589
 30
0.0
 11
5.237
 21
2.469
 31
0.0
  0
LINE
  5
48
330
18
100
AcDbEntity
  8
0
100
AcDbLine
 10
5.08
 20
2.71
 30
0.0
 11
5.162999999999999
 21
2.589
 31
0.0
  0
LINE
  5
49
330
18
100
AcDbEntity
  8
0
100
AcDbLine
 10
5.032
 20
2.777
 30
0.0
 11
5.08
 21
2.71
 31
0.0
  0
LINE
  5
4A
330
18
100
AcDbEntity
  8
0
100
AcDbLine
 10
5.032
 20
2.491
 30
0.0
 11
5.125
 21
2.408
 31
0.0
  0
LINE
  5
4B
330
18
100
AcDbEntity
  8
0
100
AcDbLine
 10
4.383
 20
4.237
 30
0.0
 11
4.407
 21
4.287
 31
0.0
  0
LINE
  5
4C
330
18
100
AcDbEntity
  8
0
100
AcDbLine
 10
4.371
 20
4.164
 30
0.0
 11
4.383
 21
4.237
 31
0.0
  0
LINE
  5
4D
330
18
100
AcDbEntity
  8
0
100
AcDbLine
 10
4.367
 20
4.137
 30
0.0
 11
4.371
 21
4.164
 31
0.0
  0
LINE
  5
4E
330
18
100
AcDbEntity
  8
0
100
AcDbLine
 10
4.346
 20
4.003
 30
0.0
 11
4.356
 21
4.07
 31
0.0
  0
LINE
  5
4F
330
18
100
AcDbEntity
  8
0
100
AcDbLine
 10
4.313
 20
3.81
 30
0.0
 11
4.346
 21
4.003
 31
0.0
  0
LINE
  5
50
330
18
100
AcDbEntity
  8
0
100
AcDbLine
 10
4.269
 20
3.555
 30
0.0
 11
4.313
 21
3.81
 31
0.0
  0
LINE
  5
51
330
18
100
AcDbEntity
  8
0
100
AcDbLine
 10
4.238
 20
3.44
 30
0.0
 11
4.269
 21
3.555
 31
0.0
  0
LINE
  5
52
330
18
100
AcDbEntity
  8
0
100
AcDbLine
 10
4.307
 20
3.161
 30
0.0
 11
4.238
 21
3.44
 31
0.0
  0
LINE
  5
53
330
18
100
AcDbEntity
  8
0
100
AcDbLine
 10
4.181
 20
2.975
 30
0.0
 11
4.307
 21
3.161
 31
0.0
  0
LINE
  5
54
330
18
100
AcDbEntity
  8
0
100
AcDbLine
 10
4.291
 20
2.814
 30
0.0
 11
4.181
 21
2.975
 31
0.0
  0
LINE
  5
55
330
18
100
AcDbEntity
  8
0
100
AcDbLine
 10
4.361000000000001
 20
4.777
 30
0.0
 11
4.364
 21
4.822
 31
0.0
  0
LINE
  5
56
330
18
100
AcDbEntity
  8
0
100
AcDbLine
 10
4.33
 20
4.601
 30
0.0
 11
4.361000000000001
 21
4.777
 31
0.0
  0
LINE
  5
57
330
18
100
AcDbEntity
  8
0
100
AcDbLine
 10
4.317
 20
4.525
 30
0.0
 11
4.33
 21
4.601
 31
0.0
  0
LINE
  5
58
330
18
100
AcDbEntity
  8
0
100
AcDbLine
 10
4.29
 20
4.365
 30
0.0
 11
4.317
 21
4.525
 31
0.0
  0
LINE
  5
59
330
18
100
AcDbEntity
  8
0
100
AcDbLine
 10
4.284
 20
4.322
 30
0.0
 11
4.29
 21
4.365
 31
0.0
  0
LINE
  5
5A
330
18
100
AcDbEntity
  8
0
100
AcDbLine
 10
4.266
 20
4.202
 30
0.0
 11
4.274
 21
4.258
 31
0.0
  0
LINE
  5
5B
330
18
100
AcDbEntity
  8
0
100
AcDbLine
 10
4.255
 20
4.042
 30
0.0
 11
4.266
 21
4.202
 31
0.0
  0
LINE
  5
5C
330
18
100
AcDbEntity
  8
0
100
AcDbLine
 10
4.236000000000001
 20
3.894
 30
0.0
 11
4.255
 21
4.042
 31
0.0
  0
LINE
  5
5D
330
18
100
AcDbEntity
  8
0
100
AcDbLine
 10
4.21
 20
3.647
 30
0.0
 11
4.236000000000001
 21
3.894
 31
0.0
  0
LINE
  5
5E
330
18
100
AcDbEntity
  8
0
100
AcDbLine
 10
4.2
 20
3.588
 30
0.0
 11
4.21
 21
3.647
 31
0.0
  0
LINE
  5
5F
330
18
100
AcDbEntity
  8
0
100
AcDbLine
 10
4.136
 20
3.389
 30
0.0
 11
4.2
 21
3.588
 31
0.0
  0
LINE
  5
60
330
18
100
AcDbEntity
  8
0
100
AcDbLine
 10
4.22
 20
3.117
 30
0.0
 11
4.136
 21
3.389
 31
0.0
  0
LINE
  5
61
330
18
100
AcDbEntity
  8
0
100
AcDbLine
 10
4.066
 20
2.92
 30
0.0
 11
4.22
 21
3.117
 31
0.0
  0
LINE
  5
62
330
18
100
AcDbEntity
  8
0
100
AcDbLine
 10
4.174
 20
2.754
 30
0.0
 11
4.066
 21
2.92
 31
0.0
  0
LINE
  5
63
330
18
100
AcDbEntity
  8
0
100
AcDbLine
 10
4.227
 20
4.602
 30
0.0
 11
4.246
 21
4.774
 31
0.0
  0
LINE
  5
64
330
18
100
AcDbEntity
  8
0
100
AcDbLine
 10
4.223
 20
4.533
 30
0.0
 11
4.227
 21
4.602
 31
0.0
  0
LINE
  5
65
330
18
100
AcDbEntity
  8
0
100
AcDbLine
 10
4.217
 20
4.472
 30
0.0
 11
4.223
 21
4.533
 31
0.0
  0
LINE
  5
66
330
18
100
AcDbEntity
  8
0
100
AcDbLine
 10
4.205
 20
4.355
 30
0.0
 11
4.21
 21
4.404
 31
0.0
  0
LINE
  5
67
330
18
100
AcDbEntity
  8
0
100
AcDbLine
 10
4.193000000000001
 20
4.228
 30
0.0
 11
4.205
 21
4.355
 31
0.0
  0
LINE
  5
68
330
18
100
AcDbEntity
  8
0
100
AcDbLine
 10
4.178
 20
4.105
 30
0.0
 11
4.193000000000001
 21
4.228
 31
0.0
  0
LINE
  5
69
330
18
100
AcDbEntity
  8
0
100
AcDbLine
 10
4.155
 20
3.922
 30
0.0
 11
4.178
 21
4.105
 31
0.0
  0
LINE
  5
6A
330
18
100
AcDbEntity
  8
0
100
AcDbLine
 10
4.117
 20
3.72
 30
0.0
 11
4.155
 21
3.922
 31
0.0
  0
LINE
  5
6B
330
18
100
AcDbEntity
  8
0
100
AcDbLine
 10
4.082
 20
3.479
 30
0.0
 11
4.117
 21
3.72
 31
0.0
  0
LINE
  5
6C
330
18
100
AcDbEntity
  8
0
100
AcDbLine
 10
4.051
 20
3.346
 30
0.0
 11
4.082
 21
3.479
 31
0.0
  0
LINE
  5
6D
330
18
100
AcDbEntity
  8
0
100
AcDbLine
 10
4.147
 20
3.081
 30
0.0
 11
4.051
 21
3.346
 31
0.0
  0
LINE
  5
6E
330
18
100
AcDbEntity
  8
0
100
AcDbLine
 10
3.959
 20
2.869
 30
0.0
 11
4.147
 21
3.081
 31
0.0
  0
LINE
  5
6F
330
18
100
AcDbEntity
  8
0
100
AcDbLine
 10
4.073
 20
2.703
 30
0.0
 11
3.959
 21
2.869
 31
0.0
  0
LINE
  5
70
330
18
100
AcDbEntity
  8
0
100
AcDbLine
 10
4.171
 20
4.66
 30
0.0
 11
4.178999999999999
 21
4.747
 31
0.0
  0
LINE
  5
71
330
18
100
AcDbEntity
  8
0
100
AcDbLine
 10
4.161000000000001
 20
4.598
 30
0.0
 11
4.171
 21
4.66
 31
0.0
  0
LINE
  5
72
330
18
100
AcDbEntity
  8
0
100
AcDbLine
 10
4.147
 20
4.498
 30
0.0
 11
4.152
 21
4.536000000000001
 31
0.0
  0
LINE
  5
73
330
18
100
AcDbEntity
  8
0
100
AcDbLine
 10
4.134
 20
4.413
 30
0.0
 11
4.147
 21
4.498
 31
0.0
  0
LINE
  5
74
330
18
100
AcDbEntity
  8
0
100
AcDbLine
 10
4.112
 20
4.265
 30
0.0
 11
4.134
 21
4.413
 31
0.0
  0
LINE
  5
75
330
18
100
AcDbEntity
  8
0
100
AcDbLine
 10
4.088
 20
4.142
 30
0.0
 11
4.112
 21
4.265
 31
0.0
  0
LINE
  5
76
330
18
100
AcDbEntity
  8
0
100
AcDbLine
 10
4.069
 20
4.021
 30
0.0
 11
4.088
 21
4.142
 31
0.0
  0
LINE
  5
77
330
18
100
AcDbEntity
  8
0
100
AcDbLine
 10
4.037
 20
3.759
 30
0.0
 11
4.069
 21
4.021
 31
0.0
  0
LINE
  5
78
330
18
100
AcDbEntity
  8
0
100
AcDbLine
 10
4.013
 20
3.61
 30
0.0
 11
4.037
 21
3.759
 31
0.0
  0
LINE
  5
79
330
18
100
AcDbEntity
  8
0
100
AcDbLine
 10
3.994
 20
3.495
 30
0.0
 11
4.013
 21
3.61
 31
0.0
  0
LINE
  5
7A
330
18
100
AcDbEntity
  8
0
100
AcDbLine
 10
3.977
 20
3.309
 30
0.0
 11
3.994
 21
3.495
 31
0.0
  0
LINE
  5
7B
330
18
100
AcDbEntity
  8
0
100
AcDbLine
 10
4.072
 20
3.044
 30
0.0
 11
3.977
 21
3.309
 31
0.0
  0
LINE
  5
7C
330
18
100
AcDbEntity
  8
0
100
AcDbLine
 10
3.883
 20
2.833
 30
0.0
 11
4.072
 21
3.044
 31
0.0
  0
LINE
  5
7D
330
18
100
AcDbEntity
  8
0
100
AcDbLine
 10
3.972
 20
2.651
 30
0.0
 11
3.883
 21
2.833
 31
0.0
  0
LINE
  5
7E
330
18
100
AcDbEntity
  8
0
100
AcDbLine
 10
3.981
 20
4.471
 30
0.0
 11
3.982
 21
4.667
 31
0.0
  0
LINE
  5
7F
330
18
100
AcDbEntity
  8
0
100
AcDbLine
 10
3.958
 20
4.071000000000001
 30
0.0
 11
3.981
 21
4.471
 31
0.0
  0
LINE
  5
80
330
18
100
AcDbEntity
  8
0
100
AcDbLine
 10
3.858
 20
3.638
 30
0.0
 11
3.958
 21
4.071000000000001
 31
0.0
  0
LINE
  5
81
330
18
100
AcDbEntity
  8
0
100
AcDbLine
 10
3.808
 20
3.507
 30
0.0
 11
3.858
 21
3.638
 31
0.0
  0
LINE
  5
82
330
18
100
AcDbEntity
  8
0
100
AcDbLine
 10
3.878
 20
4.508
 30
0.0
 11
3.877
 21
4.625
 31
0.0
  0
LINE
  5
83
330
18
100
AcDbEntity
  8
0
100
AcDbLine
 10
3.873
 20
4.347
 30
0.0
 11
3.878
 21
4.508
 31
0.0
  0
LINE
  5
84
330
18
100
AcDbEntity
  8
0
100
AcDbLine
 10
3.843
 20
4.042
 30
0.0
 11
3.873
 21
4.347
 31
0.0
  0
LINE
  5
85
330
18
100
AcDbEntity
  8
0
100
AcDbLine
 10
3.808
 20
3.877
 30
0.0
 11
3.843
 21
4.042
 31
0.0
  0
LINE
  5
86
330
18
100
AcDbEntity
  8
0
100
AcDbLine
 10
4.375
 20
3.593
 30
0.0
 11
4.407
 21
3.754
 31
0.0
  0
LINE
  5
87
330
18
100
AcDbEntity
  8
0
100
AcDbLine
 10
4.349
 20
3.496
 30
0.0
 11
4.375
 21
3.593
 31
0.0
  0
LINE
  5
88
330
18
100
AcDbEntity
  8
0
100
AcDbLine
 10
4.423
 20
3.219
 30
0.0
 11
4.349
 21
3.496
 31
0.0
  0
LINE
  5
89
330
18
100
AcDbEntity
  8
0
100
AcDbLine
 10
4.279
 20
3.022
 30
0.0
 11
4.423
 21
3.219
 31
0.0
  0
LINE
  5
8A
330
18
100
AcDbEntity
  8
0
100
AcDbLine
 10
4.361000000000001
 20
2.85
 30
0.0
 11
4.279
 21
3.022
 31
0.0
  0
LINE
  5
8B
330
18
100
AcDbEntity
  8
0
100
AcDbLine
 10
4.08
 20
4.477
 30
0.0
 11
4.078
 21
4.662
 31
0.0
  0
LINE
  5
8C
330
18
100
AcDbEntity
  8
0
100
AcDbLine
 10
4.075
 20
4.447
 30
0.0
 11
4.08
 21
4.477
 31
0.0
  0
LINE
  5
8D
330
18
100
AcDbEntity
  8
0
100
AcDbLine
 10
4.07
 20
4.341
 30
0.0
 11
4.075
 21
4.447
 31
0.0
  0
LINE
  5
8E
330
18
100
AcDbEntity
  8
0
100
AcDbLine
 10
4.065
 20
4.284
 30
0.0
 11
4.07
 21
4.341
 31
0.0
  0
LINE
  5
8F
330
18
100
AcDbEntity
  8
0
100
AcDbLine
 10
4.042
 20
4.1
 30
0.0
 11
4.065
 21
4.284
 31
0.0
  0
LINE
  5
90
330
18
100
AcDbEntity
  8
0
100
AcDbLine
 10
3.994
 20
3.872
 30
0.0
 11
4.042
 21
4.1
 31
0.0
  0
LINE
  5
91
330
18
100
AcDbEntity
  8
0
100
AcDbLine
 10
3.978
 20
3.791
 30
0.0
 11
3.994
 21
3.872
 31
0.0
  0
LINE
  5
92
330
18
100
AcDbEntity
  8
0
100
AcDbLine
 10
3.948
 20
3.633
 30
0.0
 11
3.978
 21
3.791
 31
0.0
  0
LINE
  5
93
330
18
100
AcDbEntity
  8
0
100
AcDbLine
 10
3.889
 20
3.393
 30
0.0
 11
3.948
 21
3.633
 31
0.0
  0
LINE
  5
94
330
18
100
AcDbEntity
  8
0
100
AcDbLine
 10
3.899
 20
3.27
 30
0.0
 11
3.889
 21
3.393
 31
0.0
  0
LINE
  5
95
330
18
100
AcDbEntity
  8
0
100
AcDbLine
 10
4.01
 20
3.012
 30
0.0
 11
3.899
 21
3.27
 31
0.0
  0
LINE
  5
96
330
18
100
AcDbEntity
  8
0
100
AcDbLine
 10
3.773
 20
2.781
 30
0.0
 11
4.01
 21
3.012
 31
0.0
  0
LINE
  5
97
330
18
100
AcDbEntity
  8
0
100
AcDbLine
 10
3.891
 20
2.609
 30
0.0
 11
3.773
 21
2.781
 31
0.0
  0
LINE
  5
98
330
18
100
AcDbEntity
  8
0
100
AcDbLine
 10
3.814
 20
2.254
 30
0.0
 11
3.808
 21
2.236
 31
0.0
  0
LINE
  5
99
330
18
100
AcDbEntity
  8
0
100
AcDbLine
 10
3.869
 20
2.435
 30
0.0
 11
3.814
 21
2.254
 31
0.0
  0
LINE
  5
9A
330
18
100
AcDbEntity
  8
0
100
AcDbLine
 10
3.891
 20
2.609
 30
0.0
 11
3.869
 21
2.435
 31
0.0
  0
LINE
  5
9B
330
18
100
AcDbEntity
  8
0
100
AcDbLine
 10
3.845
 20
1.952
 30
0.0
 11
3.808
 21
1.821
 31
0.0
  0
LINE
  5
9C
330
18
100
AcDbEntity
  8
0
100
AcDbLine
 10
3.972
 20
2.651
 30
0.0
 11
3.845
 21
1.952
 31
0.0
  0
LINE
  5
9D
330
18
100
AcDbEntity
  8
0
100
AcDbLine
 10
4.338
 20
1.157
 30
0.0
 11
4.33
 21
1.119
 31
0.0
  0
LINE
  5
9E
330
18
100
AcDbEntity
  8
0
100
AcDbLine
 10
4.361000000000001
 20
1.348
 30
0.0
 11
4.338
 21
1.157
 31
0.0
  0
LINE
  5
9F
330
18
100
AcDbEntity
  8
0
100
AcDbLine
 10
4.407
 20
1.588
 30
0.0
 11
4.361000000000001
 21
1.348
 31
0.0
  0
LINE
  5
A0
330
18
100
AcDbEntity
  8
0
100
AcDbLine
 10
4.252
 20
1.169
 30
0.0
 11
4.248
 21
1.063
 31
0.0
  0
LINE
  5
A1
330
18
100
AcDbEntity
  8
0
100
AcDbLine
 10
4.276
 20
1.322
 30
0.0
 11
4.252
 21
1.169
 31
0.0
  0
LINE
  5
A2
330
18
100
AcDbEntity
  8
0
100
AcDbLine
 10
4.303999999999999
 20
1.503
 30
0.0
 11
4.276
 21
1.322
 31
0.0
  0
LINE
  5
A3
330
18
100
AcDbEntity
  8
0
100
AcDbLine
 10
4.329
 20
1.667
 30
0.0
 11
4.303999999999999
 21
1.503
 31
0.0
  0
LINE
  5
A4
330
18
100
AcDbEntity
  8
0
100
AcDbLine
 10
4.372
 20
1.779
 30
0.0
 11
4.329
 21
1.667
 31
0.0
  0
LINE
  5
A5
330
18
100
AcDbEntity
  8
0
100
AcDbLine
 10
4.407
 20
2.054
 30
0.0
 11
4.372
 21
1.779
 31
0.0
  0
LINE
  5
A6
330
18
100
AcDbEntity
  8
0
100
AcDbLine
 10
4.109
 20
0.976
 30
0.0
 11
4.109
 21
0.968
 31
0.0
  0
LINE
  5
A7
330
18
100
AcDbEntity
  8
0
100
AcDbLine
 10
4.12
 20
1.023
 30
0.0
 11
4.109
 21
0.976
 31
0.0
  0
LINE
  5
A8
330
18
100
AcDbEntity
  8
0
100
AcDbLine
 10
4.128
 20
1.095
 30
0.0
 11
4.12
 21
1.023
 31
0.0
  0
LINE
  5
A9
330
18
100
AcDbEntity
  8
0
100
AcDbLine
 10
4.138999999999999
 20
1.159
 30
0.0
 11
4.128
 21
1.095
 31
0.0
  0
LINE
  5
AA
330
18
100
AcDbEntity
  8
0
100
AcDbLine
 10
4.158
 20
1.229
 30
0.0
 11
4.138999999999999
 21
1.159
 31
0.0
  0
LINE
  5
AB
330
18
100
AcDbEntity
  8
0
100
AcDbLine
 10
4.171
 20
1.309
 30
0.0
 11
4.158
 21
1.229
 31
0.0
  0
LINE
  5
AC
330
18
100
AcDbEntity
  8
0
100
AcDbLine
 10
4.174
 20
1.356
 30
0.0
 11
4.171
 21
1.309
 31
0.0
  0
LINE
  5
AD
330
18
100
AcDbEntity
  8
0
100
AcDbLine
 10
4.178
 20
1.458
 30
0.0
 11
4.174
 21
1.356
 31
0.0
  0
LINE
  5
AE
330
18
100
AcDbEntity
  8
0
100
AcDbLine
 10
4.187
 20
1.535
 30
0.0
 11
4.178
 21
1.458
 31
0.0
  0
LINE
  5
AF
330
18
100
AcDbEntity
  8
0
100
AcDbLine
 10
4.196000000000001
 20
1.583
 30
0.0
 11
4.187
 21
1.535
 31
0.0
  0
LINE
  5
B0
330
18
100
AcDbEntity
  8
0
100
AcDbLine
 10
4.243
 20
1.711
 30
0.0
 11
4.196000000000001
 21
1.583
 31
0.0
  0
LINE
  5
B1
330
18
100
AcDbEntity
  8
0
100
AcDbLine
 10
4.258
 20
1.802
 30
0.0
 11
4.243
 21
1.711
 31
0.0
  0
LINE
  5
B2
330
18
100
AcDbEntity
  8
0
100
AcDbLine
 10
4.284
 20
1.922
 30
0.0
 11
4.258
 21
1.802
 31
0.0
  0
LINE
  5
B3
330
18
100
AcDbEntity
  8
0
100
AcDbLine
 10
4.316
 20
2.026
 30
0.0
 11
4.284
 21
1.922
 31
0.0
  0
LINE
  5
B4
330
18
100
AcDbEntity
  8
0
100
AcDbLine
 10
4.322
 20
2.093
 30
0.0
 11
4.316
 21
2.026
 31
0.0
  0
LINE
  5
B5
330
18
100
AcDbEntity
  8
0
100
AcDbLine
 10
4.316
 20
2.186
 30
0.0
 11
4.322
 21
2.093
 31
0.0
  0
LINE
  5
B6
330
18
100
AcDbEntity
  8
0
100
AcDbLine
 10
4.314
 20
2.264
 30
0.0
 11
4.316
 21
2.186
 31
0.0
  0
LINE
  5
B7
330
18
100
AcDbEntity
  8
0
100
AcDbLine
 10
4.306
 20
2.382
 30
0.0
 11
4.314
 21
2.264
 31
0.0
  0
LINE
  5
B8
330
18
100
AcDbEntity
  8
0
100
AcDbLine
 10
4.327
 20
2.607
 30
0.0
 11
4.306
 21
2.382
 31
0.0
  0
LINE
  5
B9
330
18
100
AcDbEntity
  8
0
100
AcDbLine
 10
4.361000000000001
 20
2.85
 30
0.0
 11
4.327
 21
2.607
 31
0.0
  0
LINE
  5
BA
330
18
100
AcDbEntity
  8
0
100
AcDbLine
 10
4.005
 20
0.9990000000000001
 30
0.0
 11
4.001
 21
0.894
 31
0.0
  0
LINE
  5
BB
330
18
100
AcDbEntity
  8
0
100
AcDbLine
 10
4.002
 20
1.088
 30
0.0
 11
4.005
 21
0.9990000000000001
 31
0.0
  0
LINE
  5
BC
330
18
100
AcDbEntity
  8
0
100
AcDbLine
 10
4.013
 20
1.164
 30
0.0
 11
4.002
 21
1.088
 31
0.0
  0
LINE
  5
BD
330
18
100
AcDbEntity
  8
0
100
AcDbLine
 10
4.036000000000001
 20
1.259
 30
0.0
 11
4.013
 21
1.164
 31
0.0
  0
LINE
  5
BE
330
18
100
AcDbEntity
  8
0
100
AcDbLine
 10
4.031000000000001
 20
1.335
 30
0.0
 11
4.036000000000001
 21
1.259
 31
0.0
  0
LINE
  5
BF
330
18
100
AcDbEntity
  8
0
100
AcDbLine
 10
4.04
 20
1.414
 30
0.0
 11
4.031000000000001
 21
1.335
 31
0.0
  0
LINE
  5
C0
330
18
100
AcDbEntity
  8
0
100
AcDbLine
 10
4.062
 20
1.494
 30
0.0
 11
4.04
 21
1.414
 31
0.0
  0
LINE
  5
C1
330
18
100
AcDbEntity
  8
0
100
AcDbLine
 10
4.101
 20
1.63
 30
0.0
 11
4.062
 21
1.494
 31
0.0
  0
LINE
  5
C2
330
18
100
AcDbEntity
  8
0
100
AcDbLine
 10
4.123
 20
1.749
 30
0.0
 11
4.101
 21
1.63
 31
0.0
  0
LINE
  5
C3
330
18
100
AcDbEntity
  8
0
100
AcDbLine
 10
4.128
 20
1.847
 30
0.0
 11
4.123
 21
1.749
 31
0.0
  0
LINE
  5
C4
330
18
100
AcDbEntity
  8
0
100
AcDbLine
 10
4.156000000000001
 20
1.915
 30
0.0
 11
4.128
 21
1.847
 31
0.0
  0
LINE
  5
C5
330
18
100
AcDbEntity
  8
0
100
AcDbLine
 10
4.205
 20
2.014
 30
0.0
 11
4.156000000000001
 21
1.915
 31
0.0
  0
LINE
  5
C6
330
18
100
AcDbEntity
  8
0
100
AcDbLine
 10
4.212
 20
2.14
 30
0.0
 11
4.205
 21
2.014
 31
0.0
  0
LINE
  5
C7
330
18
100
AcDbEntity
  8
0
100
AcDbLine
 10
4.215
 20
2.209
 30
0.0
 11
4.212
 21
2.14
 31
0.0
  0
LINE
  5
C8
330
18
100
AcDbEntity
  8
0
100
AcDbLine
 10
4.218
 20
2.417
 30
0.0
 11
4.215
 21
2.209
 31
0.0
  0
LINE
  5
C9
330
18
100
AcDbEntity
  8
0
100
AcDbLine
 10
4.291
 20
2.814
 30
0.0
 11
4.218
 21
2.417
 31
0.0
  0
LINE
  5
CA
330
18
100
AcDbEntity
  8
0
100
AcDbLine
 10
3.879
 20
1.028
 30
0.0
 11
3.862
 21
0.7979999999999999
 31
0.0
  0
LINE
  5
CB
330
18
100
AcDbEntity
  8
0
100
AcDbLine
 10
3.915
 20
1.179
 30
0.0
 11
3.879
 21
1.028
 31
0.0
  0
LINE
  5
CC
330
18
100
AcDbEntity
  8
0
100
AcDbLine
 10
3.952
 20
1.358
 30
0.0
 11
3.915
 21
1.179
 31
0.0
  0
LINE
  5
CD
330
18
100
AcDbEntity
  8
0
100
AcDbLine
 10
3.988
 20
1.495
 30
0.0
 11
3.952
 21
1.358
 31
0.0
  0
LINE
  5
CE
330
18
100
AcDbEntity
  8
0
100
AcDbLine
 10
4.025
 20
1.665
 30
0.0
 11
3.988
 21
1.495
 31
0.0
  0
LINE
  5
CF
330
18
100
AcDbEntity
  8
0
100
AcDbLine
 10
4.056
 20
1.841
 30
0.0
 11
4.025
 21
1.665
 31
0.0
  0
LINE
  5
D0
330
18
100
AcDbEntity
  8
0
100
AcDbLine
 10
4.174
 20
2.754
 30
0.0
 11
4.056
 21
1.841
 31
0.0
  0
LINE
  5
D1
330
18
100
AcDbEntity
  8
0
100
AcDbLine
 10
3.835
 20
1.35
 30
0.0
 11
3.808
 21
1.281
 31
0.0
  0
LINE
  5
D2
330
18
100
AcDbEntity
  8
0
100
AcDbLine
 10
3.88
 20
1.521
 30
0.0
 11
3.835
 21
1.35
 31
0.0
  0
LINE
  5
D3
330
18
100
AcDbEntity
  8
0
100
AcDbLine
 10
3.918
 20
1.772
 30
0.0
 11
3.88
 21
1.521
 31
0.0
  0
LINE
  5
D4
330
18
100
AcDbEntity
  8
0
100
AcDbLine
 10
3.99
 20
2.044
 30
0.0
 11
3.918
 21
1.772
 31
0.0
  0
LINE
  5
D5
330
18
100
AcDbEntity
  8
0
100
AcDbLine
 10
4.073
 20
2.703
 30
0.0
 11
3.99
 21
2.044
 31
0.0
  0
LINE
  5
D6
330
18
100
AcDbEntity
  8
0
100
AcDbLine
 10
1.511
 20
7.201000000000001
 30
0.0
 11
1.511
 21
6.496
 31
0.0
  0
LINE
  5
D7
330
18
100
AcDbEntity
  8
0
100
AcDbLine
 10
5.032
 20
6.814
 30
0.0
 11
5.032
 21
5.821000000000001
 31
0.0
  0
LINE
  5
D8
330
18
100
AcDbEntity
  8
0
100
AcDbLine
 10
6.0
 20
7.153
 30
0.0
 11
6.0
 21
4.534
 31
0.0
  0
LINE
  5
D9
330
18
100
AcDbEntity
  8
0
100
AcDbLine
 10
2.903
 20
6.797000000000001
 30
0.0
 11
2.903
 21
6.335
 31
0.0
  0
LINE
  5
DA
330
18
100
AcDbEntity
  8
0
100
AcDbLine
 10
3.808
 20
0.7609999999999999
 30
0.0
 11
3.808
 21
2.566
 31
0.0
  0
LINE
  5
DB
330
18
100
AcDbEntity
  8
0
100
AcDbLine
 10
4.407
 20
4.839
 30
0.0
 11
4.407
 21
4.046
 31
0.0
  0
LINE
  5
DC
330
18
100
AcDbEntity
  8
0
100
AcDbLine
 10
5.032
 20
2.358
 30
0.0
 11
6.0
 21
2.878
 31
0.0
  0
LINE
  5
DD
330
18
100
AcDbEntity
  8
0
100
AcDbLine
 10
5.032
 20
6.814
 30
0.0
 11
6.0
 21
7.153
 31
0.0
  0
LINE
  5
DE
330
18
100
AcDbEntity
  8
0
100
AcDbLine
 10
5.032
 20
6.814
 30
0.0
 11
1.511
 21
7.201000000000001
 31
0.0
  0
LINE
  5
DF
330
18
100
AcDbEntity
  8
0
100
AcDbLine
 10
1.511
 20
7.201000000000001
 30
0.0
 11
2.679
 21
7.447
 31
0.0
  0
LINE
  5
E0
330
18
100
AcDbEntity
  8
0
100
AcDbLine
 10
2.679
 20
7.447
 30
0.0
 11
3.969
 21
7.332999999999999
 31
0.0
  0
LINE
  5
E1
330
18
100
AcDbEntity
  8
0
100
AcDbLine
 10
1.511
 20
3.007
 30
0.0
 11
2.916
 21
2.748
 31
0.0
  0
LINE
  5
E2
330
18
100
AcDbEntity
  8
0
100
AcDbLine
 10
3.808
 20
4.597
 30
0.0
 11
4.049
 21
4.694
 31
0.0
  0
LINE
  5
E3
330
18
100
AcDbEntity
  8
0
100
AcDbLine
 10
3.808
 20
0.7609999999999999
 30
0.0
 11
4.407
 21
1.172
 31
0.0
  0
LINE
  5
E4
330
18
100
AcDbEntity
  8
0
100
AcDbLine
 10
2.903
 20
6.797000000000001
 30
0.0
 11
3.2
 21
6.925
 31
0.0
  0
LINE
  5
E5
330
18
100
AcDbEntity
  8
0
100
AcDbLine
 10
3.366
 20
6.997000000000001
 30
0.0
 11
3.468
 21
6.787000000000001
 31
0.0
  0
LINE
  5
E6
330
18
100
AcDbEntity
  8
0
100
AcDbLine
 10
3.808
 20
4.597
 30
0.0
 11
3.49
 21
5.367999999999999
 31
0.0
  0
LINE
  5
E7
330
18
100
AcDbEntity
  8
0
100
AcDbLine
 10
3.808
 20
0.7609999999999999
 30
0.0
 11
3.087
 21
2.44
 31
0.0
  0
LINE
  5
E8
330
18
100
AcDbEntity
  8
0
100
AcDbLine
 10
2.328
 20
6.533
 30
0.0
 11
2.328
 21
5.366000000000001
 31
0.0
  0
LINE
  5
E9
330
18
100
AcDbEntity
  8
0
100
AcDbLine
 10
2.328
 20
3.637
 30
0.0
 11
2.848
 21
3.233
 31
0.0
  0
LINE
  5
EA
330
18
100
AcDbEntity
  8
0
100
AcDbLine
 10
2.848
 20
3.233
 30
0.0
 11
2.848
 21
2.921
 31
0.0
  0
LINE
  5
EB
330
18
100
AcDbEntity
  8
0
100
AcDbLine
 10
2.848
 20
2.921
 30
0.0
 11
3.053
 21
2.399
 31
0.0
  0
LINE
  5
EC
330
18
100
AcDbEntity
  8
0
100
AcDbLine
 10
3.084
 20
2.456
 30
0.0
 11
3.084
 21
5.303999999999999
 31
0.0
  0
LINE
  5
ED
330
18
100
AcDbEntity
  8
0
100
AcDbLine
 10
3.084
 20
5.904
 30
0.0
 11
2.886
 21
6.375
 31
0.0
  0
LINE
  5
EE
330
18
100
AcDbEntity
  8
0
100
AcDbLine
 10
2.886
 20
6.375
 30
0.0
 11
2.755
 21
6.482
 31
0.0
  0
LINE
  5
EF
330
18
100
AcDbEntity
  8
0
100
AcDbLine
 10
2.755
 20
6.482
 30
0.0
 11
2.367
 21
6.549
 31
0.0
  0
LINE
  5
F0
330
18
100
AcDbEntity
  8
0
100
AcDbLine
 10
3.047
 20
2.44
 30
0.0
 11
3.047
 21
5.302000000000001
 31
0.0
  0
LINE
  5
F1
330
18
100
AcDbEntity
  8
0
100
AcDbLine
 10
3.047
 20
5.888
 30
0.0
 11
2.849
 21
6.358
 31
0.0
  0
LINE
  5
F2
330
18
100
AcDbEntity
  8
0
100
AcDbLine
 10
2.849
 20
6.358
 30
0.0
 11
2.717
 21
6.466
 31
0.0
  0
LINE
  5
F3
330
18
100
AcDbEntity
  8
0
100
AcDbLine
 10
2.717
 20
6.466
 30
0.0
 11
2.329
 21
6.533
 31
0.0
  0
LINE
  5
F4
330
18
100
AcDbEntity
  8
0
100
AcDbLine
 10
3.047
 20
5.888
 30
0.0
 11
3.084
 21
5.904
 31
0.0
  0
LINE
  5
F5
330
18
100
AcDbEntity
  8
0
100
AcDbLine
 10
2.329
 20
6.533
 30
0.0
 11
2.367
 21
6.549
 31
0.0
  0
ARC
  5
F6
330
18
100
AcDbEntity
  8
0
100
AcDbCircle
 10
3.094
 20
2.426
 30
0.0
 40
0.049
100
AcDbArc
 50
164.15
 51
292.248
  0
ARC
  5
F7
330
18
100
AcDbEntity
  8
0
100
AcDbCircle
 10
3.124
 20
2.456
 30
0.0
 40
0.04
100
AcDbArc
 50
180.0
 51
203.209
  0
LINE
  5
F8
330
18
100
AcDbEntity
  8
0
100
AcDbLine
 10
4.407
 20
2.473
 30
0.0
 11
5.032
 21
2.358
 31
0.0
  0
LINE
  5
F9
330
18
100
AcDbEntity
  8
0
100
AcDbLine
 10
3.744
 20
6.212999999999999
 30
0.0
 11
4.132
 21
6.039
 31
0.0
  0
LINE
  5
FA
330
18
100
AcDbEntity
  8
0
100
AcDbLine
 10
4.132
 20
6.039
 30
0.0
 11
4.132
 21
5.612
 31
0.0
  0
LINE
  5
FB
330
18
100
AcDbEntity
  8
0
100
AcDbLine
 10
4.17
 20
6.055
 30
0.0
 11
4.17
 21
5.629
 31
0.0
  0
LINE
  5
FC
330
18
100
AcDbEntity
  8
0
100
AcDbLine
 10
4.132
 20
6.039
 30
0.0
 11
4.17
 21
6.055
 31
0.0
  0
LINE
  5
FD
330
18
100
AcDbEntity
  8
0
100
AcDbLine
 10
3.724
 20
6.255
 30
0.0
 11
4.17
 21
6.055
 31
0.0
  0
LINE
  5
FE
330
18
100
AcDbEntity
  8
0
100
AcDbLine
 10
3.808
 20
3.224
 30
0.0
 11
4.407
 21
3.525
 31
0.0
  0
LINE
  5
FF
330
18
100
AcDbEntity
  8
0
100
AcDbLine
 10
3.808
 20
2.566
 30
0.0
 11
4.407
 21
2.874
 31
0.0
  0
LINE
  5
100
330
18
100
AcDbEntity
  8
0
100
AcDbLine
 10
3.904
 20
2.96
 30
0.0
 11
4.534
 21
3.274
 31
0.0
  0
LINE
  5
101
330
18
100
AcDbEntity
  8
0
100
AcDbLine
 10
3.689
 20
2.741
 30
0.0
 11
4.31
 21
3.037
 31
0.0
  0
LINE
  5
102
330
18
100
AcDbEntity
  8
0
100
AcDbLine
 10
3.808
 20
3.224
 30
0.0
 11
3.904
 21
2.96
 31
0.0
  0
LINE
  5
103
330
18
100
AcDbEntity
  8
0
100
AcDbLine
 10
3.904
 20
2.96
 30
0.0
 11
3.689
 21
2.741
 31
0.0
  0
LINE
  5
104
330
18
100
AcDbEntity
  8
0
100
AcDbLine
 10
3.689
 20
2.741
 30
0.0
 11
3.808
 21
2.566
 31
0.0
  0
LINE
  5
105
330
18
100
AcDbEntity
  8
0
100
AcDbLine
 10
4.407
 20
3.525
 30
0.0
 11
4.534
 21
3.274
 31
0.0
  0
LINE
  5
106
330
18
100
AcDbEntity
  8
0
100
AcDbLine
 10
4.534
 20
3.274
 30
0.0
 11
4.31
 21
3.037
 31
0.0
  0
LINE
  5
107
330
18
100
AcDbEntity
  8
0
100
AcDbLine
 10
4.31
 20
3.037
 30
0.0
 11
4.407
 21
2.874
 31
0.0
  0
LINE
  5
108
330
18
100
AcDbEntity
  8
0
100
AcDbLine
 10
3.808
 20
3.224
 30
0.0
 11
3.808
 21
4.597
 31
0.0
  0
LINE
  5
109
330
18
100
AcDbEntity
  8
0
100
AcDbLine
 10
4.407
 20
2.874
 30
0.0
 11
4.407
 21
1.172
 31
0.0
  0
LINE
  5
10A
330
18
100
AcDbEntity
  8
0
100
AcDbLine
 10
2.77
 20
6.185
 30
0.0
 11
2.77
 21
5.327999999999999
 31
0.0
  0
LINE
  5
10B
330
18
100
AcDbEntity
  8
0
100
AcDbLine
 10
2.728
 20
6.132999999999999
 30
0.0
 11
2.728
 21
5.329
 31
0.0
  0
LINE
  5
10C
330
18
100
AcDbEntity
  8
0
100
AcDbLine
 10
2.898
 20
7.427000000000001
 30
0.0
 11
3.77
 21
5.473
 31
0.0
  0
LINE
  5
10D
330
18
100
AcDbEntity
  8
0
100
AcDbLine
 10
4.327
 20
7.455
 30
0.0
 11
2.125
 21
6.705
 31
0.0
  0
LINE
  5
10E
330
18
100
AcDbEntity
  8
0
100
AcDbLine
 10
2.725
 20
7.245
 30
0.0
 11
5.678
 21
5.422000000000001
 31
0.0
  0
LINE
  5
10F
330
18
100
AcDbEntity
  8
0
100
AcDbLine
 10
4.06
 20
7.324
 30
0.0
 11
6.0
 21
7.153
 31
0.0
  0
LINE
  5
110
330
18
100
AcDbEntity
  8
0
100
AcDbLine
 10
3.226
 20
6.936
 30
0.0
 11
3.366
 21
6.997000000000001
 31
0.0
  0
TEXT
  5
111
330
18
100
AcDbEntity
  8
0
100
AcDbText
 10
1.861
 20
6.519
 30
0.0
 40
0.222
  1
C
 50
14.922
 51
15.0
100
AcDbText
  0
TEXT
  5
112
330
18
100
AcDbEntity
  8
0
100
AcDbText
 10
1.956
 20
6.442
 30
0.0
 40
0.222
  1
L
 50
14.922
 51
15.0
100
AcDbText
  0
LINE
  5
113
330
18
100
AcDbEntity
  8
0
100
AcDbLine
 10
1.74
 20
6.574
 30
0.0
 11
0.5379999999999999
 21
6.165
 31
0.0
  0
ARC
  5
114
330
18
100
AcDbEntity
  8
0
100
AcDbCircle
 10
2.824
 20
8.48
 30
0.0
 40
3.153
100
AcDbArc
 50
226.287
 51
246.504
  0
TEXT
  5
115
330
18
100
AcDbEntity
  8
0
100
AcDbText
 10
1.618619047619048
 20
5.59
 30
0.0
 40
0.188
  1
SKEW
 41
0.8
 72
     1
 11
1.923
 21
5.59
 31
0.0
100
AcDbText
  0
TEXT
  5
116
330
18
100
AcDbEntity
  8
0
100
AcDbText
 10
1.571228571428572
 20
5.303
 30
0.0
 40
0.188
  1
ANGLE
 41
0.8
 72
     1
 11
1.915
 21
5.303
 31
0.0
100
AcDbText
  0
ARC
  5
117
330
18
100
AcDbEntity
  8
0
100
AcDbCircle
 10
2.824
 20
8.48
 30
0.0
 40
3.153
100
AcDbArc
 50
259.682
 51
307.837
  0
SOLID
  5
118
330
18
100
AcDbEntity
  8
0
100
AcDbTrace
 10
0.7240000000000001
 20
6.102
 30
0.0
 11
0.752
 21
6.132999999999999
 31
0.0
 12
0.645
 22
6.201000000000001
 32
0.0
 13
0.645
 23
6.201000000000001
 33
0.0
  0
SOLID
  5
119
330
18
100
AcDbEntity
  8
0
100
AcDbTrace
 10
4.645
 20
5.933
 30
0.0
 11
4.669
 21
5.899
 31
0.0
 12
4.758
 22
5.99
 32
0.0
 13
4.758
 23
5.99
 33
0.0
  0
TEXT
  5
11A
330
18
100
AcDbEntity
  8
0
100
AcDbText
 10
5.095
 20
4.783
 30
0.0
 40
0.188
  1
SLOPE
 41
0.8
100
AcDbText
  0
TEXT
  5
11B
330
18
100
AcDbEntity
  8
0
100
AcDbText
 10
5.095
 20
4.475
 30
0.0
 40
0.188
  1
ANGLE
 41
0.8
100
AcDbText
  0
ARC
  5
11C
330
18
100
AcDbEntity
  8
0
100
AcDbCircle
 10
3.749
 20
5.419
 30
0.0
 40
1.799
100
AcDbArc
 50
295.363
 51
325.209
  0
ARC
  5
11D
330
18
100
AcDbEntity
  8
0
100
AcDbCircle
 10
3.749
 20
5.419
 30
0.0
 40
1.799
100
AcDbArc
 50
349.578
 51
2.688
  0
SOLID
  5
11E
330
18
100
AcDbEntity
  8
0
100
AcDbTrace
 10
5.53
 20
5.377000000000001
 30
0.0
 11
5.571000000000001
 21
5.379
 31
0.0
 12
5.547000000000001
 22
5.502999999999999
 32
0.0
 13
5.547000000000001
 23
5.502999999999999
 33
0.0
  0
SOLID
  5
11F
330
18
100
AcDbEntity
  8
0
100
AcDbTrace
 10
4.64
 20
3.834
 30
0.0
 11
4.62
 21
3.87
 31
0.0
 12
4.52
 22
3.793
 32
0.0
 13
4.52
 23
3.793
 33
0.0
  0
LINE
  5
120
330
18
100
AcDbEntity
  8
0
100
AcDbLine
 10
5.032
 20
3.493
 30
0.0
 11
6.0
 21
3.954
 31
0.0
  0
LINE
  5
121
330
18
100
AcDbEntity
  8
0
100
AcDbLine
 10
5.032
 20
4.102
 30
0.0
 11
6.0
 21
4.534
 31
0.0
  0
LINE
  5
122
330
18
100
AcDbEntity
  8
0
100
AcDbLine
 10
5.16
 20
3.894
 30
0.0
 11
6.104
 21
4.349
 31
0.0
  0
LINE
  5
123
330
18
100
AcDbEntity
  8
0
100
AcDbLine
 10
4.966
 20
3.651
 30
0.0
 11
5.909
 21
4.111000000000001
 31
0.0
  0
LINE
  5
124
330
18
100
AcDbEntity
  8
0
100
AcDbLine
 10
5.032
 20
4.102
 30
0.0
 11
5.16
 21
3.894
 31
0.0
  0
LINE
  5
125
330
18
100
AcDbEntity
  8
0
100
AcDbLine
 10
5.16
 20
3.894
 30
0.0
 11
4.966
 21
3.651
 31
0.0
  0
LINE
  5
126
330
18
100
AcDbEntity
  8
0
100
AcDbLine
 10
4.966
 20
3.651
 30
0.0
 11
5.032
 21
3.493
 31
0.0
  0
LINE
  5
127
330
18
100
AcDbEntity
  8
0
100
AcDbLine
 10
6.0
 20
4.534
 30
0.0
 11
6.104
 21
4.349
 31
0.0
  0
LINE
  5
128
330
18
100
AcDbEntity
  8
0
100
AcDbLine
 10
6.104
 20
4.349
 30
0.0
 11
5.909
 21
4.111000000000001
 31
0.0
  0
LINE
  5
129
330
18
100
AcDbEntity
  8
0
100
AcDbLine
 10
5.909
 20
4.111000000000001
 30
0.0
 11
6.0
 21
3.954
 31
0.0
  0
LINE
  5
12A
330
18
100
AcDbEntity
  8
0
100
AcDbLine
 10
5.032
 20
3.493
 30
0.0
 11
5.032
 21
2.358
 31
0.0
  0
LINE
  5
12B
330
18
100
AcDbEntity
  8
0
100
AcDbLine
 10
6.0
 20
3.954
 30
0.0
 11
6.0
 21
2.878
 31
0.0
  0
ARC
  5
12C
330
18
100
AcDbEntity
  8
0
100
AcDbCircle
 10
2.45
 20
6.398
 30
0.0
 40
0.031
100
AcDbArc
 50
95.928
 51
120.109
  0
ARC
  5
12D
330
18
100
AcDbEntity
  8
0
100
AcDbCircle
 10
2.452
 20
6.396
 30
0.0
 40
0.034
100
AcDbArc
 50
120.109
 51
143.236
  0
ARC
  5
12E
330
18
100
AcDbEntity
  8
0
100
AcDbCircle
 10
2.454
 20
6.394
 30
0.0
 40
0.036
100
AcDbArc
 50
143.236
 51
165.016
  0
ARC
  5
12F
330
18
100
AcDbEntity
  8
0
100
AcDbCircle
 10
2.457
 20
6.394
 30
0.0
 40
0.039
100
AcDbArc
 50
165.016
 51
185.928
  0
ARC
  5
130
330
18
100
AcDbEntity
  8
0
100
AcDbCircle
 10
2.457
 20
6.394
 30
0.0
 40
0.039
100
AcDbArc
 50
185.928
 51
206.841
  0
ARC
  5
131
330
18
100
AcDbEntity
  8
0
100
AcDbCircle
 10
2.454
 20
6.392
 30
0.0
 40
0.036
100
AcDbArc
 50
206.841
 51
228.62
  0
ARC
  5
132
330
18
100
AcDbEntity
  8
0
100
AcDbCircle
 10
2.452
 20
6.39
 30
0.0
 40
0.034
100
AcDbArc
 50
228.62
 51
251.748
  0
ARC
  5
133
330
18
100
AcDbEntity
  8
0
100
AcDbCircle
 10
2.451
 20
6.388
 30
0.0
 40
0.031
100
AcDbArc
 50
251.748
 51
275.928
  0
ARC
  5
134
330
18
100
AcDbEntity
  8
0
100
AcDbCircle
 10
2.451
 20
6.388
 30
0.0
 40
0.031
100
AcDbArc
 50
275.928
 51
300.109
  0
ARC
  5
135
330
18
100
AcDbEntity
  8
0
100
AcDbCircle
 10
2.45
 20
6.39
 30
0.0
 40
0.034
100
AcDbArc
 50
300.109
 51
323.236
  0
ARC
  5
136
330
18
100
AcDbEntity
  8
0
100
AcDbCircle
 10
2.448
 20
6.392
 30
0.0
 40
0.036
100
AcDbArc
 50
323.236
 51
345.016
  0
ARC
  5
137
330
18
100
AcDbEntity
  8
0
100
AcDbCircle
 10
2.445
 20
6.392
 30
0.0
 40
0.039
100
AcDbArc
 50
345.016
 51
5.928000000000001
  0
ARC
  5
138
330
18
100
AcDbEntity
  8
0
100
AcDbCircle
 10
2.445
 20
6.392
 30
0.0
 40
0.039
100
AcDbArc
 50
5.928000000000001
 51
26.841
  0
ARC
  5
139
330
18
100
AcDbEntity
  8
0
100
AcDbCircle
 10
2.448
 20
6.394
 30
0.0
 40
0.036
100
AcDbArc
 50
26.841
 51
48.62
  0
ARC
  5
13A
330
18
100
AcDbEntity
  8
0
100
AcDbCircle
 10
2.449
 20
6.396
 30
0.0
 40
0.034
100
AcDbArc
 50
48.62
 51
71.74800000000001
  0
ARC
  5
13B
330
18
100
AcDbEntity
  8
0
100
AcDbCircle
 10
2.45
 20
6.398
 30
0.0
 40
0.031
100
AcDbArc
 50
71.74800000000001
 51
95.928
  0
ARC
  5
13C
330
18
100
AcDbEntity
  8
0
100
AcDbCircle
 10
2.46
 20
6.409
 30
0.0
 40
0.031
100
AcDbArc
 50
95.928
 51
120.109
  0
ARC
  5
13D
330
18
100
AcDbEntity
  8
0
100
AcDbCircle
 10
2.462
 20
6.406000000000001
 30
0.0
 40
0.034
100
AcDbArc
 50
120.109
 51
143.236
  0
ARC
  5
13E
330
18
100
AcDbEntity
  8
0
100
AcDbCircle
 10
2.464
 20
6.405
 30
0.0
 40
0.036
100
AcDbArc
 50
143.236
 51
147.483
  0
ARC
  5
13F
330
18
100
AcDbEntity
  8
0
100
AcDbCircle
 10
2.46
 20
6.401
 30
0.0
 40
0.034
100
AcDbArc
 50
303.039
 51
323.236
  0
ARC
  5
140
330
18
100
AcDbEntity
  8
0
100
AcDbCircle
 10
2.458
 20
6.402
 30
0.0
 40
0.036
100
AcDbArc
 50
323.236
 51
345.016
  0
ARC
  5
141
330
18
100
AcDbEntity
  8
0
100
AcDbCircle
 10
2.455
 20
6.403
 30
0.0
 40
0.039
100
AcDbArc
 50
345.016
 51
5.928000000000001
  0
ARC
  5
142
330
18
100
AcDbEntity
  8
0
100
AcDbCircle
 10
2.455
 20
6.403
 30
0.0
 40
0.039
100
AcDbArc
 50
5.928000000000001
 51
26.841
  0
ARC
  5
143
330
18
100
AcDbEntity
  8
0
100
AcDbCircle
 10
2.458
 20
6.404
 30
0.0
 40
0.036
100
AcDbArc
 50
26.841
 51
48.62
  0
ARC
  5
144
330
18
100
AcDbEntity
  8
0
100
AcDbCircle
 10
2.46
 20
6.406000000000001
 30
0.0
 40
0.034
100
AcDbArc
 50
48.62
 51
71.74800000000001
  0
ARC
  5
145
330
18
100
AcDbEntity
  8
0
100
AcDbCircle
 10
2.46
 20
6.409
 30
0.0
 40
0.031
100
AcDbArc
 50
71.74800000000001
 51
95.928
  0
ARC
  5
146
330
18
100
AcDbEntity
  8
0
100
AcDbCircle
 10
2.46
 20
5.852
 30
0.0
 40
0.034
100
AcDbArc
 50
303.039
 51
323.236
  0
ARC
  5
147
330
18
100
AcDbEntity
  8
0
100
AcDbCircle
 10
2.458
 20
5.853
 30
0.0
 40
0.036
100
AcDbArc
 50
323.236
 51
345.016
  0
ARC
  5
148
330
18
100
AcDbEntity
  8
0
100
AcDbCircle
 10
2.455
 20
5.854
 30
0.0
 40
0.039
100
AcDbArc
 50
345.016
 51
5.928000000000001
  0
ARC
  5
149
330
18
100
AcDbEntity
  8
0
100
AcDbCircle
 10
2.455
 20
5.854
 30
0.0
 40
0.039
100
AcDbArc
 50
5.928000000000001
 51
26.841
  0
ARC
  5
14A
330
18
100
AcDbEntity
  8
0
100
AcDbCircle
 10
2.458
 20
5.855
 30
0.0
 40
0.036
100
AcDbArc
 50
26.841
 51
48.62
  0
ARC
  5
14B
330
18
100
AcDbEntity
  8
0
100
AcDbCircle
 10
2.46
 20
5.857
 30
0.0
 40
0.034
100
AcDbArc
 50
48.62
 51
71.74800000000001
  0
ARC
  5
14C
330
18
100
AcDbEntity
  8
0
100
AcDbCircle
 10
2.46
 20
5.86
 30
0.0
 40
0.031
100
AcDbArc
 50
71.74800000000001
 51
95.928
  0
ARC
  5
14D
330
18
100
AcDbEntity
  8
0
100
AcDbCircle
 10
2.46
 20
5.86
 30
0.0
 40
0.031
100
AcDbArc
 50
95.928
 51
120.109
  0
ARC
  5
14E
330
18
100
AcDbEntity
  8
0
100
AcDbCircle
 10
2.462
 20
5.857
 30
0.0
 40
0.034
100
AcDbArc
 50
120.109
 51
143.236
  0
ARC
  5
14F
330
18
100
AcDbEntity
  8
0
100
AcDbCircle
 10
2.464
 20
5.856
 30
0.0
 40
0.036
100
AcDbArc
 50
143.236
 51
147.483
  0
ARC
  5
150
330
18
100
AcDbEntity
  8
0
100
AcDbCircle
 10
2.45
 20
5.849
 30
0.0
 40
0.031
100
AcDbArc
 50
95.928
 51
120.109
  0
ARC
  5
151
330
18
100
AcDbEntity
  8
0
100
AcDbCircle
 10
2.452
 20
5.847
 30
0.0
 40
0.034
100
AcDbArc
 50
120.109
 51
143.236
  0
ARC
  5
152
330
18
100
AcDbEntity
  8
0
100
AcDbCircle
 10
2.454
 20
5.845
 30
0.0
 40
0.036
100
AcDbArc
 50
143.236
 51
165.016
  0
ARC
  5
153
330
18
100
AcDbEntity
  8
0
100
AcDbCircle
 10
2.457
 20
5.845
 30
0.0
 40
0.039
100
AcDbArc
 50
165.016
 51
185.928
  0
ARC
  5
154
330
18
100
AcDbEntity
  8
0
100
AcDbCircle
 10
2.457
 20
5.845
 30
0.0
 40
0.039
100
AcDbArc
 50
185.928
 51
206.841
  0
ARC
  5
155
330
18
100
AcDbEntity
  8
0
100
AcDbCircle
 10
2.454
 20
5.843
 30
0.0
 40
0.036
100
AcDbArc
 50
206.841
 51
228.62
  0
ARC
  5
156
330
18
100
AcDbEntity
  8
0
100
AcDbCircle
 10
2.452
 20
5.842000000000001
 30
0.0
 40
0.034
100
AcDbArc
 50
228.62
 51
251.748
  0
ARC
  5
157
330
18
100
AcDbEntity
  8
0
100
AcDbCircle
 10
2.451
 20
5.839
 30
0.0
 40
0.031
100
AcDbArc
 50
251.748
 51
275.928
  0
ARC
  5
158
330
18
100
AcDbEntity
  8
0
100
AcDbCircle
 10
2.451
 20
5.839
 30
0.0
 40
0.031
100
AcDbArc
 50
275.928
 51
300.109
  0
ARC
  5
159
330
18
100
AcDbEntity
  8
0
100
AcDbCircle
 10
2.45
 20
5.841
 30
0.0
 40
0.034
100
AcDbArc
 50
300.109
 51
323.236
  0
ARC
  5
15A
330
18
100
AcDbEntity
  8
0
100
AcDbCircle
 10
2.448
 20
5.843
 30
0.0
 40
0.036
100
AcDbArc
 50
323.236
 51
345.016
  0
ARC
  5
15B
330
18
100
AcDbEntity
  8
0
100
AcDbCircle
 10
2.445
 20
5.843999999999999
 30
0.0
 40
0.039
100
AcDbArc
 50
345.016
 51
5.928000000000001
  0
ARC
  5
15C
330
18
100
AcDbEntity
  8
0
100
AcDbCircle
 10
2.445
 20
5.843999999999999
 30
0.0
 40
0.039
100
AcDbArc
 50
5.928000000000001
 51
26.841
  0
ARC
  5
15D
330
18
100
AcDbEntity
  8
0
100
AcDbCircle
 10
2.448
 20
5.845
 30
0.0
 40
0.036
100
AcDbArc
 50
26.841
 51
48.62
  0
ARC
  5
15E
330
18
100
AcDbEntity
  8
0
100
AcDbCircle
 10
2.449
 20
5.847
 30
0.0
 40
0.034
100
AcDbArc
 50
48.62
 51
71.74800000000001
  0
ARC
  5
15F
330
18
100
AcDbEntity
  8
0
100
AcDbCircle
 10
2.45
 20
5.849
 30
0.0
 40
0.031
100
AcDbArc
 50
71.74800000000001
 51
95.928
  0
ARC
  5
160
330
18
100
AcDbEntity
  8
0
100
AcDbCircle
 10
2.46
 20
4.707
 30
0.0
 40
0.034
100
AcDbArc
 50
303.039
 51
323.236
  0
ARC
  5
161
330
18
100
AcDbEntity
  8
0
100
AcDbCircle
 10
2.458
 20
4.709
 30
0.0
 40
0.036
100
AcDbArc
 50
323.236
 51
345.016
  0
ARC
  5
162
330
18
100
AcDbEntity
  8
0
100
AcDbCircle
 10
2.455
 20
4.71
 30
0.0
 40
0.039
100
AcDbArc
 50
345.016
 51
5.928000000000001
  0
ARC
  5
163
330
18
100
AcDbEntity
  8
0
100
AcDbCircle
 10
2.455
 20
4.71
 30
0.0
 40
0.039
100
AcDbArc
 50
5.928000000000001
 51
26.841
  0
ARC
  5
164
330
18
100
AcDbEntity
  8
0
100
AcDbCircle
 10
2.458
 20
4.711
 30
0.0
 40
0.036
100
AcDbArc
 50
26.841
 51
48.62
  0
ARC
  5
165
330
18
100
AcDbEntity
  8
0
100
AcDbCircle
 10
2.46
 20
4.713
 30
0.0
 40
0.034
100
AcDbArc
 50
48.62
 51
71.74800000000001
  0
ARC
  5
166
330
18
100
AcDbEntity
  8
0
100
AcDbCircle
 10
2.46
 20
4.716
 30
0.0
 40
0.031
100
AcDbArc
 50
71.74800000000001
 51
95.928
  0
ARC
  5
167
330
18
100
AcDbEntity
  8
0
100
AcDbCircle
 10
2.46
 20
4.716
 30
0.0
 40
0.031
100
AcDbArc
 50
95.928
 51
120.109
  0
ARC
  5
168
330
18
100
AcDbEntity
  8
0
100
AcDbCircle
 10
2.462
 20
4.713
 30
0.0
 40
0.034
100
AcDbArc
 50
120.109
 51
143.236
  0
ARC
  5
169
330
18
100
AcDbEntity
  8
0
100
AcDbCircle
 10
2.464
 20
4.712
 30
0.0
 40
0.036
100
AcDbArc
 50
143.236
 51
147.483
  0
ARC
  5
16A
330
18
100
AcDbEntity
  8
0
100
AcDbCircle
 10
2.45
 20
4.705
 30
0.0
 40
0.031
100
AcDbArc
 50
95.928
 51
120.109
  0
ARC
  5
16B
330
18
100
AcDbEntity
  8
0
100
AcDbCircle
 10
2.452
 20
4.703
 30
0.0
 40
0.034
100
AcDbArc
 50
120.109
 51
143.236
  0
ARC
  5
16C
330
18
100
AcDbEntity
  8
0
100
AcDbCircle
 10
2.454
 20
4.701000000000001
 30
0.0
 40
0.036
100
AcDbArc
 50
143.236
 51
165.016
  0
ARC
  5
16D
330
18
100
AcDbEntity
  8
0
100
AcDbCircle
 10
2.457
 20
4.701000000000001
 30
0.0
 40
0.039
100
AcDbArc
 50
165.016
 51
185.928
  0
ARC
  5
16E
330
18
100
AcDbEntity
  8
0
100
AcDbCircle
 10
2.457
 20
4.701000000000001
 30
0.0
 40
0.039
100
AcDbArc
 50
185.928
 51
206.841
  0
ARC
  5
16F
330
18
100
AcDbEntity
  8
0
100
AcDbCircle
 10
2.454
 20
4.699
 30
0.0
 40
0.036
100
AcDbArc
 50
206.841
 51
228.62
  0
ARC
  5
170
330
18
100
AcDbEntity
  8
0
100
AcDbCircle
 10
2.452
 20
4.697
 30
0.0
 40
0.034
100
AcDbArc
 50
228.62
 51
251.748
  0
ARC
  5
171
330
18
100
AcDbEntity
  8
0
100
AcDbCircle
 10
2.451
 20
4.695
 30
0.0
 40
0.031
100
AcDbArc
 50
251.748
 51
275.928
  0
ARC
  5
172
330
18
100
AcDbEntity
  8
0
100
AcDbCircle
 10
2.451
 20
4.695
 30
0.0
 40
0.031
100
AcDbArc
 50
275.928
 51
300.109
  0
ARC
  5
173
330
18
100
AcDbEntity
  8
0
100
AcDbCircle
 10
2.45
 20
4.697
 30
0.0
 40
0.034
100
AcDbArc
 50
300.109
 51
323.236
  0
ARC
  5
174
330
18
100
AcDbEntity
  8
0
100
AcDbCircle
 10
2.448
 20
4.699
 30
0.0
 40
0.036
100
AcDbArc
 50
323.236
 51
345.016
  0
ARC
  5
175
330
18
100
AcDbEntity
  8
0
100
AcDbCircle
 10
2.445
 20
4.699
 30
0.0
 40
0.039
100
AcDbArc
 50
345.016
 51
5.928000000000001
  0
ARC
  5
176
330
18
100
AcDbEntity
  8
0
100
AcDbCircle
 10
2.445
 20
4.699
 30
0.0
 40
0.039
100
AcDbArc
 50
5.928000000000001
 51
26.841
  0
ARC
  5
177
330
18
100
AcDbEntity
  8
0
100
AcDbCircle
 10
2.448
 20
4.701000000000001
 30
0.0
 40
0.036
100
AcDbArc
 50
26.841
 51
48.62
  0
ARC
  5
178
330
18
100
AcDbEntity
  8
0
100
AcDbCircle
 10
2.449
 20
4.703
 30
0.0
 40
0.034
100
AcDbArc
 50
48.62
 51
71.74800000000001
  0
ARC
  5
179
330
18
100
AcDbEntity
  8
0
100
AcDbCircle
 10
2.45
 20
4.705
 30
0.0
 40
0.031
100
AcDbArc
 50
71.74800000000001
 51
95.928
  0
ARC
  5
17A
330
18
100
AcDbEntity
  8
0
100
AcDbCircle
 10
2.46
 20
4.158
 30
0.0
 40
0.034
100
AcDbArc
 50
303.039
 51
323.236
  0
ARC
  5
17B
330
18
100
AcDbEntity
  8
0
100
AcDbCircle
 10
2.458
 20
4.159
 30
0.0
 40
0.036
100
AcDbArc
 50
323.236
 51
345.016
  0
ARC
  5
17C
330
18
100
AcDbEntity
  8
0
100
AcDbCircle
 10
2.455
 20
4.16
 30
0.0
 40
0.039
100
AcDbArc
 50
345.016
 51
5.928000000000001
  0
ARC
  5
17D
330
18
100
AcDbEntity
  8
0
100
AcDbCircle
 10
2.455
 20
4.16
 30
0.0
 40
0.039
100
AcDbArc
 50
5.928000000000001
 51
26.841
  0
ARC
  5
17E
330
18
100
AcDbEntity
  8
0
100
AcDbCircle
 10
2.458
 20
4.162
 30
0.0
 40
0.036
100
AcDbArc
 50
26.841
 51
48.62
  0
ARC
  5
17F
330
18
100
AcDbEntity
  8
0
100
AcDbCircle
 10
2.46
 20
4.163
 30
0.0
 40
0.034
100
AcDbArc
 50
48.62
 51
71.74800000000001
  0
ARC
  5
180
330
18
100
AcDbEntity
  8
0
100
AcDbCircle
 10
2.46
 20
4.166
 30
0.0
 40
0.031
100
AcDbArc
 50
71.74800000000001
 51
95.928
  0
ARC
  5
181
330
18
100
AcDbEntity
  8
0
100
AcDbCircle
 10
2.46
 20
4.166
 30
0.0
 40
0.031
100
AcDbArc
 50
95.928
 51
120.109
  0
ARC
  5
182
330
18
100
AcDbEntity
  8
0
100
AcDbCircle
 10
2.462
 20
4.164
 30
0.0
 40
0.034
100
AcDbArc
 50
120.109
 51
143.236
  0
ARC
  5
183
330
18
100
AcDbEntity
  8
0
100
AcDbCircle
 10
2.464
 20
4.162
 30
0.0
 40
0.036
100
AcDbArc
 50
143.236
 51
147.483
  0
ARC
  5
184
330
18
100
AcDbEntity
  8
0
100
AcDbCircle
 10
2.45
 20
4.156000000000001
 30
0.0
 40
0.031
100
AcDbArc
 50
95.928
 51
120.109
  0
ARC
  5
185
330
18
100
AcDbEntity
  8
0
100
AcDbCircle
 10
2.452
 20
4.153000000000001
 30
0.0
 40
0.034
100
AcDbArc
 50
120.109
 51
143.236
  0
ARC
  5
186
330
18
100
AcDbEntity
  8
0
100
AcDbCircle
 10
2.454
 20
4.152
 30
0.0
 40
0.036
100
AcDbArc
 50
143.236
 51
165.016
  0
ARC
  5
187
330
18
100
AcDbEntity
  8
0
100
AcDbCircle
 10
2.457
 20
4.151
 30
0.0
 40
0.039
100
AcDbArc
 50
165.016
 51
185.928
  0
ARC
  5
188
330
18
100
AcDbEntity
  8
0
100
AcDbCircle
 10
2.457
 20
4.151
 30
0.0
 40
0.039
100
AcDbArc
 50
185.928
 51
206.841
  0
ARC
  5
189
330
18
100
AcDbEntity
  8
0
100
AcDbCircle
 10
2.454
 20
4.15
 30
0.0
 40
0.036
100
AcDbArc
 50
206.841
 51
228.62
  0
ARC
  5
18A
330
18
100
AcDbEntity
  8
0
100
AcDbCircle
 10
2.452
 20
4.148
 30
0.0
 40
0.034
100
AcDbArc
 50
228.62
 51
251.748
  0
ARC
  5
18B
330
18
100
AcDbEntity
  8
0
100
AcDbCircle
 10
2.451
 20
4.145
 30
0.0
 40
0.031
100
AcDbArc
 50
251.748
 51
275.928
  0
ARC
  5
18C
330
18
100
AcDbEntity
  8
0
100
AcDbCircle
 10
2.451
 20
4.145
 30
0.0
 40
0.031
100
AcDbArc
 50
275.928
 51
300.109
  0
ARC
  5
18D
330
18
100
AcDbEntity
  8
0
100
AcDbCircle
 10
2.45
 20
4.148
 30
0.0
 40
0.034
100
AcDbArc
 50
300.109
 51
323.236
  0
ARC
  5
18E
330
18
100
AcDbEntity
  8
0
100
AcDbCircle
 10
2.448
 20
4.149
 30
0.0
 40
0.036
100
AcDbArc
 50
323.236
 51
345.016
  0
ARC
  5
18F
330
18
100
AcDbEntity
  8
0
100
AcDbCircle
 10
2.445
 20
4.15
 30
0.0
 40
0.039
100
AcDbArc
 50
345.016
 51
5.928000000000001
  0
ARC
  5
190
330
18
100
AcDbEntity
  8
0
100
AcDbCircle
 10
2.445
 20
4.15
 30
0.0
 40
0.039
100
AcDbArc
 50
5.928000000000001
 51
26.841
  0
ARC
  5
191
330
18
100
AcDbEntity
  8
0
100
AcDbCircle
 10
2.448
 20
4.151
 30
0.0
 40
0.036
100
AcDbArc
 50
26.841
 51
48.62
  0
ARC
  5
192
330
18
100
AcDbEntity
  8
0
100
AcDbCircle
 10
2.449
 20
4.153000000000001
 30
0.0
 40
0.034
100
AcDbArc
 50
48.62
 51
71.74800000000001
  0
ARC
  5
193
330
18
100
AcDbEntity
  8
0
100
AcDbCircle
 10
2.45
 20
4.156000000000001
 30
0.0
 40
0.031
100
AcDbArc
 50
71.74800000000001
 51
95.928
  0
ARC
  5
194
330
18
100
AcDbEntity
  8
0
100
AcDbCircle
 10
2.46
 20
5.301
 30
0.0
 40
0.034
100
AcDbArc
 50
303.039
 51
323.236
  0
ARC
  5
195
330
18
100
AcDbEntity
  8
0
100
AcDbCircle
 10
2.458
 20
5.302000000000001
 30
0.0
 40
0.036
100
AcDbArc
 50
323.236
 51
345.016
  0
ARC
  5
196
330
18
100
AcDbEntity
  8
0
100
AcDbCircle
 10
2.455
 20
5.303
 30
0.0
 40
0.039
100
AcDbArc
 50
345.016
 51
5.928000000000001
  0
ARC
  5
197
330
18
100
AcDbEntity
  8
0
100
AcDbCircle
 10
2.455
 20
5.303
 30
0.0
 40
0.039
100
AcDbArc
 50
5.928000000000001
 51
26.841
  0
ARC
  5
198
330
18
100
AcDbEntity
  8
0
100
AcDbCircle
 10
2.458
 20
5.305
 30
0.0
 40
0.036
100
AcDbArc
 50
26.841
 51
48.62
  0
ARC
  5
199
330
18
100
AcDbEntity
  8
0
100
AcDbCircle
 10
2.46
 20
5.306
 30
0.0
 40
0.034
100
AcDbArc
 50
48.62
 51
71.74800000000001
  0
ARC
  5
19A
330
18
100
AcDbEntity
  8
0
100
AcDbCircle
 10
2.46
 20
5.309
 30
0.0
 40
0.031
100
AcDbArc
 50
71.74800000000001
 51
95.928
  0
ARC
  5
19B
330
18
100
AcDbEntity
  8
0
100
AcDbCircle
 10
2.46
 20
5.309
 30
0.0
 40
0.031
100
AcDbArc
 50
95.928
 51
120.109
  0
ARC
  5
19C
330
18
100
AcDbEntity
  8
0
100
AcDbCircle
 10
2.462
 20
5.307
 30
0.0
 40
0.034
100
AcDbArc
 50
120.109
 51
143.236
  0
ARC
  5
19D
330
18
100
AcDbEntity
  8
0
100
AcDbCircle
 10
2.464
 20
5.305
 30
0.0
 40
0.036
100
AcDbArc
 50
143.236
 51
147.483
  0
ARC
  5
19E
330
18
100
AcDbEntity
  8
0
100
AcDbCircle
 10
2.45
 20
5.299
 30
0.0
 40
0.031
100
AcDbArc
 50
95.928
 51
120.109
  0
ARC
  5
19F
330
18
100
AcDbEntity
  8
0
100
AcDbCircle
 10
2.452
 20
5.296
 30
0.0
 40
0.034
100
AcDbArc
 50
120.109
 51
143.236
  0
ARC
  5
1A0
330
18
100
AcDbEntity
  8
0
100
AcDbCircle
 10
2.454
 20
5.295
 30
0.0
 40
0.036
100
AcDbArc
 50
143.236
 51
165.016
  0
ARC
  5
1A1
330
18
100
AcDbEntity
  8
0
100
AcDbCircle
 10
2.457
 20
5.294
 30
0.0
 40
0.039
100
AcDbArc
 50
165.016
 51
185.928
  0
ARC
  5
1A2
330
18
100
AcDbEntity
  8
0
100
AcDbCircle
 10
2.457
 20
5.294
 30
0.0
 40
0.039
100
AcDbArc
 50
185.928
 51
206.841
  0
ARC
  5
1A3
330
18
100
AcDbEntity
  8
0
100
AcDbCircle
 10
2.454
 20
5.292999999999999
 30
0.0
 40
0.036
100
AcDbArc
 50
206.841
 51
228.62
  0
ARC
  5
1A4
330
18
100
AcDbEntity
  8
0
100
AcDbCircle
 10
2.452
 20
5.291
 30
0.0
 40
0.034
100
AcDbArc
 50
228.62
 51
251.748
  0
ARC
  5
1A5
330
18
100
AcDbEntity
  8
0
100
AcDbCircle
 10
2.451
 20
5.287999999999999
 30
0.0
 40
0.031
100
AcDbArc
 50
251.748
 51
275.928
  0
ARC
  5
1A6
330
18
100
AcDbEntity
  8
0
100
AcDbCircle
 10
2.451
 20
5.287999999999999
 30
0.0
 40
0.031
100
AcDbArc
 50
275.928
 51
300.109
  0
ARC
  5
1A7
330
18
100
AcDbEntity
  8
0
100
AcDbCircle
 10
2.45
 20
5.291
 30
0.0
 40
0.034
100
AcDbArc
 50
300.109
 51
323.236
  0
ARC
  5
1A8
330
18
100
AcDbEntity
  8
0
100
AcDbCircle
 10
2.448
 20
5.292000000000001
 30
0.0
 40
0.036
100
AcDbArc
 50
323.236
 51
345.016
  0
ARC
  5
1A9
330
18
100
AcDbEntity
  8
0
100
AcDbCircle
 10
2.445
 20
5.292999999999999
 30
0.0
 40
0.039
100
AcDbArc
 50
345.016
 51
5.928000000000001
  0
ARC
  5
1AA
330
18
100
AcDbEntity
  8
0
100
AcDbCircle
 10
2.445
 20
5.292999999999999
 30
0.0
 40
0.039
100
AcDbArc
 50
5.928000000000001
 51
26.841
  0
ARC
  5
1AB
330
18
100
AcDbEntity
  8
0
100
AcDbCircle
 10
2.448
 20
5.294
 30
0.0
 40
0.036
100
AcDbArc
 50
26.841
 51
48.62
  0
ARC
  5
1AC
330
18
100
AcDbEntity
  8
0
100
AcDbCircle
 10
2.449
 20
5.296
 30
0.0
 40
0.034
100
AcDbArc
 50
48.62
 51
71.74800000000001
  0
ARC
  5
1AD
330
18
100
AcDbEntity
  8
0
100
AcDbCircle
 10
2.45
 20
5.299
 30
0.0
 40
0.031
100
AcDbArc
 50
71.74800000000001
 51
95.928
  0
ARC
  5
1AE
330
18
100
AcDbEntity
  8
0
100
AcDbCircle
 10
2.597
 20
5.047
 30
0.0
 40
0.031
100
AcDbArc
 50
95.928
 51
120.109
  0
ARC
  5
1AF
330
18
100
AcDbEntity
  8
0
100
AcDbCircle
 10
2.599
 20
5.044
 30
0.0
 40
0.034
100
AcDbArc
 50
120.109
 51
143.236
  0
ARC
  5
1B0
330
18
100
AcDbEntity
  8
0
100
AcDbCircle
 10
2.601
 20
5.043
 30
0.0
 40
0.036
100
AcDbArc
 50
143.236
 51
165.016
  0
ARC
  5
1B1
330
18
100
AcDbEntity
  8
0
100
AcDbCircle
 10
2.603
 20
5.042
 30
0.0
 40
0.039
100
AcDbArc
 50
165.016
 51
185.928
  0
ARC
  5
1B2
330
18
100
AcDbEntity
  8
0
100
AcDbCircle
 10
2.603
 20
5.042
 30
0.0
 40
0.039
100
AcDbArc
 50
185.928
 51
206.841
  0
ARC
  5
1B3
330
18
100
AcDbEntity
  8
0
100
AcDbCircle
 10
2.601
 20
5.041
 30
0.0
 40
0.036
100
AcDbArc
 50
206.841
 51
228.62
  0
ARC
  5
1B4
330
18
100
AcDbEntity
  8
0
100
AcDbCircle
 10
2.599
 20
5.039
 30
0.0
 40
0.034
100
AcDbArc
 50
228.62
 51
251.748
  0
ARC
  5
1B5
330
18
100
AcDbEntity
  8
0
100
AcDbCircle
 10
2.598
 20
5.036000000000001
 30
0.0
 40
0.031
100
AcDbArc
 50
251.748
 51
275.928
  0
ARC
  5
1B6
330
18
100
AcDbEntity
  8
0
100
AcDbCircle
 10
2.598
 20
5.036000000000001
 30
0.0
 40
0.031
100
AcDbArc
 50
275.928
 51
300.109
  0
ARC
  5
1B7
330
18
100
AcDbEntity
  8
0
100
AcDbCircle
 10
2.597
 20
5.038
 30
0.0
 40
0.034
100
AcDbArc
 50
300.109
 51
323.236
  0
ARC
  5
1B8
330
18
100
AcDbEntity
  8
0
100
AcDbCircle
 10
2.595
 20
5.04
 30
0.0
 40
0.036
100
AcDbArc
 50
323.236
 51
345.016
  0
ARC
  5
1B9
330
18
100
AcDbEntity
  8
0
100
AcDbCircle
 10
2.592
 20
5.041
 30
0.0
 40
0.039
100
AcDbArc
 50
345.016
 51
5.928000000000001
  0
ARC
  5
1BA
330
18
100
AcDbEntity
  8
0
100
AcDbCircle
 10
2.592
 20
5.041
 30
0.0
 40
0.039
100
AcDbArc
 50
5.928000000000001
 51
26.841
  0
ARC
  5
1BB
330
18
100
AcDbEntity
  8
0
100
AcDbCircle
 10
2.595
 20
5.042
 30
0.0
 40
0.036
100
AcDbArc
 50
26.841
 51
48.62
  0
ARC
  5
1BC
330
18
100
AcDbEntity
  8
0
100
AcDbCircle
 10
2.596
 20
5.044
 30
0.0
 40
0.034
100
AcDbArc
 50
48.62
 51
71.74800000000001
  0
ARC
  5
1BD
330
18
100
AcDbEntity
  8
0
100
AcDbCircle
 10
2.597
 20
5.047
 30
0.0
 40
0.031
100
AcDbArc
 50
71.74800000000001
 51
95.928
  0
ARC
  5
1BE
330
18
100
AcDbEntity
  8
0
100
AcDbCircle
 10
2.607
 20
5.057
 30
0.0
 40
0.031
100
AcDbArc
 50
95.928
 51
120.109
  0
ARC
  5
1BF
330
18
100
AcDbEntity
  8
0
100
AcDbCircle
 10
2.609
 20
5.053999999999999
 30
0.0
 40
0.034
100
AcDbArc
 50
120.109
 51
143.236
  0
ARC
  5
1C0
330
18
100
AcDbEntity
  8
0
100
AcDbCircle
 10
2.611
 20
5.053
 30
0.0
 40
0.036
100
AcDbArc
 50
143.236
 51
147.483
  0
ARC
  5
1C1
330
18
100
AcDbEntity
  8
0
100
AcDbCircle
 10
2.607
 20
5.049
 30
0.0
 40
0.034
100
AcDbArc
 50
303.039
 51
323.236
  0
ARC
  5
1C2
330
18
100
AcDbEntity
  8
0
100
AcDbCircle
 10
2.605
 20
5.05
 30
0.0
 40
0.036
100
AcDbArc
 50
323.236
 51
345.016
  0
ARC
  5
1C3
330
18
100
AcDbEntity
  8
0
100
AcDbCircle
 10
2.602
 20
5.051
 30
0.0
 40
0.039
100
AcDbArc
 50
345.016
 51
5.928000000000001
  0
ARC
  5
1C4
330
18
100
AcDbEntity
  8
0
100
AcDbCircle
 10
2.602
 20
5.051
 30
0.0
 40
0.039
100
AcDbArc
 50
5.928000000000001
 51
26.841
  0
ARC
  5
1C5
330
18
100
AcDbEntity
  8
0
100
AcDbCircle
 10
2.605
 20
5.052
 30
0.0
 40
0.036
100
AcDbArc
 50
26.841
 51
48.62
  0
ARC
  5
1C6
330
18
100
AcDbEntity
  8
0
100
AcDbCircle
 10
2.606
 20
5.053999999999999
 30
0.0
 40
0.034
100
AcDbArc
 50
48.62
 51
71.74800000000001
  0
ARC
  5
1C7
330
18
100
AcDbEntity
  8
0
100
AcDbCircle
 10
2.607
 20
5.057
 30
0.0
 40
0.031
100
AcDbArc
 50
71.74800000000001
 51
95.928
  0
ARC
  5
1C8
330
18
100
AcDbEntity
  8
0
100
AcDbCircle
 10
2.597
 20
4.453
 30
0.0
 40
0.031
100
AcDbArc
 50
95.928
 51
120.109
  0
ARC
  5
1C9
330
18
100
AcDbEntity
  8
0
100
AcDbCircle
 10
2.599
 20
4.451000000000001
 30
0.0
 40
0.034
100
AcDbArc
 50
120.109
 51
143.236
  0
ARC
  5
1CA
330
18
100
AcDbEntity
  8
0
100
AcDbCircle
 10
2.601
 20
4.449
 30
0.0
 40
0.036
100
AcDbArc
 50
143.236
 51
165.016
  0
ARC
  5
1CB
330
18
100
AcDbEntity
  8
0
100
AcDbCircle
 10
2.603
 20
4.448
 30
0.0
 40
0.039
100
AcDbArc
 50
165.016
 51
185.928
  0
ARC
  5
1CC
330
18
100
AcDbEntity
  8
0
100
AcDbCircle
 10
2.603
 20
4.448
 30
0.0
 40
0.039
100
AcDbArc
 50
185.928
 51
206.841
  0
ARC
  5
1CD
330
18
100
AcDbEntity
  8
0
100
AcDbCircle
 10
2.601
 20
4.447
 30
0.0
 40
0.036
100
AcDbArc
 50
206.841
 51
228.62
  0
ARC
  5
1CE
330
18
100
AcDbEntity
  8
0
100
AcDbCircle
 10
2.599
 20
4.445
 30
0.0
 40
0.034
100
AcDbArc
 50
228.62
 51
251.748
  0
ARC
  5
1CF
330
18
100
AcDbEntity
  8
0
100
AcDbCircle
 10
2.598
 20
4.443000000000001
 30
0.0
 40
0.031
100
AcDbArc
 50
251.748
 51
275.928
  0
ARC
  5
1D0
330
18
100
AcDbEntity
  8
0
100
AcDbCircle
 10
2.598
 20
4.443000000000001
 30
0.0
 40
0.031
100
AcDbArc
 50
275.928
 51
300.109
  0
ARC
  5
1D1
330
18
100
AcDbEntity
  8
0
100
AcDbCircle
 10
2.597
 20
4.445
 30
0.0
 40
0.034
100
AcDbArc
 50
300.109
 51
323.236
  0
ARC
  5
1D2
330
18
100
AcDbEntity
  8
0
100
AcDbCircle
 10
2.595
 20
4.446000000000001
 30
0.0
 40
0.036
100
AcDbArc
 50
323.236
 51
345.016
  0
ARC
  5
1D3
330
18
100
AcDbEntity
  8
0
100
AcDbCircle
 10
2.592
 20
4.447
 30
0.0
 40
0.039
100
AcDbArc
 50
345.016
 51
5.928000000000001
  0
ARC
  5
1D4
330
18
100
AcDbEntity
  8
0
100
AcDbCircle
 10
2.592
 20
4.447
 30
0.0
 40
0.039
100
AcDbArc
 50
5.928000000000001
 51
26.841
  0
ARC
  5
1D5
330
18
100
AcDbEntity
  8
0
100
AcDbCircle
 10
2.595
 20
4.449
 30
0.0
 40
0.036
100
AcDbArc
 50
26.841
 51
48.62
  0
ARC
  5
1D6
330
18
100
AcDbEntity
  8
0
100
AcDbCircle
 10
2.596
 20
4.45
 30
0.0
 40
0.034
100
AcDbArc
 50
48.62
 51
71.74800000000001
  0
ARC
  5
1D7
330
18
100
AcDbEntity
  8
0
100
AcDbCircle
 10
2.597
 20
4.453
 30
0.0
 40
0.031
100
AcDbArc
 50
71.74800000000001
 51
95.928
  0
ARC
  5
1D8
330
18
100
AcDbEntity
  8
0
100
AcDbCircle
 10
2.607
 20
4.463
 30
0.0
 40
0.031
100
AcDbArc
 50
95.928
 51
120.109
  0
ARC
  5
1D9
330
18
100
AcDbEntity
  8
0
100
AcDbCircle
 10
2.609
 20
4.461
 30
0.0
 40
0.034
100
AcDbArc
 50
120.109
 51
143.236
  0
ARC
  5
1DA
330
18
100
AcDbEntity
  8
0
100
AcDbCircle
 10
2.611
 20
4.459
 30
0.0
 40
0.036
100
AcDbArc
 50
143.236
 51
147.483
  0
ARC
  5
1DB
330
18
100
AcDbEntity
  8
0
100
AcDbCircle
 10
2.607
 20
4.455
 30
0.0
 40
0.034
100
AcDbArc
 50
303.039
 51
323.236
  0
ARC
  5
1DC
330
18
100
AcDbEntity
  8
0
100
AcDbCircle
 10
2.605
 20
4.457
 30
0.0
 40
0.036
100
AcDbArc
 50
323.236
 51
345.016
  0
ARC
  5
1DD
330
18
100
AcDbEntity
  8
0
100
AcDbCircle
 10
2.602
 20
4.457
 30
0.0
 40
0.039
100
AcDbArc
 50
345.016
 51
5.928000000000001
  0
ARC
  5
1DE
330
18
100
AcDbEntity
  8
0
100
AcDbCircle
 10
2.602
 20
4.457
 30
0.0
 40
0.039
100
AcDbArc
 50
5.928000000000001
 51
26.841
  0
ARC
  5
1DF
330
18
100
AcDbEntity
  8
0
100
AcDbCircle
 10
2.605
 20
4.459
 30
0.0
 40
0.036
100
AcDbArc
 50
26.841
 51
48.62
  0
ARC
  5
1E0
330
18
100
AcDbEntity
  8
0
100
AcDbCircle
 10
2.606
 20
4.461
 30
0.0
 40
0.034
100
AcDbArc
 50
48.62
 51
71.74800000000001
  0
ARC
  5
1E1
330
18
100
AcDbEntity
  8
0
100
AcDbCircle
 10
2.607
 20
4.463
 30
0.0
 40
0.031
100
AcDbArc
 50
71.74800000000001
 51
95.928
  0
ARC
  5
1E2
330
18
100
AcDbEntity
  8
0
100
AcDbCircle
 10
2.597
 20
5.597
 30
0.0
 40
0.031
100
AcDbArc
 50
95.928
 51
120.109
  0
ARC
  5
1E3
330
18
100
AcDbEntity
  8
0
100
AcDbCircle
 10
2.599
 20
5.595
 30
0.0
 40
0.034
100
AcDbArc
 50
120.109
 51
143.236
  0
ARC
  5
1E4
330
18
100
AcDbEntity
  8
0
100
AcDbCircle
 10
2.601
 20
5.593
 30
0.0
 40
0.036
100
AcDbArc
 50
143.236
 51
165.016
  0
ARC
  5
1E5
330
18
100
AcDbEntity
  8
0
100
AcDbCircle
 10
2.603
 20
5.592000000000001
 30
0.0
 40
0.039
100
AcDbArc
 50
165.016
 51
185.928
  0
ARC
  5
1E6
330
18
100
AcDbEntity
  8
0
100
AcDbCircle
 10
2.603
 20
5.592000000000001
 30
0.0
 40
0.039
100
AcDbArc
 50
185.928
 51
206.841
  0
ARC
  5
1E7
330
18
100
AcDbEntity
  8
0
100
AcDbCircle
 10
2.601
 20
5.591
 30
0.0
 40
0.036
100
AcDbArc
 50
206.841
 51
228.62
  0
ARC
  5
1E8
330
18
100
AcDbEntity
  8
0
100
AcDbCircle
 10
2.599
 20
5.589
 30
0.0
 40
0.034
100
AcDbArc
 50
228.62
 51
251.748
  0
ARC
  5
1E9
330
18
100
AcDbEntity
  8
0
100
AcDbCircle
 10
2.598
 20
5.587000000000001
 30
0.0
 40
0.031
100
AcDbArc
 50
251.748
 51
275.928
  0
ARC
  5
1EA
330
18
100
AcDbEntity
  8
0
100
AcDbCircle
 10
2.598
 20
5.587000000000001
 30
0.0
 40
0.031
100
AcDbArc
 50
275.928
 51
300.109
  0
ARC
  5
1EB
330
18
100
AcDbEntity
  8
0
100
AcDbCircle
 10
2.597
 20
5.589
 30
0.0
 40
0.034
100
AcDbArc
 50
300.109
 51
323.236
  0
ARC
  5
1EC
330
18
100
AcDbEntity
  8
0
100
AcDbCircle
 10
2.595
 20
5.59
 30
0.0
 40
0.036
100
AcDbArc
 50
323.236
 51
345.016
  0
ARC
  5
1ED
330
18
100
AcDbEntity
  8
0
100
AcDbCircle
 10
2.592
 20
5.591
 30
0.0
 40
0.039
100
AcDbArc
 50
345.016
 51
5.928000000000001
  0
ARC
  5
1EE
330
18
100
AcDbEntity
  8
0
100
AcDbCircle
 10
2.592
 20
5.591
 30
0.0
 40
0.039
100
AcDbArc
 50
5.928000000000001
 51
26.841
  0
ARC
  5
1EF
330
18
100
AcDbEntity
  8
0
100
AcDbCircle
 10
2.595
 20
5.593
 30
0.0
 40
0.036
100
AcDbArc
 50
26.841
 51
48.62
  0
ARC
  5
1F0
330
18
100
AcDbEntity
  8
0
100
AcDbCircle
 10
2.596
 20
5.593999999999999
 30
0.0
 40
0.034
100
AcDbArc
 50
48.62
 51
71.74800000000001
  0
ARC
  5
1F1
330
18
100
AcDbEntity
  8
0
100
AcDbCircle
 10
2.597
 20
5.597
 30
0.0
 40
0.031
100
AcDbArc
 50
71.74800000000001
 51
95.928
  0
ARC
  5
1F2
330
18
100
AcDbEntity
  8
0
100
AcDbCircle
 10
2.607
 20
5.607
 30
0.0
 40
0.031
100
AcDbArc
 50
95.928
 51
120.109
  0
ARC
  5
1F3
330
18
100
AcDbEntity
  8
0
100
AcDbCircle
 10
2.609
 20
5.605
 30
0.0
 40
0.034
100
AcDbArc
 50
120.109
 51
143.236
  0
ARC
  5
1F4
330
18
100
AcDbEntity
  8
0
100
AcDbCircle
 10
2.611
 20
5.604
 30
0.0
 40
0.036
100
AcDbArc
 50
143.236
 51
147.483
  0
ARC
  5
1F5
330
18
100
AcDbEntity
  8
0
100
AcDbCircle
 10
2.607
 20
5.599
 30
0.0
 40
0.034
100
AcDbArc
 50
303.039
 51
323.236
  0
ARC
  5
1F6
330
18
100
AcDbEntity
  8
0
100
AcDbCircle
 10
2.605
 20
5.601
 30
0.0
 40
0.036
100
AcDbArc
 50
323.236
 51
345.016
  0
ARC
  5
1F7
330
18
100
AcDbEntity
  8
0
100
AcDbCircle
 10
2.602
 20
5.602
 30
0.0
 40
0.039
100
AcDbArc
 50
345.016
 51
5.928000000000001
  0
ARC
  5
1F8
330
18
100
AcDbEntity
  8
0
100
AcDbCircle
 10
2.602
 20
5.602
 30
0.0
 40
0.039
100
AcDbArc
 50
5.928000000000001
 51
26.841
  0
ARC
  5
1F9
330
18
100
AcDbEntity
  8
0
100
AcDbCircle
 10
2.605
 20
5.603
 30
0.0
 40
0.036
100
AcDbArc
 50
26.841
 51
48.62
  0
ARC
  5
1FA
330
18
100
AcDbEntity
  8
0
100
AcDbCircle
 10
2.606
 20
5.605
 30
0.0
 40
0.034
100
AcDbArc
 50
48.62
 51
71.74800000000001
  0
ARC
  5
1FB
330
18
100
AcDbEntity
  8
0
100
AcDbCircle
 10
2.607
 20
5.607
 30
0.0
 40
0.031
100
AcDbArc
 50
71.74800000000001
 51
95.928
  0
ARC
  5
1FC
330
18
100
AcDbEntity
  8
0
100
AcDbCircle
 10
2.607
 20
6.148
 30
0.0
 40
0.034
100
AcDbArc
 50
303.039
 51
323.236
  0
ARC
  5
1FD
330
18
100
AcDbEntity
  8
0
100
AcDbCircle
 10
2.605
 20
6.15
 30
0.0
 40
0.036
100
AcDbArc
 50
323.236
 51
345.016
  0
ARC
  5
1FE
330
18
100
AcDbEntity
  8
0
100
AcDbCircle
 10
2.602
 20
6.151
 30
0.0
 40
0.039
100
AcDbArc
 50
345.016
 51
5.928000000000001
  0
ARC
  5
1FF
330
18
100
AcDbEntity
  8
0
100
AcDbCircle
 10
2.602
 20
6.151
 30
0.0
 40
0.039
100
AcDbArc
 50
5.928000000000001
 51
26.841
  0
ARC
  5
200
330
18
100
AcDbEntity
  8
0
100
AcDbCircle
 10
2.605
 20
6.152
 30
0.0
 40
0.036
100
AcDbArc
 50
26.841
 51
48.62
  0
ARC
  5
201
330
18
100
AcDbEntity
  8
0
100
AcDbCircle
 10
2.606
 20
6.154
 30
0.0
 40
0.034
100
AcDbArc
 50
48.62
 51
71.74800000000001
  0
ARC
  5
202
330
18
100
AcDbEntity
  8
0
100
AcDbCircle
 10
2.607
 20
6.156000000000001
 30
0.0
 40
0.031
100
AcDbArc
 50
71.74800000000001
 51
95.928
  0
ARC
  5
203
330
18
100
AcDbEntity
  8
0
100
AcDbCircle
 10
2.607
 20
6.156000000000001
 30
0.0
 40
0.031
100
AcDbArc
 50
95.928
 51
120.109
  0
ARC
  5
204
330
18
100
AcDbEntity
  8
0
100
AcDbCircle
 10
2.609
 20
6.154
 30
0.0
 40
0.034
100
AcDbArc
 50
120.109
 51
143.236
  0
ARC
  5
205
330
18
100
AcDbEntity
  8
0
100
AcDbCircle
 10
2.611
 20
6.153
 30
0.0
 40
0.036
100
AcDbArc
 50
143.236
 51
147.483
  0
ARC
  5
206
330
18
100
AcDbEntity
  8
0
100
AcDbCircle
 10
2.597
 20
6.146
 30
0.0
 40
0.031
100
AcDbArc
 50
95.928
 51
120.109
  0
ARC
  5
207
330
18
100
AcDbEntity
  8
0
100
AcDbCircle
 10
2.599
 20
6.144
 30
0.0
 40
0.034
100
AcDbArc
 50
120.109
 51
143.236
  0
ARC
  5
208
330
18
100
AcDbEntity
  8
0
100
AcDbCircle
 10
2.601
 20
6.142
 30
0.0
 40
0.036
100
AcDbArc
 50
143.236
 51
165.016
  0
ARC
  5
209
330
18
100
AcDbEntity
  8
0
100
AcDbCircle
 10
2.603
 20
6.141
 30
0.0
 40
0.039
100
AcDbArc
 50
165.016
 51
185.928
  0
ARC
  5
20A
330
18
100
AcDbEntity
  8
0
100
AcDbCircle
 10
2.603
 20
6.141
 30
0.0
 40
0.039
100
AcDbArc
 50
185.928
 51
206.841
  0
ARC
  5
20B
330
18
100
AcDbEntity
  8
0
100
AcDbCircle
 10
2.601
 20
6.14
 30
0.0
 40
0.036
100
AcDbArc
 50
206.841
 51
228.62
  0
ARC
  5
20C
330
18
100
AcDbEntity
  8
0
100
AcDbCircle
 10
2.599
 20
6.138
 30
0.0
 40
0.034
100
AcDbArc
 50
228.62
 51
251.748
  0
ARC
  5
20D
330
18
100
AcDbEntity
  8
0
100
AcDbCircle
 10
2.598
 20
6.136
 30
0.0
 40
0.031
100
AcDbArc
 50
251.748
 51
275.928
  0
ARC
  5
20E
330
18
100
AcDbEntity
  8
0
100
AcDbCircle
 10
2.598
 20
6.136
 30
0.0
 40
0.031
100
AcDbArc
 50
275.928
 51
300.109
  0
ARC
  5
20F
330
18
100
AcDbEntity
  8
0
100
AcDbCircle
 10
2.597
 20
6.138
 30
0.0
 40
0.034
100
AcDbArc
 50
300.109
 51
323.236
  0
ARC
  5
210
330
18
100
AcDbEntity
  8
0
100
AcDbCircle
 10
2.595
 20
6.138999999999999
 30
0.0
 40
0.036
100
AcDbArc
 50
323.236
 51
345.016
  0
ARC
  5
211
330
18
100
AcDbEntity
  8
0
100
AcDbCircle
 10
2.592
 20
6.14
 30
0.0
 40
0.039
100
AcDbArc
 50
345.016
 51
5.928000000000001
  0
ARC
  5
212
330
18
100
AcDbEntity
  8
0
100
AcDbCircle
 10
2.592
 20
6.14
 30
0.0
 40
0.039
100
AcDbArc
 50
5.928000000000001
 51
26.841
  0
ARC
  5
213
330
18
100
AcDbEntity
  8
0
100
AcDbCircle
 10
2.595
 20
6.142
 30
0.0
 40
0.036
100
AcDbArc
 50
26.841
 51
48.62
  0
ARC
  5
214
330
18
100
AcDbEntity
  8
0
100
AcDbCircle
 10
2.596
 20
6.143
 30
0.0
 40
0.034
100
AcDbArc
 50
48.62
 51
71.74800000000001
  0
ARC
  5
215
330
18
100
AcDbEntity
  8
0
100
AcDbCircle
 10
2.597
 20
6.146
 30
0.0
 40
0.031
100
AcDbArc
 50
71.74800000000001
 51
95.928
  0
ARC
  5
216
330
18
100
AcDbEntity
  8
0
100
AcDbCircle
 10
3.001
 20
5.022
 30
0.0
 40
0.009
100
AcDbArc
 50
89.45299999999999
 51
134.427
  0
ARC
  5
217
330
18
100
AcDbEntity
  8
0
100
AcDbCircle
 10
3.019
 20
5.003
 30
0.0
 40
0.036
100
AcDbArc
 50
134.427
 51
156.934
  0
ARC
  5
218
330
18
100
AcDbEntity
  8
0
100
AcDbCircle
 10
3.05
 20
4.99
 30
0.0
 40
0.069
100
AcDbArc
 50
156.934
 51
169.709
  0
ARC
  5
219
330
18
100
AcDbEntity
  8
0
100
AcDbCircle
 10
3.099
 20
4.981
 30
0.0
 40
0.119
100
AcDbArc
 50
169.709
 51
179.453
  0
ARC
  5
21A
330
18
100
AcDbEntity
  8
0
100
AcDbCircle
 10
3.099
 20
4.981
 30
0.0
 40
0.119
100
AcDbArc
 50
179.453
 51
189.197
  0
ARC
  5
21B
330
18
100
AcDbEntity
  8
0
100
AcDbCircle
 10
3.05
 20
4.973
 30
0.0
 40
0.069
100
AcDbArc
 50
189.197
 51
201.972
  0
ARC
  5
21C
330
18
100
AcDbEntity
  8
0
100
AcDbCircle
 10
3.019
 20
4.961
 30
0.0
 40
0.036
100
AcDbArc
 50
201.972
 51
224.479
  0
ARC
  5
21D
330
18
100
AcDbEntity
  8
0
100
AcDbCircle
 10
3.0
 20
4.942
 30
0.0
 40
0.009
100
AcDbArc
 50
224.479
 51
269.453
  0
ARC
  5
21E
330
18
100
AcDbEntity
  8
0
100
AcDbCircle
 10
3.0
 20
4.942
 30
0.0
 40
0.009
100
AcDbArc
 50
269.453
 51
314.427
  0
ARC
  5
21F
330
18
100
AcDbEntity
  8
0
100
AcDbCircle
 10
2.981
 20
4.961
 30
0.0
 40
0.036
100
AcDbArc
 50
314.427
 51
336.934
  0
ARC
  5
220
330
18
100
AcDbEntity
  8
0
100
AcDbCircle
 10
2.951
 20
4.974
 30
0.0
 40
0.069
100
AcDbArc
 50
336.934
 51
349.709
  0
ARC
  5
221
330
18
100
AcDbEntity
  8
0
100
AcDbCircle
 10
2.902
 20
4.983000000000001
 30
0.0
 40
0.119
100
AcDbArc
 50
349.709
 51
359.453
  0
ARC
  5
222
330
18
100
AcDbEntity
  8
0
100
AcDbCircle
 10
2.902
 20
4.983000000000001
 30
0.0
 40
0.119
100
AcDbArc
 50
359.453
 51
9.197000000000001
  0
ARC
  5
223
330
18
100
AcDbEntity
  8
0
100
AcDbCircle
 10
2.951
 20
4.991000000000001
 30
0.0
 40
0.069
100
AcDbArc
 50
9.197000000000001
 51
21.972
  0
ARC
  5
224
330
18
100
AcDbEntity
  8
0
100
AcDbCircle
 10
2.981
 20
5.004
 30
0.0
 40
0.036
100
AcDbArc
 50
21.972
 51
44.479
  0
ARC
  5
225
330
18
100
AcDbEntity
  8
0
100
AcDbCircle
 10
3.001
 20
5.022
 30
0.0
 40
0.009
100
AcDbArc
 50
44.479
 51
89.45299999999999
  0
ARC
  5
226
330
18
100
AcDbEntity
  8
0
100
AcDbCircle
 10
3.012
 20
5.03
 30
0.0
 40
0.009
100
AcDbArc
 50
89.45299999999999
 51
134.427
  0
ARC
  5
227
330
18
100
AcDbEntity
  8
0
100
AcDbCircle
 10
3.031
 20
5.011
 30
0.0
 40
0.036
100
AcDbArc
 50
134.427
 51
145.747
  0
ARC
  5
228
330
18
100
AcDbEntity
  8
0
100
AcDbCircle
 10
3.012
 20
4.95
 30
0.0
 40
0.009
100
AcDbArc
 50
266.32
 51
269.453
  0
ARC
  5
229
330
18
100
AcDbEntity
  8
0
100
AcDbCircle
 10
3.012
 20
4.95
 30
0.0
 40
0.009
100
AcDbArc
 50
269.453
 51
314.427
  0
ARC
  5
22A
330
18
100
AcDbEntity
  8
0
100
AcDbCircle
 10
2.993
 20
4.968999999999999
 30
0.0
 40
0.036
100
AcDbArc
 50
314.427
 51
336.934
  0
ARC
  5
22B
330
18
100
AcDbEntity
  8
0
100
AcDbCircle
 10
2.962
 20
4.982
 30
0.0
 40
0.069
100
AcDbArc
 50
336.934
 51
349.709
  0
ARC
  5
22C
330
18
100
AcDbEntity
  8
0
100
AcDbCircle
 10
2.913
 20
4.991000000000001
 30
0.0
 40
0.119
100
AcDbArc
 50
349.709
 51
359.453
  0
ARC
  5
22D
330
18
100
AcDbEntity
  8
0
100
AcDbCircle
 10
2.913
 20
4.991000000000001
 30
0.0
 40
0.119
100
AcDbArc
 50
359.453
 51
9.197000000000001
  0
ARC
  5
22E
330
18
100
AcDbEntity
  8
0
100
AcDbCircle
 10
2.962
 20
4.999
 30
0.0
 40
0.069
100
AcDbArc
 50
9.197000000000001
 51
21.972
  0
ARC
  5
22F
330
18
100
AcDbEntity
  8
0
100
AcDbCircle
 10
2.993
 20
5.012
 30
0.0
 40
0.036
100
AcDbArc
 50
21.972
 51
44.479
  0
ARC
  5
230
330
18
100
AcDbEntity
  8
0
100
AcDbCircle
 10
3.012
 20
5.03
 30
0.0
 40
0.009
100
AcDbArc
 50
44.479
 51
89.45299999999999
  0
ARC
  5
231
330
18
100
AcDbEntity
  8
0
100
AcDbCircle
 10
3.012
 20
4.305
 30
0.0
 40
0.009
100
AcDbArc
 50
266.32
 51
269.453
  0
ARC
  5
232
330
18
100
AcDbEntity
  8
0
100
AcDbCircle
 10
3.012
 20
4.305
 30
0.0
 40
0.009
100
AcDbArc
 50
269.453
 51
314.427
  0
ARC
  5
233
330
18
100
AcDbEntity
  8
0
100
AcDbCircle
 10
2.993
 20
4.325
 30
0.0
 40
0.036
100
AcDbArc
 50
314.427
 51
336.934
  0
ARC
  5
234
330
18
100
AcDbEntity
  8
0
100
AcDbCircle
 10
2.962
 20
4.338
 30
0.0
 40
0.069
100
AcDbArc
 50
336.934
 51
349.709
  0
ARC
  5
235
330
18
100
AcDbEntity
  8
0
100
AcDbCircle
 10
2.913
 20
4.346
 30
0.0
 40
0.119
100
AcDbArc
 50
349.709
 51
359.453
  0
ARC
  5
236
330
18
100
AcDbEntity
  8
0
100
AcDbCircle
 10
2.913
 20
4.346
 30
0.0
 40
0.119
100
AcDbArc
 50
359.453
 51
9.197000000000001
  0
ARC
  5
237
330
18
100
AcDbEntity
  8
0
100
AcDbCircle
 10
2.962
 20
4.354
 30
0.0
 40
0.069
100
AcDbArc
 50
9.197000000000001
 51
21.972
  0
ARC
  5
238
330
18
100
AcDbEntity
  8
0
100
AcDbCircle
 10
2.993
 20
4.367
 30
0.0
 40
0.036
100
AcDbArc
 50
21.972
 51
44.479
  0
ARC
  5
239
330
18
100
AcDbEntity
  8
0
100
AcDbCircle
 10
3.012
 20
4.386
 30
0.0
 40
0.009
100
AcDbArc
 50
44.479
 51
89.45299999999999
  0
ARC
  5
23A
330
18
100
AcDbEntity
  8
0
100
AcDbCircle
 10
3.012
 20
4.386
 30
0.0
 40
0.009
100
AcDbArc
 50
89.45299999999999
 51
134.427
  0
ARC
  5
23B
330
18
100
AcDbEntity
  8
0
100
AcDbCircle
 10
3.031
 20
4.366000000000001
 30
0.0
 40
0.036
100
AcDbArc
 50
134.427
 51
145.747
  0
ARC
  5
23C
330
18
100
AcDbEntity
  8
0
100
AcDbCircle
 10
3.001
 20
4.377
 30
0.0
 40
0.009
100
AcDbArc
 50
89.45299999999999
 51
134.427
  0
ARC
  5
23D
330
18
100
AcDbEntity
  8
0
100
AcDbCircle
 10
3.019
 20
4.358000000000001
 30
0.0
 40
0.036
100
AcDbArc
 50
134.427
 51
156.934
  0
ARC
  5
23E
330
18
100
AcDbEntity
  8
0
100
AcDbCircle
 10
3.05
 20
4.345
 30
0.0
 40
0.069
100
AcDbArc
 50
156.934
 51
169.709
  0
ARC
  5
23F
330
18
100
AcDbEntity
  8
0
100
AcDbCircle
 10
3.099
 20
4.336
 30
0.0
 40
0.119
100
AcDbArc
 50
169.709
 51
179.453
  0
ARC
  5
240
330
18
100
AcDbEntity
  8
0
100
AcDbCircle
 10
3.099
 20
4.336
 30
0.0
 40
0.119
100
AcDbArc
 50
179.453
 51
189.197
  0
ARC
  5
241
330
18
100
AcDbEntity
  8
0
100
AcDbCircle
 10
3.05
 20
4.328
 30
0.0
 40
0.069
100
AcDbArc
 50
189.197
 51
201.972
  0
ARC
  5
242
330
18
100
AcDbEntity
  8
0
100
AcDbCircle
 10
3.019
 20
4.316
 30
0.0
 40
0.036
100
AcDbArc
 50
201.972
 51
224.479
  0
ARC
  5
243
330
18
100
AcDbEntity
  8
0
100
AcDbCircle
 10
3.0
 20
4.297
 30
0.0
 40
0.009
100
AcDbArc
 50
224.479
 51
269.453
  0
ARC
  5
244
330
18
100
AcDbEntity
  8
0
100
AcDbCircle
 10
3.0
 20
4.297
 30
0.0
 40
0.009
100
AcDbArc
 50
269.453
 51
314.427
  0
ARC
  5
245
330
18
100
AcDbEntity
  8
0
100
AcDbCircle
 10
2.981
 20
4.316
 30
0.0
 40
0.036
100
AcDbArc
 50
314.427
 51
336.934
  0
ARC
  5
246
330
18
100
AcDbEntity
  8
0
100
AcDbCircle
 10
2.951
 20
4.329
 30
0.0
 40
0.069
100
AcDbArc
 50
336.934
 51
349.709
  0
ARC
  5
247
330
18
100
AcDbEntity
  8
0
100
AcDbCircle
 10
2.902
 20
4.338
 30
0.0
 40
0.119
100
AcDbArc
 50
349.709
 51
359.453
  0
ARC
  5
248
330
18
100
AcDbEntity
  8
0
100
AcDbCircle
 10
2.902
 20
4.338
 30
0.0
 40
0.119
100
AcDbArc
 50
359.453
 51
9.197000000000001
  0
ARC
  5
249
330
18
100
AcDbEntity
  8
0
100
AcDbCircle
 10
2.951
 20
4.346
 30
0.0
 40
0.069
100
AcDbArc
 50
9.197000000000001
 51
21.972
  0
ARC
  5
24A
330
18
100
AcDbEntity
  8
0
100
AcDbCircle
 10
2.981
 20
4.359
 30
0.0
 40
0.036
100
AcDbArc
 50
21.972
 51
44.479
  0
ARC
  5
24B
330
18
100
AcDbEntity
  8
0
100
AcDbCircle
 10
3.001
 20
4.377
 30
0.0
 40
0.009
100
AcDbArc
 50
44.479
 51
89.45299999999999
  0
ARC
  5
24C
330
18
100
AcDbEntity
  8
0
100
AcDbCircle
 10
3.012
 20
3.607
 30
0.0
 40
0.009
100
AcDbArc
 50
266.32
 51
269.453
  0
ARC
  5
24D
330
18
100
AcDbEntity
  8
0
100
AcDbCircle
 10
3.012
 20
3.607
 30
0.0
 40
0.009
100
AcDbArc
 50
269.453
 51
314.427
  0
ARC
  5
24E
330
18
100
AcDbEntity
  8
0
100
AcDbCircle
 10
2.993
 20
3.626
 30
0.0
 40
0.036
100
AcDbArc
 50
314.427
 51
336.934
  0
ARC
  5
24F
330
18
100
AcDbEntity
  8
0
100
AcDbCircle
 10
2.962
 20
3.639
 30
0.0
 40
0.069
100
AcDbArc
 50
336.934
 51
349.709
  0
ARC
  5
250
330
18
100
AcDbEntity
  8
0
100
AcDbCircle
 10
2.913
 20
3.648
 30
0.0
 40
0.119
100
AcDbArc
 50
349.709
 51
359.453
  0
ARC
  5
251
330
18
100
AcDbEntity
  8
0
100
AcDbCircle
 10
2.913
 20
3.648
 30
0.0
 40
0.119
100
AcDbArc
 50
359.453
 51
9.197000000000001
  0
ARC
  5
252
330
18
100
AcDbEntity
  8
0
100
AcDbCircle
 10
2.962
 20
3.656
 30
0.0
 40
0.069
100
AcDbArc
 50
9.197000000000001
 51
21.972
  0
ARC
  5
253
330
18
100
AcDbEntity
  8
0
100
AcDbCircle
 10
2.993
 20
3.668
 30
0.0
 40
0.036
100
AcDbArc
 50
21.972
 51
44.479
  0
ARC
  5
254
330
18
100
AcDbEntity
  8
0
100
AcDbCircle
 10
3.012
 20
3.687
 30
0.0
 40
0.009
100
AcDbArc
 50
44.479
 51
89.45299999999999
  0
ARC
  5
255
330
18
100
AcDbEntity
  8
0
100
AcDbCircle
 10
3.012
 20
3.687
 30
0.0
 40
0.009
100
AcDbArc
 50
89.45299999999999
 51
134.427
  0
ARC
  5
256
330
18
100
AcDbEntity
  8
0
100
AcDbCircle
 10
3.031
 20
3.668
 30
0.0
 40
0.036
100
AcDbArc
 50
134.427
 51
145.747
  0
ARC
  5
257
330
18
100
AcDbEntity
  8
0
100
AcDbCircle
 10
3.001
 20
3.679
 30
0.0
 40
0.009
100
AcDbArc
 50
89.45299999999999
 51
134.427
  0
ARC
  5
258
330
18
100
AcDbEntity
  8
0
100
AcDbCircle
 10
3.019
 20
3.659
 30
0.0
 40
0.036
100
AcDbArc
 50
134.427
 51
156.934
  0
ARC
  5
259
330
18
100
AcDbEntity
  8
0
100
AcDbCircle
 10
3.05
 20
3.646
 30
0.0
 40
0.069
100
AcDbArc
 50
156.934
 51
169.709
  0
ARC
  5
25A
330
18
100
AcDbEntity
  8
0
100
AcDbCircle
 10
3.099
 20
3.638
 30
0.0
 40
0.119
100
AcDbArc
 50
169.709
 51
179.453
  0
ARC
  5
25B
330
18
100
AcDbEntity
  8
0
100
AcDbCircle
 10
3.099
 20
3.638
 30
0.0
 40
0.119
100
AcDbArc
 50
179.453
 51
189.197
  0
ARC
  5
25C
330
18
100
AcDbEntity
  8
0
100
AcDbCircle
 10
3.05
 20
3.63
 30
0.0
 40
0.069
100
AcDbArc
 50
189.197
 51
201.972
  0
ARC
  5
25D
330
18
100
AcDbEntity
  8
0
100
AcDbCircle
 10
3.019
 20
3.617
 30
0.0
 40
0.036
100
AcDbArc
 50
201.972
 51
224.479
  0
ARC
  5
25E
330
18
100
AcDbEntity
  8
0
100
AcDbCircle
 10
3.0
 20
3.598
 30
0.0
 40
0.009
100
AcDbArc
 50
224.479
 51
269.453
  0
ARC
  5
25F
330
18
100
AcDbEntity
  8
0
100
AcDbCircle
 10
3.0
 20
3.598
 30
0.0
 40
0.009
100
AcDbArc
 50
269.453
 51
314.427
  0
ARC
  5
260
330
18
100
AcDbEntity
  8
0
100
AcDbCircle
 10
2.981
 20
3.618
 30
0.0
 40
0.036
100
AcDbArc
 50
314.427
 51
336.934
  0
ARC
  5
261
330
18
100
AcDbEntity
  8
0
100
AcDbCircle
 10
2.951
 20
3.631
 30
0.0
 40
0.069
100
AcDbArc
 50
336.934
 51
349.709
  0
ARC
  5
262
330
18
100
AcDbEntity
  8
0
100
AcDbCircle
 10
2.902
 20
3.639
 30
0.0
 40
0.119
100
AcDbArc
 50
349.709
 51
359.453
  0
ARC
  5
263
330
18
100
AcDbEntity
  8
0
100
AcDbCircle
 10
2.902
 20
3.639
 30
0.0
 40
0.119
100
AcDbArc
 50
359.453
 51
9.197000000000001
  0
ARC
  5
264
330
18
100
AcDbEntity
  8
0
100
AcDbCircle
 10
2.951
 20
3.647
 30
0.0
 40
0.069
100
AcDbArc
 50
9.197000000000001
 51
21.972
  0
ARC
  5
265
330
18
100
AcDbEntity
  8
0
100
AcDbCircle
 10
2.981
 20
3.66
 30
0.0
 40
0.036
100
AcDbArc
 50
21.972
 51
44.479
  0
ARC
  5
266
330
18
100
AcDbEntity
  8
0
100
AcDbCircle
 10
3.001
 20
3.679
 30
0.0
 40
0.009
100
AcDbArc
 50
44.479
 51
89.45299999999999
  0
ARC
  5
267
330
18
100
AcDbEntity
  8
0
100
AcDbCircle
 10
3.012
 20
2.913
 30
0.0
 40
0.009
100
AcDbArc
 50
266.32
 51
269.453
  0
ARC
  5
268
330
18
100
AcDbEntity
  8
0
100
AcDbCircle
 10
3.012
 20
2.913
 30
0.0
 40
0.009
100
AcDbArc
 50
269.453
 51
314.427
  0
ARC
  5
269
330
18
100
AcDbEntity
  8
0
100
AcDbCircle
 10
2.993
 20
2.932
 30
0.0
 40
0.036
100
AcDbArc
 50
314.427
 51
336.934
  0
ARC
  5
26A
330
18
100
AcDbEntity
  8
0
100
AcDbCircle
 10
2.962
 20
2.945
 30
0.0
 40
0.069
100
AcDbArc
 50
336.934
 51
349.709
  0
ARC
  5
26B
330
18
100
AcDbEntity
  8
0
100
AcDbCircle
 10
2.913
 20
2.954
 30
0.0
 40
0.119
100
AcDbArc
 50
349.709
 51
359.453
  0
ARC
  5
26C
330
18
100
AcDbEntity
  8
0
100
AcDbCircle
 10
2.913
 20
2.954
 30
0.0
 40
0.119
100
AcDbArc
 50
359.453
 51
9.197000000000001
  0
ARC
  5
26D
330
18
100
AcDbEntity
  8
0
100
AcDbCircle
 10
2.962
 20
2.962
 30
0.0
 40
0.069
100
AcDbArc
 50
9.197000000000001
 51
21.972
  0
ARC
  5
26E
330
18
100
AcDbEntity
  8
0
100
AcDbCircle
 10
2.993
 20
2.975
 30
0.0
 40
0.036
100
AcDbArc
 50
21.972
 51
44.479
  0
ARC
  5
26F
330
18
100
AcDbEntity
  8
0
100
AcDbCircle
 10
3.012
 20
2.993
 30
0.0
 40
0.009
100
AcDbArc
 50
44.479
 51
89.45299999999999
  0
ARC
  5
270
330
18
100
AcDbEntity
  8
0
100
AcDbCircle
 10
3.012
 20
2.993
 30
0.0
 40
0.009
100
AcDbArc
 50
89.45299999999999
 51
134.427
  0
ARC
  5
271
330
18
100
AcDbEntity
  8
0
100
AcDbCircle
 10
3.031
 20
2.974
 30
0.0
 40
0.036
100
AcDbArc
 50
134.427
 51
145.747
  0
ARC
  5
272
330
18
100
AcDbEntity
  8
0
100
AcDbCircle
 10
3.001
 20
2.985
 30
0.0
 40
0.009
100
AcDbArc
 50
89.45299999999999
 51
134.427
  0
ARC
  5
273
330
18
100
AcDbEntity
  8
0
100
AcDbCircle
 10
3.019
 20
2.966
 30
0.0
 40
0.036
100
AcDbArc
 50
134.427
 51
156.934
  0
ARC
  5
274
330
18
100
AcDbEntity
  8
0
100
AcDbCircle
 10
3.05
 20
2.953
 30
0.0
 40
0.069
100
AcDbArc
 50
156.934
 51
169.709
  0
ARC
  5
275
330
18
100
AcDbEntity
  8
0
100
AcDbCircle
 10
3.099
 20
2.944
 30
0.0
 40
0.119
100
AcDbArc
 50
169.709
 51
179.453
  0
ARC
  5
276
330
18
100
AcDbEntity
  8
0
100
AcDbCircle
 10
3.099
 20
2.944
 30
0.0
 40
0.119
100
AcDbArc
 50
179.453
 51
189.197
  0
ARC
  5
277
330
18
100
AcDbEntity
  8
0
100
AcDbCircle
 10
3.05
 20
2.936
 30
0.0
 40
0.069
100
AcDbArc
 50
189.197
 51
201.972
  0
ARC
  5
278
330
18
100
AcDbEntity
  8
0
100
AcDbCircle
 10
3.019
 20
2.924
 30
0.0
 40
0.036
100
AcDbArc
 50
201.972
 51
224.479
  0
ARC
  5
279
330
18
100
AcDbEntity
  8
0
100
AcDbCircle
 10
3.0
 20
2.905
 30
0.0
 40
0.009
100
AcDbArc
 50
224.479
 51
269.453
  0
ARC
  5
27A
330
18
100
AcDbEntity
  8
0
100
AcDbCircle
 10
3.0
 20
2.905
 30
0.0
 40
0.009
100
AcDbArc
 50
269.453
 51
314.427
  0
ARC
  5
27B
330
18
100
AcDbEntity
  8
0
100
AcDbCircle
 10
2.981
 20
2.924
 30
0.0
 40
0.036
100
AcDbArc
 50
314.427
 51
336.934
  0
ARC
  5
27C
330
18
100
AcDbEntity
  8
0
100
AcDbCircle
 10
2.951
 20
2.937
 30
0.0
 40
0.069
100
AcDbArc
 50
336.934
 51
349.709
  0
ARC
  5
27D
330
18
100
AcDbEntity
  8
0
100
AcDbCircle
 10
2.902
 20
2.946
 30
0.0
 40
0.119
100
AcDbArc
 50
349.709
 51
359.453
  0
ARC
  5
27E
330
18
100
AcDbEntity
  8
0
100
AcDbCircle
 10
2.902
 20
2.946
 30
0.0
 40
0.119
100
AcDbArc
 50
359.453
 51
9.197000000000001
  0
ARC
  5
27F
330
18
100
AcDbEntity
  8
0
100
AcDbCircle
 10
2.951
 20
2.954
 30
0.0
 40
0.069
100
AcDbArc
 50
9.197000000000001
 51
21.972
  0
ARC
  5
280
330
18
100
AcDbEntity
  8
0
100
AcDbCircle
 10
2.981
 20
2.966
 30
0.0
 40
0.036
100
AcDbArc
 50
21.972
 51
44.479
  0
ARC
  5
281
330
18
100
AcDbEntity
  8
0
100
AcDbCircle
 10
3.001
 20
2.985
 30
0.0
 40
0.009
100
AcDbArc
 50
44.479
 51
89.45299999999999
  0
ARC
  5
282
330
18
100
AcDbEntity
  8
0
100
AcDbCircle
 10
4.048
 20
5.926
 30
0.0
 40
0.022
100
AcDbArc
 50
90.0
 51
119.52
  0
ARC
  5
283
330
18
100
AcDbEntity
  8
0
100
AcDbCircle
 10
4.053
 20
5.917000000000001
 30
0.0
 40
0.032
100
AcDbArc
 50
119.52
 51
143.814
  0
ARC
  5
284
330
18
100
AcDbEntity
  8
0
100
AcDbCircle
 10
4.061
 20
5.912000000000001
 30
0.0
 40
0.042
100
AcDbArc
 50
143.814
 51
163.143
  0
ARC
  5
285
330
18
100
AcDbEntity
  8
0
100
AcDbCircle
 10
4.073
 20
5.908
 30
0.0
 40
0.055
100
AcDbArc
 50
163.143
 51
180.0
  0
ARC
  5
286
330
18
100
AcDbEntity
  8
0
100
AcDbCircle
 10
4.073
 20
5.908
 30
0.0
 40
0.055
100
AcDbArc
 50
180.0
 51
196.857
  0
ARC
  5
287
330
18
100
AcDbEntity
  8
0
100
AcDbCircle
 10
4.061
 20
5.904
 30
0.0
 40
0.042
100
AcDbArc
 50
196.857
 51
216.186
  0
ARC
  5
288
330
18
100
AcDbEntity
  8
0
100
AcDbCircle
 10
4.053
 20
5.898
 30
0.0
 40
0.032
100
AcDbArc
 50
216.186
 51
240.48
  0
ARC
  5
289
330
18
100
AcDbEntity
  8
0
100
AcDbCircle
 10
4.048
 20
5.89
 30
0.0
 40
0.022
100
AcDbArc
 50
240.48
 51
270.0
  0
ARC
  5
28A
330
18
100
AcDbEntity
  8
0
100
AcDbCircle
 10
4.048
 20
5.89
 30
0.0
 40
0.022
100
AcDbArc
 50
270.0
 51
299.52
  0
ARC
  5
28B
330
18
100
AcDbEntity
  8
0
100
AcDbCircle
 10
4.043
 20
5.898
 30
0.0
 40
0.032
100
AcDbArc
 50
299.52
 51
323.814
  0
ARC
  5
28C
330
18
100
AcDbEntity
  8
0
100
AcDbCircle
 10
4.035
 20
5.904
 30
0.0
 40
0.042
100
AcDbArc
 50
323.814
 51
343.143
  0
ARC
  5
28D
330
18
100
AcDbEntity
  8
0
100
AcDbCircle
 10
4.022
 20
5.908
 30
0.0
 40
0.055
100
AcDbArc
 50
343.143
 51
0.0
  0
ARC
  5
28E
330
18
100
AcDbEntity
  8
0
100
AcDbCircle
 10
4.022
 20
5.908
 30
0.0
 40
0.055
100
AcDbArc
 50
0.0
 51
16.857
  0
ARC
  5
28F
330
18
100
AcDbEntity
  8
0
100
AcDbCircle
 10
4.035
 20
5.912000000000001
 30
0.0
 40
0.042
100
AcDbArc
 50
16.857
 51
36.186
  0
ARC
  5
290
330
18
100
AcDbEntity
  8
0
100
AcDbCircle
 10
4.043
 20
5.917000000000001
 30
0.0
 40
0.032
100
AcDbArc
 50
36.186
 51
60.47999999999999
  0
ARC
  5
291
330
18
100
AcDbEntity
  8
0
100
AcDbCircle
 10
4.048
 20
5.926
 30
0.0
 40
0.022
100
AcDbArc
 50
60.47999999999999
 51
90.0
  0
ARC
  5
292
330
18
100
AcDbEntity
  8
0
100
AcDbCircle
 10
4.058
 20
5.933
 30
0.0
 40
0.022
100
AcDbArc
 50
90.0
 51
119.52
  0
ARC
  5
293
330
18
100
AcDbEntity
  8
0
100
AcDbCircle
 10
4.063
 20
5.924
 30
0.0
 40
0.032
100
AcDbArc
 50
119.52
 51
135.562
  0
ARC
  5
294
330
18
100
AcDbEntity
  8
0
100
AcDbCircle
 10
4.058
 20
5.897
 30
0.0
 40
0.022
100
AcDbArc
 50
288.93
 51
299.52
  0
ARC
  5
295
330
18
100
AcDbEntity
  8
0
100
AcDbCircle
 10
4.053
 20
5.905
 30
0.0
 40
0.032
100
AcDbArc
 50
299.52
 51
323.814
  0
ARC
  5
296
330
18
100
AcDbEntity
  8
0
100
AcDbCircle
 10
4.046
 20
5.911000000000001
 30
0.0
 40
0.042
100
AcDbArc
 50
323.814
 51
343.143
  0
ARC
  5
297
330
18
100
AcDbEntity
  8
0
100
AcDbCircle
 10
4.033
 20
5.915
 30
0.0
 40
0.055
100
AcDbArc
 50
343.143
 51
0.0
  0
ARC
  5
298
330
18
100
AcDbEntity
  8
0
100
AcDbCircle
 10
4.033
 20
5.915
 30
0.0
 40
0.055
100
AcDbArc
 50
0.0
 51
16.857
  0
ARC
  5
299
330
18
100
AcDbEntity
  8
0
100
AcDbCircle
 10
4.046
 20
5.919
 30
0.0
 40
0.042
100
AcDbArc
 50
16.857
 51
36.186
  0
ARC
  5
29A
330
18
100
AcDbEntity
  8
0
100
AcDbCircle
 10
4.053
 20
5.924
 30
0.0
 40
0.032
100
AcDbArc
 50
36.186
 51
60.47999999999999
  0
ARC
  5
29B
330
18
100
AcDbEntity
  8
0
100
AcDbCircle
 10
4.058
 20
5.933
 30
0.0
 40
0.022
100
AcDbArc
 50
60.47999999999999
 51
90.0
  0
ARC
  5
29C
330
18
100
AcDbEntity
  8
0
100
AcDbCircle
 10
4.042
 20
5.654
 30
0.0
 40
0.022
100
AcDbArc
 50
288.93
 51
299.52
  0
ARC
  5
29D
330
18
100
AcDbEntity
  8
0
100
AcDbCircle
 10
4.037
 20
5.662999999999999
 30
0.0
 40
0.032
100
AcDbArc
 50
299.52
 51
323.814
  0
ARC
  5
29E
330
18
100
AcDbEntity
  8
0
100
AcDbCircle
 10
4.029
 20
5.669
 30
0.0
 40
0.042
100
AcDbArc
 50
323.814
 51
343.143
  0
ARC
  5
29F
330
18
100
AcDbEntity
  8
0
100
AcDbCircle
 10
4.017
 20
5.672000000000001
 30
0.0
 40
0.055
100
AcDbArc
 50
343.143
 51
0.0
  0
ARC
  5
2A0
330
18
100
AcDbEntity
  8
0
100
AcDbCircle
 10
4.017
 20
5.672000000000001
 30
0.0
 40
0.055
100
AcDbArc
 50
0.0
 51
16.857
  0
ARC
  5
2A1
330
18
100
AcDbEntity
  8
0
100
AcDbCircle
 10
4.029
 20
5.676
 30
0.0
 40
0.042
100
AcDbArc
 50
16.857
 51
36.186
  0
ARC
  5
2A2
330
18
100
AcDbEntity
  8
0
100
AcDbCircle
 10
4.037
 20
5.682
 30
0.0
 40
0.032
100
AcDbArc
 50
36.186
 51
60.47999999999999
  0
ARC
  5
2A3
330
18
100
AcDbEntity
  8
0
100
AcDbCircle
 10
4.042
 20
5.691
 30
0.0
 40
0.022
100
AcDbArc
 50
60.47999999999999
 51
90.0
  0
ARC
  5
2A4
330
18
100
AcDbEntity
  8
0
100
AcDbCircle
 10
4.042
 20
5.691
 30
0.0
 40
0.022
100
AcDbArc
 50
90.0
 51
119.52
  0
ARC
  5
2A5
330
18
100
AcDbEntity
  8
0
100
AcDbCircle
 10
4.047
 20
5.682
 30
0.0
 40
0.032
100
AcDbArc
 50
119.52
 51
135.562
  0
ARC
  5
2A6
330
18
100
AcDbEntity
  8
0
100
AcDbCircle
 10
4.032
 20
5.684
 30
0.0
 40
0.022
100
AcDbArc
 50
90.0
 51
119.52
  0
ARC
  5
2A7
330
18
100
AcDbEntity
  8
0
100
AcDbCircle
 10
4.037
 20
5.675
 30
0.0
 40
0.032
100
AcDbArc
 50
119.52
 51
143.814
  0
ARC
  5
2A8
330
18
100
AcDbEntity
  8
0
100
AcDbCircle
 10
4.044
 20
5.669
 30
0.0
 40
0.042
100
AcDbArc
 50
143.814
 51
163.143
  0
ARC
  5
2A9
330
18
100
AcDbEntity
  8
0
100
AcDbCircle
 10
4.057
 20
5.665
 30
0.0
 40
0.055
100
AcDbArc
 50
163.143
 51
168.497
  0
ARC
  5
2AA
330
18
100
AcDbEntity
  8
0
100
AcDbCircle
 10
4.032
 20
5.647
 30
0.0
 40
0.022
100
AcDbArc
 50
259.938
 51
270.0
  0
ARC
  5
2AB
330
18
100
AcDbEntity
  8
0
100
AcDbCircle
 10
4.032
 20
5.647
 30
0.0
 40
0.022
100
AcDbArc
 50
270.0
 51
299.52
  0
ARC
  5
2AC
330
18
100
AcDbEntity
  8
0
100
AcDbCircle
 10
4.027
 20
5.656000000000001
 30
0.0
 40
0.032
100
AcDbArc
 50
299.52
 51
323.814
  0
ARC
  5
2AD
330
18
100
AcDbEntity
  8
0
100
AcDbCircle
 10
4.019
 20
5.662000000000001
 30
0.0
 40
0.042
100
AcDbArc
 50
323.814
 51
343.143
  0
ARC
  5
2AE
330
18
100
AcDbEntity
  8
0
100
AcDbCircle
 10
4.006
 20
5.665
 30
0.0
 40
0.055
100
AcDbArc
 50
343.143
 51
0.0
  0
ARC
  5
2AF
330
18
100
AcDbEntity
  8
0
100
AcDbCircle
 10
4.006
 20
5.665
 30
0.0
 40
0.055
100
AcDbArc
 50
0.0
 51
16.857
  0
ARC
  5
2B0
330
18
100
AcDbEntity
  8
0
100
AcDbCircle
 10
4.019
 20
5.669
 30
0.0
 40
0.042
100
AcDbArc
 50
16.857
 51
36.186
  0
ARC
  5
2B1
330
18
100
AcDbEntity
  8
0
100
AcDbCircle
 10
4.027
 20
5.675
 30
0.0
 40
0.032
100
AcDbArc
 50
36.186
 51
60.47999999999999
  0
ARC
  5
2B2
330
18
100
AcDbEntity
  8
0
100
AcDbCircle
 10
4.032
 20
5.684
 30
0.0
 40
0.022
100
AcDbArc
 50
60.47999999999999
 51
90.0
  0
LINE
  5
2B3
330
18
100
AcDbEntity
  8
0
100
AcDbLine
 10
5.894
 20
7.115
 30
0.0
 11
6.0
 21
6.988
 31
0.0
  0
LINE
  5
2B4
330
18
100
AcDbEntity
  8
0
100
AcDbLine
 10
5.774
 20
7.073
 30
0.0
 11
5.936
 21
6.773
 31
0.0
  0
LINE
  5
2B5
330
18
100
AcDbEntity
  8
0
100
AcDbLine
 10
5.936
 20
6.773
 30
0.0
 11
6.0
 21
6.654
 31
0.0
  0
LINE
  5
2B6
330
18
100
AcDbEntity
  8
0
100
AcDbLine
 10
5.604
 20
7.013999999999999
 30
0.0
 11
5.757000000000001
 21
6.77
 31
0.0
  0
LINE
  5
2B7
330
18
100
AcDbEntity
  8
0
100
AcDbLine
 10
5.757000000000001
 20
6.77
 30
0.0
 11
5.872999999999999
 21
6.513999999999999
 31
0.0
  0
LINE
  5
2B8
330
18
100
AcDbEntity
  8
0
100
AcDbLine
 10
5.872999999999999
 20
6.513999999999999
 30
0.0
 11
5.975
 21
6.316
 31
0.0
  0
LINE
  5
2B9
330
18
100
AcDbEntity
  8
0
100
AcDbLine
 10
5.975
 20
6.316
 30
0.0
 11
6.0
 21
6.283
 31
0.0
  0
LINE
  5
2BA
330
18
100
AcDbEntity
  8
0
100
AcDbLine
 10
5.42
 20
6.949
 30
0.0
 11
5.686
 21
6.589
 31
0.0
  0
LINE
  5
2BB
330
18
100
AcDbEntity
  8
0
100
AcDbLine
 10
5.686
 20
6.589
 30
0.0
 11
5.811
 21
6.257000000000001
 31
0.0
  0
LINE
  5
2BC
330
18
100
AcDbEntity
  8
0
100
AcDbLine
 10
5.811
 20
6.257000000000001
 30
0.0
 11
5.931
 21
6.009
 31
0.0
  0
LINE
  5
2BD
330
18
100
AcDbEntity
  8
0
100
AcDbLine
 10
5.931
 20
6.009
 30
0.0
 11
6.0
 21
5.888
 31
0.0
  0
LINE
  5
2BE
330
18
100
AcDbEntity
  8
0
100
AcDbLine
 10
5.263999999999999
 20
6.895
 30
0.0
 11
5.521
 21
6.569
 31
0.0
  0
LINE
  5
2BF
330
18
100
AcDbEntity
  8
0
100
AcDbLine
 10
5.521
 20
6.569
 30
0.0
 11
5.718999999999999
 21
6.108
 31
0.0
  0
LINE
  5
2C0
330
18
100
AcDbEntity
  8
0
100
AcDbLine
 10
5.718999999999999
 20
6.108
 30
0.0
 11
5.882000000000001
 21
5.692
 31
0.0
  0
LINE
  5
2C1
330
18
100
AcDbEntity
  8
0
100
AcDbLine
 10
5.882000000000001
 20
5.692
 30
0.0
 11
6.0
 21
5.424
 31
0.0
  0
LINE
  5
2C2
330
18
100
AcDbEntity
  8
0
100
AcDbLine
 10
5.138
 20
6.851
 30
0.0
 11
5.349
 21
6.563
 31
0.0
  0
LINE
  5
2C3
330
18
100
AcDbEntity
  8
0
100
AcDbLine
 10
5.349
 20
6.563
 30
0.0
 11
5.58
 21
6.084
 31
0.0
  0
LINE
  5
2C4
330
18
100
AcDbEntity
  8
0
100
AcDbLine
 10
5.58
 20
6.084
 30
0.0
 11
5.792000000000001
 21
5.507999999999999
 31
0.0
  0
LINE
  5
2C5
330
18
100
AcDbEntity
  8
0
100
AcDbLine
 10
5.792000000000001
 20
5.507999999999999
 30
0.0
 11
5.925
 21
4.977
 31
0.0
  0
LINE
  5
2C6
330
18
100
AcDbEntity
  8
0
100
AcDbLine
 10
5.925
 20
4.977
 30
0.0
 11
6.0
 21
4.697
 31
0.0
  0
LINE
  5
2C7
330
18
100
AcDbEntity
  8
0
100
AcDbLine
 10
5.032
 20
4.339
 30
0.0
 11
5.081
 21
4.288
 31
0.0
  0
LINE
  5
2C8
330
18
100
AcDbEntity
  8
0
100
AcDbLine
 10
5.081
 20
4.288
 30
0.0
 11
5.104
 21
4.235
 31
0.0
  0
LINE
  5
2C9
330
18
100
AcDbEntity
  8
0
100
AcDbLine
 10
5.141
 20
4.151
 30
0.0
 11
5.221
 21
3.923
 31
0.0
  0
LINE
  5
2CA
330
18
100
AcDbEntity
  8
0
100
AcDbLine
 10
5.221
 20
3.923
 30
0.0
 11
5.095
 21
3.714
 31
0.0
  0
LINE
  5
2CB
330
18
100
AcDbEntity
  8
0
100
AcDbLine
 10
5.095
 20
3.714
 30
0.0
 11
5.145
 21
3.547
 31
0.0
  0
LINE
  5
2CC
330
18
100
AcDbEntity
  8
0
100
AcDbLine
 10
5.032
 20
5.52
 30
0.0
 11
5.136
 21
5.27
 31
0.0
  0
LINE
  5
2CD
330
18
100
AcDbEntity
  8
0
100
AcDbLine
 10
5.136
 20
5.27
 30
0.0
 11
5.217000000000001
 21
5.032
 31
0.0
  0
LINE
  5
2CE
330
18
100
AcDbEntity
  8
0
100
AcDbLine
 10
5.407
 20
4.378
 30
0.0
 11
5.433
 21
4.281000000000001
 31
0.0
  0
LINE
  5
2CF
330
18
100
AcDbEntity
  8
0
100
AcDbLine
 10
5.433
 20
4.281000000000001
 30
0.0
 11
5.491000000000001
 21
4.053999999999999
 31
0.0
  0
LINE
  5
2D0
330
18
100
AcDbEntity
  8
0
100
AcDbLine
 10
5.491000000000001
 20
4.053999999999999
 30
0.0
 11
5.386
 21
3.856
 31
0.0
  0
LINE
  5
2D1
330
18
100
AcDbEntity
  8
0
100
AcDbLine
 10
5.386
 20
3.856
 30
0.0
 11
5.452000000000001
 21
3.693
 31
0.0
  0
LINE
  5
2D2
330
18
100
AcDbEntity
  8
0
100
AcDbLine
 10
5.032
 20
4.905
 30
0.0
 11
5.103
 21
4.742
 31
0.0
  0
LINE
  5
2D3
330
18
100
AcDbEntity
  8
0
100
AcDbLine
 10
5.205
 20
4.411000000000001
 30
0.0
 11
5.212999999999999
 21
4.372
 31
0.0
  0
LINE
  5
2D4
330
18
100
AcDbEntity
  8
0
100
AcDbLine
 10
5.25
 20
4.199
 30
0.0
 11
5.345
 21
3.983
 31
0.0
  0
LINE
  5
2D5
330
18
100
AcDbEntity
  8
0
100
AcDbLine
 10
5.345
 20
3.983
 30
0.0
 11
5.23
 21
3.779
 31
0.0
  0
LINE
  5
2D6
330
18
100
AcDbEntity
  8
0
100
AcDbLine
 10
5.23
 20
3.779
 30
0.0
 11
5.297000000000001
 21
3.62
 31
0.0
  0
LINE
  5
2D7
330
18
100
AcDbEntity
  8
0
100
AcDbLine
 10
5.032
 20
6.053999999999999
 30
0.0
 11
5.049
 21
6.028
 31
0.0
  0
LINE
  5
2D8
330
18
100
AcDbEntity
  8
0
100
AcDbLine
 10
5.049
 20
6.028
 30
0.0
 11
5.207999999999999
 21
5.712000000000001
 31
0.0
  0
LINE
  5
2D9
330
18
100
AcDbEntity
  8
0
100
AcDbLine
 10
5.234
 20
5.66
 30
0.0
 11
5.347
 21
5.332999999999999
 31
0.0
  0
LINE
  5
2DA
330
18
100
AcDbEntity
  8
0
100
AcDbLine
 10
5.347
 20
5.332999999999999
 30
0.0
 11
5.419
 21
5.047
 31
0.0
  0
LINE
  5
2DB
330
18
100
AcDbEntity
  8
0
100
AcDbLine
 10
5.577000000000001
 20
4.435
 30
0.0
 11
5.661000000000001
 21
4.133
 31
0.0
  0
LINE
  5
2DC
330
18
100
AcDbEntity
  8
0
100
AcDbLine
 10
5.661000000000001
 20
4.133
 30
0.0
 11
5.512000000000001
 21
3.917
 31
0.0
  0
LINE
  5
2DD
330
18
100
AcDbEntity
  8
0
100
AcDbLine
 10
5.512000000000001
 20
3.917
 30
0.0
 11
5.601
 21
3.764
 31
0.0
  0
LINE
  5
2DE
330
18
100
AcDbEntity
  8
0
100
AcDbLine
 10
5.032
 20
6.522
 30
0.0
 11
5.073
 21
6.448
 31
0.0
  0
LINE
  5
2DF
330
18
100
AcDbEntity
  8
0
100
AcDbLine
 10
5.073
 20
6.448
 30
0.0
 11
5.22
 21
6.06
 31
0.0
  0
LINE
  5
2E0
330
18
100
AcDbEntity
  8
0
100
AcDbLine
 10
5.22
 20
6.06
 30
0.0
 11
5.401
 21
5.718999999999999
 31
0.0
  0
LINE
  5
2E1
330
18
100
AcDbEntity
  8
0
100
AcDbLine
 10
5.401
 20
5.718999999999999
 30
0.0
 11
5.456
 21
5.559
 31
0.0
  0
LINE
  5
2E2
330
18
100
AcDbEntity
  8
0
100
AcDbLine
 10
5.533
 20
5.335
 30
0.0
 11
5.542999999999999
 21
5.273
 31
0.0
  0
LINE
  5
2E3
330
18
100
AcDbEntity
  8
0
100
AcDbLine
 10
5.699
 20
4.424
 30
0.0
 11
5.702000000000001
 21
4.401
 31
0.0
  0
LINE
  5
2E4
330
18
100
AcDbEntity
  8
0
100
AcDbLine
 10
5.702000000000001
 20
4.401
 30
0.0
 11
5.786000000000001
 21
4.196000000000001
 31
0.0
  0
LINE
  5
2E5
330
18
100
AcDbEntity
  8
0
100
AcDbLine
 10
5.786000000000001
 20
4.196000000000001
 30
0.0
 11
5.658
 21
3.988
 31
0.0
  0
LINE
  5
2E6
330
18
100
AcDbEntity
  8
0
100
AcDbLine
 10
5.658
 20
3.988
 30
0.0
 11
5.741000000000001
 21
3.831
 31
0.0
  0
LINE
  5
2E7
330
18
100
AcDbEntity
  8
0
100
AcDbLine
 10
5.032
 20
6.814
 30
0.0
 11
5.112
 21
6.687
 31
0.0
  0
LINE
  5
2E8
330
18
100
AcDbEntity
  8
0
100
AcDbLine
 10
5.112
 20
6.687
 30
0.0
 11
5.29
 21
6.386
 31
0.0
  0
LINE
  5
2E9
330
18
100
AcDbEntity
  8
0
100
AcDbLine
 10
5.29
 20
6.386
 30
0.0
 11
5.394
 21
6.167000000000001
 31
0.0
  0
LINE
  5
2EA
330
18
100
AcDbEntity
  8
0
100
AcDbLine
 10
5.394
 20
6.167000000000001
 30
0.0
 11
5.505
 21
5.86
 31
0.0
  0
LINE
  5
2EB
330
18
100
AcDbEntity
  8
0
100
AcDbLine
 10
5.505
 20
5.86
 30
0.0
 11
5.579
 21
5.67
 31
0.0
  0
LINE
  5
2EC
330
18
100
AcDbEntity
  8
0
100
AcDbLine
 10
5.579
 20
5.67
 30
0.0
 11
5.644
 21
5.459
 31
0.0
  0
LINE
  5
2ED
330
18
100
AcDbEntity
  8
0
100
AcDbLine
 10
5.644
 20
5.459
 30
0.0
 11
5.649
 21
5.44
 31
0.0
  0
LINE
  5
2EE
330
18
100
AcDbEntity
  8
0
100
AcDbLine
 10
5.714
 20
5.187
 30
0.0
 11
5.741000000000001
 21
5.052
 31
0.0
  0
LINE
  5
2EF
330
18
100
AcDbEntity
  8
0
100
AcDbLine
 10
5.853
 20
4.541
 30
0.0
 11
5.939
 21
4.274
 31
0.0
  0
LINE
  5
2F0
330
18
100
AcDbEntity
  8
0
100
AcDbLine
 10
5.939
 20
4.274
 30
0.0
 11
5.775
 21
4.046
 31
0.0
  0
LINE
  5
2F1
330
18
100
AcDbEntity
  8
0
100
AcDbLine
 10
5.775
 20
4.046
 30
0.0
 11
5.879
 21
3.896
 31
0.0
  0
LINE
  5
2F2
330
18
100
AcDbEntity
  8
0
100
AcDbLine
 10
1.511
 20
5.53
 30
0.0
 11
1.511
 21
3.007
 31
0.0
  0
LINE
  5
2F3
330
18
100
AcDbEntity
  8
0
100
AcDbLine
 10
3.047
 20
5.335
 30
0.0
 11
3.047
 21
5.888
 31
0.0
  0
LINE
  5
2F4
330
18
100
AcDbEntity
  8
0
100
AcDbLine
 10
3.084
 20
5.337999999999999
 30
0.0
 11
3.084
 21
5.904
 31
0.0
  0
LINE
  5
2F5
330
18
100
AcDbEntity
  8
0
100
AcDbLine
 10
3.479
 20
5.396
 30
0.0
 11
2.903
 21
6.797000000000001
 31
0.0
  0
LINE
  5
2F6
330
18
100
AcDbEntity
  8
0
100
AcDbLine
 10
2.328
 20
5.321000000000001
 30
0.0
 11
2.328
 21
3.637
 31
0.0
  0
LINE
  5
2F7
330
18
100
AcDbEntity
  8
0
100
AcDbLine
 10
2.728
 20
5.295
 30
0.0
 11
2.728
 21
3.511
 31
0.0
  0
LINE
  5
2F8
330
18
100
AcDbEntity
  8
0
100
AcDbLine
 10
2.77
 20
5.289
 30
0.0
 11
2.77
 21
3.441
 31
0.0
  0
LINE
  5
2F9
330
18
100
AcDbEntity
  8
0
100
AcDbLine
 10
3.786
 20
5.437
 30
0.0
 11
4.584
 21
3.651
 31
0.0
  0
LINE
  5
2FA
330
18
100
AcDbEntity
  8
0
100
AcDbLine
 10
4.064
 20
5.55
 30
0.0
 11
4.407
 21
4.839
 31
0.0
  0
LINE
  5
2FB
330
18
100
AcDbEntity
  8
0
100
AcDbLine
 10
4.132
 20
5.586
 30
0.0
 11
4.132
 21
5.409
 31
0.0
  0
LINE
  5
2FC
330
18
100
AcDbEntity
  8
0
100
AcDbLine
 10
4.17
 20
5.592000000000001
 30
0.0
 11
4.17
 21
5.331
 31
0.0
  0
LINE
  5
2FD
330
18
100
AcDbEntity
  8
0
100
AcDbLine
 10
5.032
 20
5.786000000000001
 30
0.0
 11
5.032
 21
4.157
 31
0.0
  0
LINE
  5
2FE
330
18
100
AcDbEntity
  8
0
100
AcDbLine
 10
3.483
 20
6.754
 30
0.0
 11
4.052
 21
5.576000000000001
 31
0.0
  0
LINE
  5
2FF
330
18
100
AcDbEntity
  8
0
100
AcDbLine
 10
4.107
 20
4.718
 30
0.0
 11
4.407
 21
4.839
 31
0.0
  0
LINE
  5
300
330
18
100
AcDbEntity
  8
0
100
AcDbLine
 10
4.407
 20
3.986
 30
0.0
 11
4.407
 21
3.525
 31
0.0
  0
LINE
  5
301
330
18
100
AcDbEntity
  8
0
100
AcDbLine
 10
5.032
 20
4.117
 30
0.0
 11
5.032
 21
4.102
 31
0.0
  0
LINE
  5
302
330
18
100
AcDbEntity
  8
0
100
AcDbLine
 10
5.223
 20
4.327
 30
0.0
 11
5.25
 21
4.199
 31
0.0
  0
LINE
  5
303
330
18
100
AcDbEntity
  8
0
100
AcDbLine
 10
5.122999999999999
 20
4.193000000000001
 30
0.0
 11
5.141
 21
4.151
 31
0.0
  0
LINE
  5
304
330
18
100
AcDbEntity
  8
0
100
AcDbLine
 10
5.661000000000001
 20
5.394
 30
0.0
 11
5.714
 21
5.187
 31
0.0
  0
LINE
  5
305
330
18
100
AcDbEntity
  8
0
100
AcDbLine
 10
5.473
 20
5.51
 30
0.0
 11
5.533
 21
5.335
 31
0.0
  0
LINE
  5
306
330
18
100
AcDbEntity
  8
0
100
AcDbLine
 10
5.228
 20
5.672000000000001
 30
0.0
 11
5.234
 21
5.66
 31
0.0
  0
LINE
  5
307
330
18
100
AcDbEntity
  8
0
100
AcDbLine
 10
5.556
 20
5.193
 30
0.0
 11
5.573
 21
5.09
 31
0.0
  0
LINE
  5
308
330
18
100
AcDbEntity
  8
0
100
AcDbLine
 10
1.511
 20
6.401
 30
0.0
 11
1.511
 21
5.614
 31
0.0
  0
TEXT
  5
309
330
18
100
AcDbEntity
  8
0
100
AcDbText
 10
0.4449770000000001
 20
1.182795
 30
0.0
 40
0.18
  1
Simpson Strong-Tie
100
AcDbText
  0
TEXT
  5
30A
330
18
100
AcDbEntity
  8
0
100
AcDbText
 10
0.4449770000000001
 20
0.891366
 30
0.0
 40
0.18
  1
U and HU
100
AcDbText
  0
POINT
  5
30B
330
18
100
AcDbEntity
  8
0
100
AcDbPoint
 10
0.247816
 20
6.090459
 30
0.0
  0
ENDSEC
  0
SECTION
  2
OBJECTS
  0
DICTIONARY
  5
C
330
0
100
AcDbDictionary
281
     1
  3
ACAD_COLOR
350
311
  3
ACAD_GROUP
350
D
  3
ACAD_LAYOUT
350
15
  3
ACAD_MATERIAL
350
313
  3
ACAD_MLINESTYLE
350
12
  3
ACAD_PLOTSETTINGS
350
14
  3
ACAD_PLOTSTYLENAME
350
E
  3
ACDBHEADERROUNDTRIPXREC
350
310
  0
DICTIONARY
  5
311
102
{ACAD_REACTORS
330
C
102
}
330
C
100
AcDbDictionary
281
     1
  0
DICTIONARY
  5
D
102
{ACAD_REACTORS
330
C
102
}
330
C
100
AcDbDictionary
281
     1
  0
DICTIONARY
  5
15
102
{ACAD_REACTORS
330
C
102
}
330
C
100
AcDbDictionary
281
     1
  3
Layout1
350
17
  3
Model
350
19
  0
DICTIONARY
  5
313
102
{ACAD_REACTORS
330
C
102
}
330
C
100
AcDbDictionary
281
     1
  0
DICTIONARY
  5
12
102
{ACAD_REACTORS
330
C
102
}
330
C
100
AcDbDictionary
281
     1
  3
Standard
350
13
  0
DICTIONARY
  5
14
102
{ACAD_REACTORS
330
C
102
}
330
C
100
AcDbDictionary
281
     1
  0
ACDBDICTIONARYWDFLT
  5
E
102
{ACAD_REACTORS
330
C
102
}
330
C
100
AcDbDictionary
281
     1
  3
Normal
350
F
100
AcDbDictionaryWithDefault
340
F
  0
DICTIONARY
  5
310
102
{ACAD_REACTORS
330
C
102
}
330
C
100
AcDbDictionary
281
     1
  3
COLORDICT
350
312
  3
MATERIALDICT
350
314
  0
LAYOUT
  5
17
102
{ACAD_REACTORS
330
15
102
}
102
{ACAD_XDICTIONARY
360
315
102
}
330
15
100
AcDbPlotSettings
  1

  2

  4

  6

 40
0.0
 41
0.0
 42
0.0
 43
0.0
 44
0.0
 45
0.0
 46
0.0
 47
0.0
 48
0.0
 49
0.0
140
0.0
141
0.0
142
1.0
143
1.0
 70
   688
 72
     0
 73
     0
 74
     5
  7

 75
    16
147
1.0
148
0.0
149
0.0
100
AcDbLayout
  1
Layout1
 70
     1
 71
     1
 10
0.0
 20
0.0
 11
12.0
 21
9.0
 12
0.0
 22
0.0
 32
0.0
 14
1.000000000000000E+20
 24
1.000000000000000E+20
 34
1.000000000000000E+20
 15
-1.000000000000000E+20
 25
-1.000000000000000E+20
 35
-1.000000000000000E+20
146
0.0
 13
0.0
 23
0.0
 33
0.0
 16
1.0
 26
0.0
 36
0.0
 17
0.0
 27
1.0
 37
0.0
 76
     0
330
16
  0
LAYOUT
  5
19
102
{ACAD_REACTORS
330
15
102
}
102
{ACAD_XDICTIONARY
360
317
102
}
330
15
100
AcDbPlotSettings
  1

  2

  4

  6

 40
0.0
 41
0.0
 42
0.0
 43
0.0
 44
0.0
 45
0.0
 46
0.0
 47
0.0
 48
0.0
 49
0.0
140
0.0
141
0.0
142
1.0
143
1.0
 70
  1712
 72
     0
 73
     0
 74
     0
  7

 75
     0
147
1.0
148
0.0
149
0.0
100
AcDbLayout
  1
Model
 70
     1
 71
     0
 10
0.0
 20
0.0
 11
0.0
 21
0.0
 12
0.0
 22
0.0
 32
0.0
 14
0.0
 24
0.0
 34
0.0
 15
0.0
 25
0.0
 35
0.0
146
0.0
 13
0.0
 23
0.0
 33
0.0
 16
1.0
 26
0.0
 36
0.0
 17
0.0
 27
1.0
 37
0.0
 76
     0
330
18
  0
MLINESTYLE
  5
13
102
{ACAD_REACTORS
330
12
102
}
330
12
100
AcDbMlineStyle
  2
Standard
 70
     0
  3

 62
   256
 51
90.0
 52
90.0
 71
     2
 49
0.5
 62
   256
  6
BYLAYER
 49
-0.5
 62
   256
  6
BYLAYER
  0
ACDBPLACEHOLDER
  5
F
102
{ACAD_REACTORS
330
E
102
}
330
E
  0
XRECORD
  5
312
102
{ACAD_REACTORS
330
310
102
}
330
310
100
AcDbXrecord
340
311
  0
XRECORD
  5
314
102
{ACAD_REACTORS
330
310
102
}
330
310
100
AcDbXrecord
340
313
  0
DICTIONARY
  5
315
330
17
100
AcDbDictionary
280
     1
281
     1
  3
ACAD_XREC_ROUNDTRIP
360
316
  0
DICTIONARY
  5
317
330
19
100
AcDbDictionary
280
     1
281
     1
  3
ACAD_XREC_ROUNDTRIP
360
318
  0
XRECORD
  5
316
102
{ACAD_REACTORS
330
315
102
}
330
315
100
AcDbXrecord
102
SHADEPLOT
 70
     0
102
SHADEPLOTRESLEVEL
 70
     0
102
SHADEPLOTCUSTOMDPI
 70
     0
  0
XRECORD
  5
318
102
{ACAD_REACTORS
330
317
102
}
330
317
100
AcDbXrecord
102
SHADEPLOT
 70
     0
102
SHADEPLOTRESLEVEL
 70
     0
102
SHADEPLOTCUSTOMDPI
 70
     0
  0
ENDSEC
  0
EOF
