  0
SECTION
  2
HEADER
  9
$ACADVER
  1
AC1015
  9
$ACADMAINTVER
 70
     6
  9
$DWGCODEPAGE
  3
ANSI_1252
  9
$INSBASE
 10
0.0
 20
0.0
 30
0.0
  9
$EXTMIN
 10
-1.699893600245033
 20
-5.025820557409917
 30
-0.0015258207003612
  9
$EXTMAX
 10
102.4253538631889
 20
88.94590645272291
 30
0.0000000349246008
  9
$LIMMIN
 10
-1.831929524739583
 20
-5.022949218749999
  9
$LIMMAX
 10
102.4221720377604
 20
89.07225477430555
  9
$ORTHOMODE
 70
     0
  9
$REGENMODE
 70
     1
  9
$FILLMODE
 70
     1
  9
$QTEXTMODE
 70
     0
  9
$MIRRTEXT
 70
     1
  9
$LTSCALE
 40
1.0
  9
$ATTMODE
 70
     1
  9
$TEXTSIZE
 40
0.2
  9
$TRACEWID
 40
0.05
  9
$TEXTSTYLE
  7
STANDARD
  9
$CLAYER
  8
0
  9
$CELTYPE
  6
CONTINUOUS
  9
$CECOLOR
 62
   256
  9
$CELTSCALE
 40
1.0
  9
$DISPSILH
 70
     0
  9
$DIMSCALE
 40
1.0
  9
$DIMASZ
 40
0.18
  9
$DIMEXO
 40
0.0625
  9
$DIMDLI
 40
0.38
  9
$DIMRND
 40
0.0
  9
$DIMDLE
 40
0.0
  9
$DIMEXE
 40
0.18
  9
$DIMTP
 40
0.0
  9
$DIMTM
 40
0.0
  9
$DIMTXT
 40
0.18
  9
$DIMCEN
 40
0.09
  9
$DIMTSZ
 40
0.0
  9
$DIMTOL
 70
     0
  9
$DIMLIM
 70
     0
  9
$DIMTIH
 70
     1
  9
$DIMTOH
 70
     1
  9
$DIMSE1
 70
     0
  9
$DIMSE2
 70
     0
  9
$DIMTAD
 70
     0
  9
$DIMZIN
 70
     0
  9
$DIMBLK
  1

  9
$DIMASO
 70
     1
  9
$DIMSHO
 70
     1
  9
$DIMPOST
  1

  9
$DIMAPOST
  1

  9
$DIMALT
 70
     0
  9
$DIMALTD
 70
     2
  9
$DIMALTF
 40
25.4
  9
$DIMLFAC
 40
1.0
  9
$DIMTOFL
 70
     0
  9
$DIMTVP
 40
0.0
  9
$DIMTIX
 70
     0
  9
$DIMSOXD
 70
     0
  9
$DIMSAH
 70
     0
  9
$DIMBLK1
  1

  9
$DIMBLK2
  1

  9
$DIMSTYLE
  2
STANDARD
  9
$DIMCLRD
 70
     0
  9
$DIMCLRE
 70
     0
  9
$DIMCLRT
 70
     0
  9
$DIMTFAC
 40
1.0
  9
$DIMGAP
 40
0.09
  9
$DIMJUST
 70
     0
  9
$DIMSD1
 70
     0
  9
$DIMSD2
 70
     0
  9
$DIMTOLJ
 70
     1
  9
$DIMTZIN
 70
     0
  9
$DIMALTZ
 70
     0
  9
$DIMALTTZ
 70
     0
  9
$DIMUPT
 70
     0
  9
$DIMDEC
 70
     4
  9
$DIMTDEC
 70
     4
  9
$DIMALTU
 70
     2
  9
$DIMALTTD
 70
     2
  9
$DIMTXSTY
  7
STANDARD
  9
$DIMAUNIT
 70
     0
  9
$DIMADEC
 70
     0
  9
$DIMALTRND
 40
0.0
  9
$DIMAZIN
 70
     0
  9
$DIMDSEP
 70
    46
  9
$DIMATFIT
 70
     3
  9
$DIMFRAC
 70
     0
  9
$DIMLDRBLK
  1

  9
$DIMLUNIT
 70
     2
  9
$DIMLWD
 70
    -2
  9
$DIMLWE
 70
    -2
  9
$DIMTMOVE
 70
     0
  9
$LUNITS
 70
     2
  9
$LUPREC
 70
     4
  9
$SKETCHINC
 40
0.1
  9
$FILLETRAD
 40
0.0
  9
$AUNITS
 70
     0
  9
$AUPREC
 70
     0
  9
$MENU
  1
acad
  9
$ELEVATION
 40
0.0
  9
$PELEVATION
 40
0.0
  9
$THICKNESS
 40
0.0
  9
$LIMCHECK
 70
     0
  9
$CHAMFERA
 40
0.0
  9
$CHAMFERB
 40
0.0
  9
$CHAMFERC
 40
0.0
  9
$CHAMFERD
 40
0.0
  9
$SKPOLY
 70
     0
  9
$TDCREATE
 40
2444971.666666667
  9
$TDUCREATE
 40
2444972.0
  9
$TDUPDATE
 40
2452219.449254282
  9
$TDUUPDATE
 40
2452219.782587616
  9
$TDINDWG
 40
0.0010711806
  9
$TDUSRTIMER
 40
0.0010711806
  9
$USRTIMER
 70
     1
  9
$ANGBASE
 50
0.0
  9
$ANGDIR
 70
     0
  9
$PDMODE
 70
     0
  9
$PDSIZE
 40
0.0
  9
$PLINEWID
 40
0.0
  9
$SPLFRAME
 70
     0
  9
$SPLINETYPE
 70
     6
  9
$SPLINESEGS
 70
     8
  9
$HANDSEED
  5
E0
  9
$SURFTAB1
 70
     6
  9
$SURFTAB2
 70
     6
  9
$SURFTYPE
 70
     6
  9
$SURFU
 70
     6
  9
$SURFV
 70
     6
  9
$UCSBASE
  2

  9
$UCSNAME
  2

  9
$UCSORG
 10
0.0
 20
0.0
 30
0.0
  9
$UCSXDIR
 10
1.0
 20
0.0
 30
0.0
  9
$UCSYDIR
 10
0.0
 20
1.0
 30
0.0
  9
$UCSORTHOREF
  2

  9
$UCSORTHOVIEW
 70
     0
  9
$UCSORGTOP
 10
0.0
 20
0.0
 30
0.0
  9
$UCSORGBOTTOM
 10
0.0
 20
0.0
 30
0.0
  9
$UCSORGLEFT
 10
0.0
 20
0.0
 30
0.0
  9
$UCSORGRIGHT
 10
0.0
 20
0.0
 30
0.0
  9
$UCSORGFRONT
 10
0.0
 20
0.0
 30
0.0
  9
$UCSORGBACK
 10
0.0
 20
0.0
 30
0.0
  9
$PUCSBASE
  2

  9
$PUCSNAME
  2

  9
$PUCSORG
 10
0.0
 20
0.0
 30
0.0
  9
$PUCSXDIR
 10
1.0
 20
0.0
 30
0.0
  9
$PUCSYDIR
 10
0.0
 20
1.0
 30
0.0
  9
$PUCSORTHOREF
  2

  9
$PUCSORTHOVIEW
 70
     0
  9
$PUCSORGTOP
 10
0.0
 20
0.0
 30
0.0
  9
$PUCSORGBOTTOM
 10
0.0
 20
0.0
 30
0.0
  9
$PUCSORGLEFT
 10
0.0
 20
0.0
 30
0.0
  9
$PUCSORGRIGHT
 10
0.0
 20
0.0
 30
0.0
  9
$PUCSORGFRONT
 10
0.0
 20
0.0
 30
0.0
  9
$PUCSORGBACK
 10
0.0
 20
0.0
 30
0.0
  9
$USERI1
 70
     0
  9
$USERI2
 70
     0
  9
$USERI3
 70
     0
  9
$USERI4
 70
     0
  9
$USERI5
 70
     0
  9
$USERR1
 40
0.0
  9
$USERR2
 40
0.0
  9
$USERR3
 40
0.0
  9
$USERR4
 40
0.0
  9
$USERR5
 40
0.0
  9
$WORLDVIEW
 70
     1
  9
$SHADEDGE
 70
     3
  9
$SHADEDIF
 70
    70
  9
$TILEMODE
 70
     1
  9
$MAXACTVP
 70
    16
  9
$PINSBASE
 10
0.0
 20
0.0
 30
0.0
  9
$PLIMCHECK
 70
     0
  9
$PEXTMIN
 10
1.000000000000000E+20
 20
1.000000000000000E+20
 30
1.000000000000000E+20
  9
$PEXTMAX
 10
-1.000000000000000E+20
 20
-1.000000000000000E+20
 30
-1.000000000000000E+20
  9
$PLIMMIN
 10
0.0
 20
0.0
  9
$PLIMMAX
 10
12.0
 20
9.0
  9
$UNITMODE
 70
     0
  9
$VISRETAIN
 70
     0
  9
$PLINEGEN
 70
     1
  9
$PSLTSCALE
 70
     0
  9
$TREEDEPTH
 70
  3020
  9
$CMLSTYLE
  2
STANDARD
  9
$CMLJUST
 70
     0
  9
$CMLSCALE
 40
1.0
  9
$PROXYGRAPHICS
 70
     0
  9
$MEASUREMENT
 70
     0
  9
$CELWEIGHT
370
    -1
  9
$ENDCAPS
280
     0
  9
$JOINSTYLE
280
     0
  9
$LWDISPLAY
290
     0
  9
$INSUNITS
 70
     0
  9
$HYPERLINKBASE
  1

  9
$STYLESHEET
  1

  9
$XEDIT
290
     1
  9
$CEPSNTYPE
380
     0
  9
$PSTYLEMODE
290
     1
  9
$FINGERPRINTGUID
  2
{0AE0D05F-D1C7-11D5-923F-00805F198AD5}
  9
$VERSIONGUID
  2
{0AE0D061-D1C7-11D5-923F-00805F198AD5}
  9
$EXTNAMES
290
     1
  9
$PSVPSCALE
 40
0.0
  9
$OLESTARTUP
290
     0
  0
ENDSEC
  0
SECTION
  2
CLASSES
  0
CLASS
  1
LWPOLYLINE
  2
AcDbPolyline
  3
AutoCAD 2000
 90
        0
280
     0
281
     1
  0
CLASS
  1
IMAGE
  2
AcDbRasterImage
  3
ISM
 90
      127
280
     0
281
     1
  0
CLASS
  1
OLE2FRAME
  2
AcDbOle2Frame
  3
AutoCAD 2000
 90
        0
280
     0
281
     1
  0
CLASS
  1
HATCH
  2
AcDbHatch
  3
AutoCAD 2000
 90
        0
280
     0
281
     1
  0
CLASS
  1
DICTIONARYVAR
  2
AcDbDictionaryVar
  3
AutoCAD 2000
 90
        0
280
     0
281
     0
  0
CLASS
  1
RASTERVARIABLES
  2
AcDbRasterVariables
  3
ISM
 90
        0
280
     0
281
     0
  0
CLASS
  1
IMAGEDEF
  2
AcDbRasterImageDef
  3
ISM
 90
        0
280
     0
281
     0
  0
CLASS
  1
IMAGEDEF_REACTOR
  2
AcDbRasterImageDefReactor
  3
ISM
 90
        1
280
     0
281
     0
  0
CLASS
  1
IDBUFFER
  2
AcDbIdBuffer
  3
AutoCAD 2000
 90
        0
280
     0
281
     0
  0
CLASS
  1
SPATIAL_FILTER
  2
AcDbSpatialFilter
  3
AutoCAD 2000
 90
        0
280
     0
281
     0
  0
CLASS
  1
XRECORD
  2
AcDbXrecord
  3
AutoCAD 2000
 90
        0
280
     0
281
     0
  0
CLASS
  1
SORTENTSTABLE
  2
AcDbSortentsTable
  3
AutoCAD 2000
 90
        0
280
     0
281
     0
  0
CLASS
  1
LAYER_INDEX
  2
AcDbLayerIndex
  3
AutoCAD 2000
 90
        0
280
     0
281
     0
  0
CLASS
  1
SPATIAL_INDEX
  2
AcDbSpatialIndex
  3
AutoCAD 2000
 90
        0
280
     0
281
     0
  0
CLASS
  1
OBJECT_PTR
  2
CAseDLPNTableRecord
  3
ASE-LPNTableRecord
 90
        1
280
     1
281
     0
  0
CLASS
  1
LAYOUT
  2
AcDbLayout
  3
ObjectDBX Classes
 90
        0
280
     0
281
     0
  0
CLASS
  1
PLOTSETTINGS
  2
AcDbPlotSettings
  3
AutoCAD 2000
 90
        0
280
     0
281
     0
  0
CLASS
  1
ACDBDICTIONARYWDFLT
  2
AcDbDictionaryWithDefault
  3
AutoCAD 2000
 90
        0
280
     0
281
     0
  0
CLASS
  1
ACDBPLACEHOLDER
  2
AcDbPlaceHolder
  3
ObjectDBX Classes
 90
        0
280
     0
281
     0
  0
CLASS
  1
VBAPROJECT
  2
AcDbVbaProject
  3
ObjectDBX Classes
 90
        0
280
     0
281
     0
  0
CLASS
  1
WIPEOUT
  2
AcDbWipeout
  3
WipeOut|AutoCAD Express Tool|expresstools@autodesk.com
 90
      127
280
     0
281
     1
  0
CLASS
  1
WIPEOUTVARIABLES
  2
AcDbWipeoutVariables
  3
WipeOut|AutoCAD Express Tool|expresstools@autodesk.com
 90
        0
280
     0
281
     0
  0
CLASS
  1
RTEXT
  2
RText
  3
RText|AutoCAD Express Tool|expresstools@autodesk.com
 90
        0
280
     0
281
     1
  0
CLASS
  1
ARCALIGNEDTEXT
  2
AcDbArcAlignedText
  3
ATEXT|AutoCAD Express Tool|expresstools@autodesk.com
 90
        0
280
     0
281
     1
  0
CLASS
  1
LONG_TRANSACTION
  2
AcDbLongTransaction
  3
AutoCAD 2000
 90
        0
280
     1
281
     0
  0
CLASS
  1
LWPOLYLINE
  2
AcDbPolyline
  3
AutoCAD 2000
 90
        0
280
     0
281
     1
  0
CLASS
  1
HATCH
  2
AcDbHatch
  3
AutoCAD 2000
 90
        0
280
     0
281
     1
  0
CLASS
  1
XRECORD
  2
AcDbXrecord
  3
AutoCAD 2000
 90
        0
280
     0
281
     0
  0
ENDSEC
  0
SECTION
  2
TABLES
  0
TABLE
  2
VPORT
  5
7
330
0
100
AcDbSymbolTable
 70
     2
  0
VPORT
  5
AC
330
7
100
AcDbSymbolTableRecord
100
AcDbViewportTableRecord
  2
*Active
 70
     0
 10
0.0
 20
0.0
 11
1.0
 21
1.0
 12
50.36273013147194
 22
41.9600429476565
 13
0.0
 23
0.0
 14
1.0
 24
1.0
 15
0.0
 25
0.0
 16
0.0
 26
0.0
 36
1.0
 17
0.0
 27
0.0
 37
0.0
 40
95.45159672682783
 41
1.836842105263158
 42
50.0
 43
0.0
 44
0.0
 50
0.0
 51
0.0
 71
     0
 72
   100
 73
     1
 74
     1
 75
     0
 76
     0
 77
     0
 78
     0
281
     0
 65
     1
110
0.0
120
0.0
130
0.0
111
1.0
121
0.0
131
0.0
112
0.0
122
1.0
132
0.0
 79
     0
146
0.0
  0
ENDTAB
  0
TABLE
  2
LTYPE
  5
4
330
0
100
AcDbSymbolTable
 70
     2
  0
LTYPE
  5
11
330
4
100
AcDbSymbolTableRecord
100
AcDbLinetypeTableRecord
  2
BYBLOCK
 70
     0
  3

 72
    65
 73
     0
 40
0.0
  0
LTYPE
  5
12
330
4
100
AcDbSymbolTableRecord
100
AcDbLinetypeTableRecord
  2
BYLAYER
 70
     0
  3

 72
    65
 73
     0
 40
0.0
  0
LTYPE
  5
13
330
4
100
AcDbSymbolTableRecord
100
AcDbLinetypeTableRecord
  2
CONTINUOUS
 70
     0
  3
Solid line
 72
    65
 73
     0
 40
0.0
  0
LTYPE
  5
7D
330
4
100
AcDbSymbolTableRecord
100
AcDbLinetypeTableRecord
  2
AI9-LTYPE1
 70
     0
  3
Illustrator Dash Style No.1
 72
    65
 73
     2
 40
2.469444444444444
 49
1.234722222222222
 74
     0
 49
-1.234722222222222
 74
     0
  0
ENDTAB
  0
TABLE
  2
LAYER
  5
2
330
0
100
AcDbSymbolTable
 70
     2
  0
LAYER
  5
14
330
2
100
AcDbSymbolTableRecord
100
AcDbLayerTableRecord
  2
0
 70
     0
 62
     7
  6
CONTINUOUS
370
    -3
390
0
  0
LAYER
  5
21
330
2
100
AcDbSymbolTableRecord
100
AcDbLayerTableRecord
  2
LAYER_1
 70
     0
 62
     5
  6
CONTINUOUS
370
    -3
390
0
  0
ENDTAB
  0
TABLE
  2
STYLE
  5
3
330
0
100
AcDbSymbolTable
 70
     5
  0
STYLE
  5
17
330
3
100
AcDbSymbolTableRecord
100
AcDbTextStyleTableRecord
  2
STANDARD
 70
     0
 40
0.0
 41
1.0
 50
0.0
 71
     0
 42
0.2
  3
txt
  4

  0
STYLE
  5
1D
330
3
100
AcDbSymbolTableRecord
100
AcDbTextStyleTableRecord
  2
STD
 70
     0
 40
0.0
 41
1.0
 50
0.0
 71
     0
 42
0.2
  3
txt
  4

  0
STYLE
  5
1E
330
3
100
AcDbSymbolTableRecord
100
AcDbTextStyleTableRecord
  2
TATESTD
 70
     4
 40
0.0
 41
1.0
 50
0.0
 71
     0
 42
0.2
  3
txt
  4

  0
STYLE
  5
1F
330
3
100
AcDbSymbolTableRecord
100
AcDbTextStyleTableRecord
  2
KANJISTD
 70
     0
 40
0.0
 41
1.0
 50
0.0
 71
     0
 42
0.2
  3
txt
  4
extfont
  0
STYLE
  5
20
330
3
100
AcDbSymbolTableRecord
100
AcDbTextStyleTableRecord
  2
KANJITATE
 70
     4
 40
0.0
 41
1.0
 50
0.0
 71
     0
 42
0.2
  3
txt
  4
extfont
  0
ENDTAB
  0
TABLE
  2
VIEW
  5
5
330
0
100
AcDbSymbolTable
 70
     0
  0
ENDTAB
  0
TABLE
  2
UCS
  5
6
330
0
100
AcDbSymbolTable
 70
     0
  0
ENDTAB
  0
TABLE
  2
APPID
  5
8
330
0
100
AcDbSymbolTable
 70
     1
  0
APPID
  5
16
330
8
100
AcDbSymbolTableRecord
100
AcDbRegAppTableRecord
  2
ACAD
 70
     0
  0
ENDTAB
  0
TABLE
  2
DIMSTYLE
  5
9
330
0
100
AcDbSymbolTable
 70
     1
100
AcDbDimStyleTable
  0
DIMSTYLE
105
18
330
9
100
AcDbSymbolTableRecord
100
AcDbDimStyleTableRecord
  2
STANDARD
 70
     0
  3

  4

289
     0
340
17
  0
ENDTAB
  0
TABLE
  2
BLOCK_RECORD
  5
1
330
0
100
AcDbSymbolTable
 70
     2
  0
BLOCK_RECORD
  5
A
330
1
100
AcDbSymbolTableRecord
100
AcDbBlockTableRecord
  2
*MODEL_SPACE
340
A7
  0
BLOCK_RECORD
  5
B
330
1
100
AcDbSymbolTableRecord
100
AcDbBlockTableRecord
  2
*PAPER_SPACE
340
A8
  0
BLOCK_RECORD
  5
31
330
1
100
AcDbSymbolTableRecord
100
AcDbBlockTableRecord
  2
AI9-BLK1
340
0
102
{BLKREFS
331
32
102
}
  0
BLOCK_RECORD
  5
37
330
1
100
AcDbSymbolTableRecord
100
AcDbBlockTableRecord
  2
AI9-BLK2
340
0
102
{BLKREFS
331
38
102
}
  0
ENDTAB
  0
ENDSEC
  0
SECTION
  2
BLOCKS
  0
BLOCK
  5
D
330
A
100
AcDbEntity
  8
0
100
AcDbBlockBegin
  2
*MODEL_SPACE
 70
     0
 10
0.0
 20
0.0
 30
0.0
  3
*MODEL_SPACE
  1

  4

  0
ENDBLK
  5
E
330
A
100
AcDbEntity
  8
0
100
AcDbBlockEnd
  0
BLOCK
  5
F
330
B
100
AcDbEntity
 67
     1
  8
0
100
AcDbBlockBegin
  2
*PAPER_SPACE
 70
     0
 10
0.0
 20
0.0
 30
0.0
  3
*PAPER_SPACE
  1

  4

  0
ENDBLK
  5
10
330
B
100
AcDbEntity
 67
     1
  8
0
100
AcDbBlockEnd
  0
BLOCK
  5
33
330
31
100
AcDbEntity
  8
LAYER_1
 62
     7
100
AcDbBlockBegin
  2
AI9-BLK1
 70
     0
 10
0.0
 20
0.0
 30
0.0
  3
AI9-BLK1
  1

  4

  0
ELLIPSE
  5
35
330
31
100
AcDbEntity
  8
LAYER_1
 62
     7
100
AcDbEllipse
 10
0.0
 20
0.0
 30
0.0
 11
0.0
 21
-0.952224392361111
 31
0.0
210
0.0
220
0.0
230
1.0
 40
0.9091896523029566
 41
0.0
 42
6.283185307179586
  0
HATCH
  5
34
330
31
100
AcDbEntity
  8
LAYER_1
 62
     7
100
AcDbHatch
 10
0.0
 20
0.0
 30
0.0
210
0.0
220
0.0
230
1.0
  2
SOLID
 70
     1
 71
     0
 91
        1
 92
        1
 93
        1
 72
     4
 94
        3
 73
     0
 74
     0
 95
       17
 96
       13
 40
0.0
 40
0.0
 40
0.0
 40
0.0
 40
1.0
 40
1.0
 40
1.0
 40
2.0
 40
2.0
 40
2.0
 40
3.0
 40
3.0
 40
3.0
 40
4.0
 40
4.0
 40
4.0
 40
4.0
 10
0.0
 20
-0.952224392361111
 10
0.4781792534722222
 20
-0.952224392361111
 10
0.8657524956597221
 20
-0.5253770616319444
 10
0.8657524956597221
 20
0.0003445095486111
 10
0.8657524956597221
 20
0.5260660807291666
 10
0.4781792534722222
 20
0.952224392361111
 10
0.0
 20
0.952224392361111
 10
-0.4781792534722222
 20
0.952224392361111
 10
-0.8657524956597221
 20
0.5260660807291666
 10
-0.8657524956597221
 20
0.0003445095486111
 10
-0.8657524956597221
 20
-0.5253770616319444
 10
-0.4781792534722222
 20
-0.952224392361111
 10
0.0
 20
-0.952224392361111
 97
        0
 75
     0
 76
     1
 98
        1
 10
0.0
 20
0.0
  0
ENDBLK
  5
36
330
31
100
AcDbEntity
  8
LAYER_1
100
AcDbBlockEnd
  0
BLOCK
  5
39
330
37
100
AcDbEntity
  8
LAYER_1
 62
     7
100
AcDbBlockBegin
  2
AI9-BLK2
 70
     0
 10
0.0
 20
0.0
 30
0.0
  3
AI9-BLK2
  1

  4

  0
HATCH
  5
45
330
37
100
AcDbEntity
  8
LAYER_1
 62
     7
100
AcDbHatch
 10
0.0
 20
0.0
 30
0.0
210
0.0
220
0.0
230
1.0
  2
SOLID
 70
     1
 71
     0
 91
        1
 92
        1
 93
        1
 72
     4
 94
        3
 73
     0
 74
     0
 95
       56
 96
       52
 40
0.0
 40
0.0
 40
0.0
 40
0.0
 40
1.0
 40
1.0
 40
1.0
 40
2.0
 40
2.0
 40
2.0
 40
3.0
 40
3.0
 40
3.0
 40
4.0
 40
4.0
 40
4.0
 40
5.0
 40
5.0
 40
5.0
 40
6.0
 40
6.0
 40
6.0
 40
7.0
 40
7.0
 40
7.0
 40
8.0
 40
8.0
 40
8.0
 40
9.0
 40
9.0
 40
9.0
 40
10.0
 40
10.0
 40
10.0
 40
11.0
 40
11.0
 40
11.0
 40
12.0
 40
12.0
 40
12.0
 40
13.0
 40
13.0
 40
13.0
 40
14.0
 40
14.0
 40
14.0
 40
15.0
 40
15.0
 40
15.0
 40
16.0
 40
16.0
 40
16.0
 40
17.0
 40
17.0
 40
17.0
 40
17.0
 10
-9.950986056857637
 20
5.342567952473958
 10
-9.906544325086804
 20
5.920654975043402
 10
-10.21763644748264
 20
6.357837592230903
 10
-10.83258599175347
 20
6.357837592230903
 10
-11.72899983723958
 20
6.357837592230903
 10
-11.82546251085069
 20
5.794564480251736
 10
-11.82546251085069
 20
5.364788818359375
 10
-11.82546251085069
 20
4.979454888237846
 10
-11.65493028428819
 20
4.742604573567708
 10
-11.29905192057292
 20
4.608762613932291
 10
-11.00311821831597
 20
4.497830539279513
 10
-10.71373019748264
 20
4.386898464626736
 10
-10.41779649522569
 20
4.275966389973958
 10
-9.365664333767361
 20
3.88288099500868
 10
-9.172738986545138
 20
3.512705485026042
 10
-9.172738986545138
 20
2.77907240125868
 10
-9.172738986545138
 20
1.726940239800347
 10
-9.832302517361111
 20
1.112679714626736
 10
-10.89942084418403
 20
1.112679714626736
 10
-11.4475355360243
 20
1.112679714626736
 10
-12.09917534722222
 20
1.268053521050347
 10
-12.4180189344618
 20
1.993935139973958
 10
-12.53618570963542
 20
2.267820231119791
 10
-12.52895100911458
 20
2.712582058376736
 10
-12.53618570963542
 20
3.008688015407986
 10
-12.53618570963542
 20
3.008688015407986
 10
-11.92123616536458
 20
3.008688015407986
 10
-11.92123616536458
 20
3.008688015407986
 10
-11.95086398654514
 20
2.186343722873264
 10
-11.79531792534722
 20
1.667856852213542
 10
-10.86927625868056
 20
1.667856852213542
 10
-10.24709201388889
 20
1.667856852213542
 10
-9.810081651475693
 20
1.986700439453125
 10
-9.810081651475693
 20
2.638512505425347
 10
-9.810081651475693
 20
3.483249918619791
 10
-10.15062934027778
 20
3.490484619140625
 10
-10.71373019748264
 20
3.705114067925347
 10
-11.01758761935764
 20
3.823797607421875
 10
-11.50644666883681
 20
3.979343668619791
 10
-11.80306939019097
 20
4.134889729817708
 10
-12.32879096137153
 20
4.401367865668402
 10
-12.46211615668403
 20
4.846301947699653
 10
-12.46211615668403
 20
5.394244384765624
 10
-12.46211615668403
 20
6.313051350911458
 10
-11.81753879123264
 20
6.913014729817708
 10
-10.91389024522569
 20
6.913014729817708
 10
-9.899309624565971
 20
6.913014729817708
 10
-9.276436360677083
 20
6.387293158637152
 10
-9.336036512586805
 20
5.342567952473958
 10
-9.336036512586805
 20
5.342567952473958
 10
-9.950986056857637
 20
5.342567952473958
 10
-9.950986056857637
 20
5.342567952473958
 97
        0
 75
     0
 76
     1
 98
        1
 10
0.0
 20
0.0
  0
HATCH
  5
44
330
37
100
AcDbEntity
  8
LAYER_1
 62
     7
100
AcDbHatch
 10
0.0
 20
0.0
 30
0.0
210
0.0
220
0.0
230
1.0
  2
SOLID
 70
     1
 71
     0
 91
        2
 92
       16
 93
        1
 72
     4
 94
        3
 73
     0
 74
     0
 95
       20
 96
       16
 40
0.0
 40
0.0
 40
0.0
 40
0.0
 40
1.0
 40
1.0
 40
1.0
 40
2.0
 40
2.0
 40
2.0
 40
3.0
 40
3.0
 40
3.0
 40
4.0
 40
4.0
 40
4.0
 40
5.0
 40
5.0
 40
5.0
 40
5.0
 10
-7.5437255859375
 20
4.157110595703125
 10
-7.5437255859375
 20
4.157110595703125
 10
-6.94376220703125
 20
4.157110595703125
 10
-6.94376220703125
 20
4.157110595703125
 10
-6.099197048611111
 20
4.164345296223958
 10
-5.580710177951389
 20
4.283201090494791
 10
-5.587944878472221
 20
5.238870578342014
 10
-5.587944878472221
 20
6.135284423828124
 10
-6.158280436197916
 20
6.261374918619791
 10
-6.906555175781249
 20
6.246216498480902
 10
-6.906555175781249
 20
6.246216498480902
 10
-7.5437255859375
 20
6.246216498480902
 10
-7.5437255859375
 20
6.246216498480902
 10
-7.5437255859375
 20
6.246216498480902
 10
-7.5437255859375
 20
4.157110595703125
 10
-7.5437255859375
 20
4.157110595703125
 97
        0
 92
        1
 93
        1
 72
     4
 94
        3
 73
     0
 74
     0
 95
       32
 96
       28
 40
0.0
 40
0.0
 40
0.0
 40
0.0
 40
1.0
 40
1.0
 40
1.0
 40
2.0
 40
2.0
 40
2.0
 40
3.0
 40
3.0
 40
3.0
 40
4.0
 40
4.0
 40
4.0
 40
5.0
 40
5.0
 40
5.0
 40
6.0
 40
6.0
 40
6.0
 40
7.0
 40
7.0
 40
7.0
 40
8.0
 40
8.0
 40
8.0
 40
9.0
 40
9.0
 40
9.0
 40
9.0
 10
-8.158675130208332
 20
1.24583265516493
 10
-8.158675130208332
 20
1.24583265516493
 10
-8.158675130208332
 20
6.80208265516493
 10
-8.158675130208332
 20
6.80208265516493
 10
-8.158675130208332
 20
6.80208265516493
 10
-6.69916042751736
 20
6.80208265516493
 10
-6.69916042751736
 20
6.80208265516493
 10
-6.269901529947916
 20
6.80208265516493
 10
-5.729021538628472
 20
6.750233968098958
 10
-5.402770996093749
 20
6.439141845703125
 10
-5.069458007812499
 20
6.128049723307291
 10
-4.950774468315972
 20
5.698101806640625
 10
-4.950774468315972
 20
5.253856743706597
 10
-4.950774468315972
 20
4.638907199435764
 10
-5.13646511501736
 20
4.038427056206597
 10
-5.736256239149305
 20
3.764714219835069
 10
-6.121417914496528
 20
3.601416693793402
 10
-6.750836859809027
 20
3.601416693793402
 10
-7.173550075954861
 20
3.601416693793402
 10
-7.173550075954861
 20
3.601416693793402
 10
-7.5437255859375
 20
3.601416693793402
 10
-7.5437255859375
 20
3.601416693793402
 10
-7.5437255859375
 20
3.601416693793402
 10
-7.5437255859375
 20
1.24583265516493
 10
-7.5437255859375
 20
1.24583265516493
 10
-7.5437255859375
 20
1.24583265516493
 10
-8.158675130208332
 20
1.24583265516493
 10
-8.158675130208332
 20
1.24583265516493
 97
        0
 75
     0
 76
     1
 98
        1
 10
0.0
 20
0.0
  0
HATCH
  5
43
330
37
100
AcDbEntity
  8
LAYER_1
 62
     7
100
AcDbHatch
 10
0.0
 20
0.0
 30
0.0
210
0.0
220
0.0
230
1.0
  2
SOLID
 70
     1
 71
     0
 91
        1
 92
        1
 93
        1
 72
     4
 94
        3
 73
     0
 74
     0
 95
       41
 96
       37
 40
0.0
 40
0.0
 40
0.0
 40
0.0
 40
1.0
 40
1.0
 40
1.0
 40
2.0
 40
2.0
 40
2.0
 40
3.0
 40
3.0
 40
3.0
 40
4.0
 40
4.0
 40
4.0
 40
5.0
 40
5.0
 40
5.0
 40
6.0
 40
6.0
 40
6.0
 40
7.0
 40
7.0
 40
7.0
 40
8.0
 40
8.0
 40
8.0
 40
9.0
 40
9.0
 40
9.0
 40
10.0
 40
10.0
 40
10.0
 40
11.0
 40
11.0
 40
11.0
 40
12.0
 40
12.0
 40
12.0
 40
12.0
 10
-4.129463704427083
 20
1.24583265516493
 10
-4.129463704427083
 20
1.24583265516493
 10
-4.129463704427083
 20
6.80208265516493
 10
-4.129463704427083
 20
6.80208265516493
 10
-4.129463704427083
 20
6.80208265516493
 10
-1.350821940104167
 20
6.80208265516493
 10
-1.350821940104167
 20
6.80208265516493
 10
-1.350821940104167
 20
6.80208265516493
 10
-1.350821940104167
 20
6.246216498480902
 10
-1.350821940104167
 20
6.246216498480902
 10
-1.350821940104167
 20
6.246216498480902
 10
-3.51451416015625
 20
6.246216498480902
 10
-3.51451416015625
 20
6.246216498480902
 10
-3.51451416015625
 20
6.246216498480902
 10
-3.51451416015625
 20
4.409291585286458
 10
-3.51451416015625
 20
4.409291585286458
 10
-3.51451416015625
 20
4.409291585286458
 10
-1.484663899739583
 20
4.409291585286458
 10
-1.484663899739583
 20
4.409291585286458
 10
-1.484663899739583
 20
4.409291585286458
 10
-1.484663899739583
 20
3.853253173828125
 10
-1.484663899739583
 20
3.853253173828125
 10
-1.484663899739583
 20
3.853253173828125
 10
-3.51451416015625
 20
3.853253173828125
 10
-3.51451416015625
 20
3.853253173828125
 10
-3.51451416015625
 20
3.853253173828125
 10
-3.51451416015625
 20
1.801009792751736
 10
-3.51451416015625
 20
1.801009792751736
 10
-3.51451416015625
 20
1.801009792751736
 10
-1.3363525390625
 20
1.801009792751736
 10
-1.3363525390625
 20
1.801009792751736
 10
-1.3363525390625
 20
1.801009792751736
 10
-1.3363525390625
 20
1.24583265516493
 10
-1.3363525390625
 20
1.24583265516493
 10
-1.3363525390625
 20
1.24583265516493
 10
-4.129463704427083
 20
1.24583265516493
 10
-4.129463704427083
 20
1.24583265516493
 97
        0
 75
     0
 76
     1
 98
        1
 10
0.0
 20
0.0
  0
HATCH
  5
42
330
37
100
AcDbEntity
  8
LAYER_1
 62
     7
100
AcDbHatch
 10
0.0
 20
0.0
 30
0.0
210
0.0
220
0.0
230
1.0
  2
SOLID
 70
     1
 71
     0
 91
        1
 92
        1
 93
        1
 72
     4
 94
        3
 73
     0
 74
     0
 95
       44
 96
       40
 40
0.0
 40
0.0
 40
0.0
 40
0.0
 40
1.0
 40
1.0
 40
1.0
 40
2.0
 40
2.0
 40
2.0
 40
3.0
 40
3.0
 40
3.0
 40
4.0
 40
4.0
 40
4.0
 40
5.0
 40
5.0
 40
5.0
 40
6.0
 40
6.0
 40
6.0
 40
7.0
 40
7.0
 40
7.0
 40
8.0
 40
8.0
 40
8.0
 40
9.0
 40
9.0
 40
9.0
 40
10.0
 40
10.0
 40
10.0
 40
11.0
 40
11.0
 40
11.0
 40
12.0
 40
12.0
 40
12.0
 40
13.0
 40
13.0
 40
13.0
 40
13.0
 10
2.138198513454861
 20
5.135173204210069
 10
2.123040093315972
 20
5.794564480251736
 10
1.90841064453125
 20
6.357837592230903
 10
1.1379150390625
 20
6.357837592230903
 10
0.0714857313368056
 20
6.357837592230903
 10
0.0563273111979167
 20
4.838550482855903
 10
0.0563273111979167
 20
4.105434163411458
 10
0.0266994900173611
 20
3.349924723307292
 10
0.0117133246527778
 20
1.667856852213542
 10
1.1379150390625
 20
1.667856852213542
 10
1.871548122829861
 20
1.667856852213542
 10
2.027266438802083
 20
2.267820231119791
 10
2.101335991753472
 20
2.875535074869791
 10
2.115805392795139
 20
3.001453314887153
 10
2.123040093315972
 20
3.127371554904514
 10
2.138198513454861
 20
3.25346204969618
 10
2.138198513454861
 20
3.25346204969618
 10
2.753148057725694
 20
3.25346204969618
 10
2.753148057725694
 20
3.25346204969618
 10
2.737989637586805
 20
3.14184095594618
 10
2.737989637586805
 20
3.023674180772569
 10
2.723520236545139
 20
2.912742106119791
 10
2.68665771484375
 20
2.460745578342014
 10
2.664436848958333
 20
2.120025634765625
 10
2.397269694010416
 20
1.734863959418403
 10
2.108570692274305
 20
1.334543863932292
 10
1.723409016927083
 20
1.112679714626736
 10
1.189763726128472
 20
1.112679714626736
 10
-0.5212429470486111
 20
1.112679714626736
 10
-0.5810153537326388
 20
2.764603000217014
 10
-0.5810153537326388
 20
4.090275743272569
 10
-0.5810153537326388
 20
5.342567952473958
 10
-0.3953247070312499
 20
6.913014729817708
 10
1.182529025607639
 20
6.913014729817708
 10
2.234661187065972
 20
6.913014729817708
 10
2.782603624131944
 20
6.128049723307291
 10
2.753148057725694
 20
5.135173204210069
 10
2.753148057725694
 20
5.135173204210069
 10
2.138198513454861
 20
5.135173204210069
 10
2.138198513454861
 20
5.135173204210069
 97
        0
 75
     0
 76
     1
 98
        1
 10
0.0
 20
0.0
  0
HATCH
  5
41
330
37
100
AcDbEntity
  8
LAYER_1
 62
     7
100
AcDbHatch
 10
0.0
 20
0.0
 30
0.0
210
0.0
220
0.0
230
1.0
  2
SOLID
 70
     1
 71
     0
 91
        1
 92
        1
 93
        1
 72
     4
 94
        3
 73
     0
 74
     0
 95
       17
 96
       13
 40
0.0
 40
0.0
 40
0.0
 40
0.0
 40
1.0
 40
1.0
 40
1.0
 40
2.0
 40
2.0
 40
2.0
 40
3.0
 40
3.0
 40
3.0
 40
4.0
 40
4.0
 40
4.0
 40
4.0
 10
3.870737033420139
 20
1.24583265516493
 10
3.870737033420139
 20
1.24583265516493
 10
3.870737033420139
 20
6.80208265516493
 10
3.870737033420139
 20
6.80208265516493
 10
3.870737033420139
 20
6.80208265516493
 10
4.485686577690972
 20
6.80208265516493
 10
4.485686577690972
 20
6.80208265516493
 10
4.485686577690972
 20
6.80208265516493
 10
4.485686577690972
 20
1.24583265516493
 10
4.485686577690972
 20
1.24583265516493
 10
4.485686577690972
 20
1.24583265516493
 10
3.870737033420139
 20
1.24583265516493
 10
3.870737033420139
 20
1.24583265516493
 97
        0
 75
     0
 76
     1
 98
        1
 10
0.0
 20
0.0
  0
HATCH
  5
40
330
37
100
AcDbEntity
  8
LAYER_1
 62
     7
100
AcDbHatch
 10
0.0
 20
0.0
 30
0.0
210
0.0
220
0.0
230
1.0
  2
SOLID
 70
     1
 71
     0
 91
        1
 92
        1
 93
        1
 72
     4
 94
        3
 73
     0
 74
     0
 95
       35
 96
       31
 40
0.0
 40
0.0
 40
0.0
 40
0.0
 40
1.0
 40
1.0
 40
1.0
 40
2.0
 40
2.0
 40
2.0
 40
3.0
 40
3.0
 40
3.0
 40
4.0
 40
4.0
 40
4.0
 40
5.0
 40
5.0
 40
5.0
 40
6.0
 40
6.0
 40
6.0
 40
7.0
 40
7.0
 40
7.0
 40
8.0
 40
8.0
 40
8.0
 40
9.0
 40
9.0
 40
9.0
 40
10.0
 40
10.0
 40
10.0
 40
10.0
 10
5.751759168836805
 20
1.24583265516493
 10
5.751759168836805
 20
1.24583265516493
 10
5.751759168836805
 20
6.80208265516493
 10
5.751759168836805
 20
6.80208265516493
 10
5.751759168836805
 20
6.80208265516493
 10
8.359351942274305
 20
6.80208265516493
 10
8.359351942274305
 20
6.80208265516493
 10
8.359351942274305
 20
6.80208265516493
 10
8.359351942274305
 20
6.246216498480902
 10
8.359351942274305
 20
6.246216498480902
 10
8.359351942274305
 20
6.246216498480902
 10
6.366191948784722
 20
6.246216498480902
 10
6.366191948784722
 20
6.246216498480902
 10
6.366191948784722
 20
6.246216498480902
 10
6.366191948784722
 20
4.423760986328125
 10
6.366191948784722
 20
4.423760986328125
 10
6.366191948784722
 20
4.423760986328125
 10
8.218275282118055
 20
4.423760986328125
 10
8.218275282118055
 20
4.423760986328125
 10
8.218275282118055
 20
4.423760986328125
 10
8.218275282118055
 20
3.868411593967013
 10
8.218275282118055
 20
3.868411593967013
 10
8.218275282118055
 20
3.868411593967013
 10
6.366191948784722
 20
3.868411593967013
 10
6.366191948784722
 20
3.868411593967013
 10
6.366191948784722
 20
3.868411593967013
 10
6.366191948784722
 20
1.24583265516493
 10
6.366191948784722
 20
1.24583265516493
 10
6.366191948784722
 20
1.24583265516493
 10
5.751759168836805
 20
1.24583265516493
 10
5.751759168836805
 20
1.24583265516493
 97
        0
 75
     0
 76
     1
 98
        1
 10
0.0
 20
0.0
  0
HATCH
  5
3F
330
37
100
AcDbEntity
  8
LAYER_1
 62
     7
100
AcDbHatch
 10
0.0
 20
0.0
 30
0.0
210
0.0
220
0.0
230
1.0
  2
SOLID
 70
     1
 71
     0
 91
        1
 92
        1
 93
        1
 72
     4
 94
        3
 73
     0
 74
     0
 95
       32
 96
       28
 40
0.0
 40
0.0
 40
0.0
 40
0.0
 40
1.0
 40
1.0
 40
1.0
 40
2.0
 40
2.0
 40
2.0
 40
3.0
 40
3.0
 40
3.0
 40
4.0
 40
4.0
 40
4.0
 40
5.0
 40
5.0
 40
5.0
 40
6.0
 40
6.0
 40
6.0
 40
7.0
 40
7.0
 40
7.0
 40
8.0
 40
8.0
 40
8.0
 40
9.0
 40
9.0
 40
9.0
 40
9.0
 10
10.55077718098958
 20
4.016206190321181
 10
10.55077718098958
 20
4.016206190321181
 10
11.85491807725694
 20
6.80208265516493
 10
11.85491807725694
 20
6.80208265516493
 10
11.85491807725694
 20
6.80208265516493
 10
12.53618570963542
 20
6.80208265516493
 10
12.53618570963542
 20
6.80208265516493
 10
12.53618570963542
 20
6.80208265516493
 10
10.85463460286458
 20
3.401773410373264
 10
10.85463460286458
 20
3.401773410373264
 10
10.85463460286458
 20
3.401773410373264
 10
10.85463460286458
 20
1.24583265516493
 10
10.85463460286458
 20
1.24583265516493
 10
10.85463460286458
 20
1.24583265516493
 10
10.23968505859375
 20
1.24583265516493
 10
10.23968505859375
 20
1.24583265516493
 10
10.23968505859375
 20
1.24583265516493
 10
10.23968505859375
 20
3.401773410373264
 10
10.23968505859375
 20
3.401773410373264
 10
10.23968505859375
 20
3.401773410373264
 10
8.572775607638889
 20
6.80208265516493
 10
8.572775607638889
 20
6.80208265516493
 10
8.572775607638889
 20
6.80208265516493
 10
9.254732259114583
 20
6.80208265516493
 10
9.254732259114583
 20
6.80208265516493
 10
9.254732259114583
 20
6.80208265516493
 10
10.55077718098958
 20
4.016206190321181
 10
10.55077718098958
 20
4.016206190321181
 97
        0
 75
     0
 76
     1
 98
        1
 10
0.0
 20
0.0
  0
HATCH
  5
3E
330
37
100
AcDbEntity
  8
LAYER_1
 62
     7
100
AcDbHatch
 10
0.0
 20
0.0
 30
0.0
210
0.0
220
0.0
230
1.0
  2
SOLID
 70
     1
 71
     0
 91
        2
 92
       16
 93
        1
 72
     4
 94
        3
 73
     0
 74
     0
 95
       17
 96
       13
 40
0.0
 40
0.0
 40
0.0
 40
0.0
 40
1.0
 40
1.0
 40
1.0
 40
2.0
 40
2.0
 40
2.0
 40
3.0
 40
3.0
 40
3.0
 40
4.0
 40
4.0
 40
4.0
 40
4.0
 10
-10.47619086371528
 20
-1.667856852213542
 10
-10.47619086371528
 20
-1.667856852213542
 10
-10.49117702907986
 20
-1.667856852213542
 10
-10.49117702907986
 20
-1.667856852213542
 10
-10.49117702907986
 20
-1.667856852213542
 10
-11.22498236762153
 20
-4.62392103407118
 10
-11.22498236762153
 20
-4.62392103407118
 10
-11.22498236762153
 20
-4.62392103407118
 10
-9.757543945312499
 20
-4.62392103407118
 10
-9.757543945312499
 20
-4.62392103407118
 10
-9.757543945312499
 20
-4.62392103407118
 10
-10.47619086371528
 20
-1.667856852213542
 10
-10.47619086371528
 20
-1.667856852213542
 97
        0
 92
        1
 93
        1
 72
     4
 94
        3
 73
     0
 74
     0
 95
       29
 96
       25
 40
0.0
 40
0.0
 40
0.0
 40
0.0
 40
1.0
 40
1.0
 40
1.0
 40
2.0
 40
2.0
 40
2.0
 40
3.0
 40
3.0
 40
3.0
 40
4.0
 40
4.0
 40
4.0
 40
5.0
 40
5.0
 40
5.0
 40
6.0
 40
6.0
 40
6.0
 40
7.0
 40
7.0
 40
7.0
 40
8.0
 40
8.0
 40
8.0
 40
8.0
 10
-10.87651095920139
 20
-1.223611789279514
 10
-10.87651095920139
 20
-1.223611789279514
 10
-10.0614013671875
 20
-1.223611789279514
 10
-10.0614013671875
 20
-1.223611789279514
 10
-10.0614013671875
 20
-1.223611789279514
 10
-8.498706054687499
 20
-6.779861789279513
 10
-8.498706054687499
 20
-6.779861789279513
 10
-8.498706054687499
 20
-6.779861789279513
 10
-9.179973687065971
 20
-6.779861789279513
 10
-9.179973687065971
 20
-6.779861789279513
 10
-9.179973687065971
 20
-6.779861789279513
 10
-9.617156304253472
 20
-5.179787190755208
 10
-9.617156304253472
 20
-5.179787190755208
 10
-9.617156304253472
 20
-5.179787190755208
 10
-11.37277696397569
 20
-5.179787190755208
 10
-11.37277696397569
 20
-5.179787190755208
 10
-11.37277696397569
 20
-5.179787190755208
 10
-11.78033175998264
 20
-6.779861789279513
 10
-11.78033175998264
 20
-6.779861789279513
 10
-11.78033175998264
 20
-6.779861789279513
 10
-12.46211615668403
 20
-6.779861789279513
 10
-12.46211615668403
 20
-6.779861789279513
 10
-12.46211615668403
 20
-6.779861789279513
 10
-10.87651095920139
 20
-1.223611789279514
 10
-10.87651095920139
 20
-1.223611789279514
 97
        0
 75
     0
 76
     1
 98
        1
 10
0.0
 20
0.0
  0
HATCH
  5
3D
330
37
100
AcDbEntity
  8
LAYER_1
 62
     7
100
AcDbHatch
 10
0.0
 20
0.0
 30
0.0
210
0.0
220
0.0
230
1.0
  2
SOLID
 70
     1
 71
     0
 91
        1
 92
        1
 93
        1
 72
     4
 94
        3
 73
     0
 74
     0
 95
       53
 96
       49
 40
0.0
 40
0.0
 40
0.0
 40
0.0
 40
1.0
 40
1.0
 40
1.0
 40
2.0
 40
2.0
 40
2.0
 40
3.0
 40
3.0
 40
3.0
 40
4.0
 40
4.0
 40
4.0
 40
5.0
 40
5.0
 40
5.0
 40
6.0
 40
6.0
 40
6.0
 40
7.0
 40
7.0
 40
7.0
 40
8.0
 40
8.0
 40
8.0
 40
9.0
 40
9.0
 40
9.0
 40
10.0
 40
10.0
 40
10.0
 40
11.0
 40
11.0
 40
11.0
 40
12.0
 40
12.0
 40
12.0
 40
13.0
 40
13.0
 40
13.0
 40
14.0
 40
14.0
 40
14.0
 40
15.0
 40
15.0
 40
15.0
 40
16.0
 40
16.0
 40
16.0
 40
16.0
 10
-5.083927408854167
 20
-1.223611789279514
 10
-5.083927408854167
 20
-1.223611789279514
 10
-4.468977864583333
 20
-1.223611789279514
 10
-4.468977864583333
 20
-1.223611789279514
 10
-4.468977864583333
 20
-1.223611789279514
 10
-4.468977864583333
 20
-6.779861789279513
 10
-4.468977864583333
 20
-6.779861789279513
 10
-4.468977864583333
 20
-6.779861789279513
 10
-5.476496039496527
 20
-6.779861789279513
 10
-5.476496039496527
 20
-6.779861789279513
 10
-5.476496039496527
 20
-6.779861789279513
 10
-7.03247341579861
 20
-2.334827338324653
 10
-7.03247341579861
 20
-2.334827338324653
 10
-7.121184624565972
 20
-2.082646348741319
 10
-7.188019476996527
 20
-1.831326633029514
 10
-7.239868164062499
 20
-1.498013644748264
 10
-7.239868164062499
 20
-1.498013644748264
 10
-7.254337565104166
 20
-1.498013644748264
 10
-7.254337565104166
 20
-1.498013644748264
 10
-7.247102864583333
 20
-1.779477945963542
 10
-7.239868164062499
 20
-2.068176947699653
 10
-7.239868164062499
 20
-2.349813503689236
 10
-7.239868164062499
 20
-2.349813503689236
 10
-7.239868164062499
 20
-6.779861789279513
 10
-7.239868164062499
 20
-6.779861789279513
 10
-7.239868164062499
 20
-6.779861789279513
 10
-7.854817708333333
 20
-6.779861789279513
 10
-7.854817708333333
 20
-6.779861789279513
 10
-7.854817708333333
 20
-6.779861789279513
 10
-7.854817708333333
 20
-1.223611789279514
 10
-7.854817708333333
 20
-1.223611789279514
 10
-7.854817708333333
 20
-1.223611789279514
 10
-6.854534233940972
 20
-1.223611789279514
 10
-6.854534233940972
 20
-1.223611789279514
 10
-6.854534233940972
 20
-1.223611789279514
 10
-5.276852756076388
 20
-5.772343614366319
 10
-5.276852756076388
 20
-5.772343614366319
 10
-5.209845648871528
 20
-5.943048095703125
 10
-5.158169216579861
 20
-6.120987277560763
 10
-5.083927408854167
 20
-6.380058458116319
 10
-5.083927408854167
 20
-6.380058458116319
 10
-5.068941243489583
 20
-6.380058458116319
 10
-5.068941243489583
 20
-6.380058458116319
 10
-5.076692708333333
 20
-6.179898410373263
 10
-5.083927408854167
 20
-5.965268961588541
 10
-5.083927408854167
 20
-5.757874213324652
 10
-5.083927408854167
 20
-5.757874213324652
 10
-5.083927408854167
 20
-1.223611789279514
 10
-5.083927408854167
 20
-1.223611789279514
 97
        0
 75
     0
 76
     1
 98
        1
 10
0.0
 20
0.0
  0
HATCH
  5
3C
330
37
100
AcDbEntity
  8
LAYER_1
 62
     7
100
AcDbHatch
 10
0.0
 20
0.0
 30
0.0
210
0.0
220
0.0
230
1.0
  2
SOLID
 70
     1
 71
     0
 91
        1
 92
        1
 93
        1
 72
     4
 94
        3
 73
     0
 74
     0
 95
       53
 96
       49
 40
0.0
 40
0.0
 40
0.0
 40
0.0
 40
1.0
 40
1.0
 40
1.0
 40
2.0
 40
2.0
 40
2.0
 40
3.0
 40
3.0
 40
3.0
 40
4.0
 40
4.0
 40
4.0
 40
5.0
 40
5.0
 40
5.0
 40
6.0
 40
6.0
 40
6.0
 40
7.0
 40
7.0
 40
7.0
 40
8.0
 40
8.0
 40
8.0
 40
9.0
 40
9.0
 40
9.0
 40
10.0
 40
10.0
 40
10.0
 40
11.0
 40
11.0
 40
11.0
 40
12.0
 40
12.0
 40
12.0
 40
13.0
 40
13.0
 40
13.0
 40
14.0
 40
14.0
 40
14.0
 40
15.0
 40
15.0
 40
15.0
 40
16.0
 40
16.0
 40
16.0
 40
16.0
 10
0.0411688910590278
 20
-6.824475775824652
 10
0.0411688910590278
 20
-6.824475775824652
 10
-0.43253173828125
 20
-6.824475775824652
 10
-0.43253173828125
 20
-6.824475775824652
 10
-0.43253173828125
 20
-6.824475775824652
 10
-0.43253173828125
 20
-5.957517496744791
 10
-0.43253173828125
 20
-5.957517496744791
 10
-0.43253173828125
 20
-5.957517496744791
 10
-0.4476901584201389
 20
-5.957517496744791
 10
-0.4476901584201389
 20
-5.957517496744791
 10
-0.6104709201388888
 20
-6.587453206380208
 10
-1.106736924913194
 20
-6.913014729817708
 10
-1.721686469184028
 20
-6.913014729817708
 10
-3.374126519097222
 20
-6.913014729817708
 10
-3.499527994791666
 20
-5.269015163845486
 10
-3.499527994791666
 20
-3.96504652235243
 10
-3.499527994791666
 20
-2.668140326605903
 10
-3.270429144965278
 20
-1.112679714626736
 10
-1.662430826822916
 20
-1.112679714626736
 10
-0.6032362196180555
 20
-1.112679714626736
 10
0.0044786241319444
 20
-1.801871066623264
 10
-0.0105075412326389
 20
-2.838844807942708
 10
-0.0105075412326389
 20
-2.838844807942708
 10
-0.6326917860243055
 20
-2.838844807942708
 10
-0.6326917860243055
 20
-2.838844807942708
 10
-0.6399264865451388
 20
-2.156888156467014
 10
-0.9287977430555555
 20
-1.68301527235243
 10
-1.632975260416667
 20
-1.667856852213542
 10
-2.84788818359375
 20
-1.645635986328125
 10
-2.862357584635416
 20
-3.039004855685763
 10
-2.862357584635416
 20
-3.987267388237847
 10
-2.862357584635416
 20
-4.831832546657986
 10
-2.90679931640625
 20
-6.30598890516493
 10
-1.810914442274305
 20
-6.357837592230903
 10
-0.6695543077256944
 20
-6.409686279296874
 10
-0.56585693359375
 20
-5.364788818359375
 10
-0.5730916341145833
 20
-4.483533393012152
 10
-0.5730916341145833
 20
-4.483533393012152
 10
-1.810914442274305
 20
-4.483533393012152
 10
-1.810914442274305
 20
-4.483533393012152
 10
-1.810914442274305
 20
-4.483533393012152
 10
-1.810914442274305
 20
-3.927494981553819
 10
-1.810914442274305
 20
-3.927494981553819
 10
-1.810914442274305
 20
-3.927494981553819
 10
0.0411688910590278
 20
-3.927494981553819
 10
0.0411688910590278
 20
-3.927494981553819
 10
0.0411688910590278
 20
-3.927494981553819
 10
0.0411688910590278
 20
-6.824475775824652
 10
0.0411688910590278
 20
-6.824475775824652
 97
        0
 75
     0
 76
     1
 98
        1
 10
0.0
 20
0.0
  0
HATCH
  5
3B
330
37
100
AcDbEntity
  8
LAYER_1
 62
     7
100
AcDbHatch
 10
0.0
 20
0.0
 30
0.0
210
0.0
220
0.0
230
1.0
  2
SOLID
 70
     1
 71
     0
 91
        1
 92
        1
 93
        1
 72
     4
 94
        3
 73
     0
 74
     0
 95
       23
 96
       19
 40
0.0
 40
0.0
 40
0.0
 40
0.0
 40
1.0
 40
1.0
 40
1.0
 40
2.0
 40
2.0
 40
2.0
 40
3.0
 40
3.0
 40
3.0
 40
4.0
 40
4.0
 40
4.0
 40
5.0
 40
5.0
 40
5.0
 40
6.0
 40
6.0
 40
6.0
 40
6.0
 10
1.240406629774306
 20
-6.779861789279513
 10
1.240406629774306
 20
-6.779861789279513
 10
1.240406629774306
 20
-1.223611789279514
 10
1.240406629774306
 20
-1.223611789279514
 10
1.240406629774306
 20
-1.223611789279514
 10
1.855356174045139
 20
-1.223611789279514
 10
1.855356174045139
 20
-1.223611789279514
 10
1.855356174045139
 20
-1.223611789279514
 10
1.855356174045139
 20
-6.224684651692708
 10
1.855356174045139
 20
-6.224684651692708
 10
1.855356174045139
 20
-6.224684651692708
 10
4.12222900390625
 20
-6.224684651692708
 10
4.12222900390625
 20
-6.224684651692708
 10
4.12222900390625
 20
-6.224684651692708
 10
4.12222900390625
 20
-6.779861789279513
 10
4.12222900390625
 20
-6.779861789279513
 10
4.12222900390625
 20
-6.779861789279513
 10
1.240406629774306
 20
-6.779861789279513
 10
1.240406629774306
 20
-6.779861789279513
 97
        0
 75
     0
 76
     1
 98
        1
 10
0.0
 20
0.0
  0
HATCH
  5
3A
330
37
100
AcDbEntity
  8
LAYER_1
 62
     7
100
AcDbHatch
 10
0.0
 20
0.0
 30
0.0
210
0.0
220
0.0
230
1.0
  2
SOLID
 70
     1
 71
     0
 91
        1
 92
        1
 93
        1
 72
     4
 94
        3
 73
     0
 74
     0
 95
       41
 96
       37
 40
0.0
 40
0.0
 40
0.0
 40
0.0
 40
1.0
 40
1.0
 40
1.0
 40
2.0
 40
2.0
 40
2.0
 40
3.0
 40
3.0
 40
3.0
 40
4.0
 40
4.0
 40
4.0
 40
5.0
 40
5.0
 40
5.0
 40
6.0
 40
6.0
 40
6.0
 40
7.0
 40
7.0
 40
7.0
 40
8.0
 40
8.0
 40
8.0
 40
9.0
 40
9.0
 40
9.0
 40
10.0
 40
10.0
 40
10.0
 40
11.0
 40
11.0
 40
11.0
 40
12.0
 40
12.0
 40
12.0
 40
12.0
 10
4.877738444010416
 20
-6.779861789279513
 10
4.877738444010416
 20
-6.779861789279513
 10
4.877738444010416
 20
-1.223611789279514
 10
4.877738444010416
 20
-1.223611789279514
 10
4.877738444010416
 20
-1.223611789279514
 10
7.655863444010416
 20
-1.223611789279514
 10
7.655863444010416
 20
-1.223611789279514
 10
7.655863444010416
 20
-1.223611789279514
 10
7.655863444010416
 20
-1.779477945963542
 10
7.655863444010416
 20
-1.779477945963542
 10
7.655863444010416
 20
-1.779477945963542
 10
5.49268798828125
 20
-1.779477945963542
 10
5.49268798828125
 20
-1.779477945963542
 10
5.49268798828125
 20
-1.779477945963542
 10
5.49268798828125
 20
-3.616402859157986
 10
5.49268798828125
 20
-3.616402859157986
 10
5.49268798828125
 20
-3.616402859157986
 10
7.522538248697916
 20
-3.616402859157986
 10
7.522538248697916
 20
-3.616402859157986
 10
7.522538248697916
 20
-3.616402859157986
 10
7.522538248697916
 20
-4.172441270616319
 10
7.522538248697916
 20
-4.172441270616319
 10
7.522538248697916
 20
-4.172441270616319
 10
5.49268798828125
 20
-4.172441270616319
 10
5.49268798828125
 20
-4.172441270616319
 10
5.49268798828125
 20
-4.172441270616319
 10
5.49268798828125
 20
-6.224684651692708
 10
5.49268798828125
 20
-6.224684651692708
 10
5.49268798828125
 20
-6.224684651692708
 10
7.670849609374999
 20
-6.224684651692708
 10
7.670849609374999
 20
-6.224684651692708
 10
7.670849609374999
 20
-6.224684651692708
 10
7.670849609374999
 20
-6.779861789279513
 10
7.670849609374999
 20
-6.779861789279513
 10
7.670849609374999
 20
-6.779861789279513
 10
4.877738444010416
 20
-6.779861789279513
 10
4.877738444010416
 20
-6.779861789279513
 97
        0
 75
     0
 76
     1
 98
        1
 10
0.0
 20
0.0
  0
ENDBLK
  5
46
330
37
100
AcDbEntity
  8
LAYER_1
100
AcDbBlockEnd
  0
ENDSEC
  0
SECTION
  2
ENTITIES
  0
LWPOLYLINE
  5
94
330
A
100
AcDbEntity
  8
LAYER_1
 62
     7
100
AcDbPolyline
 90
       12
 70
     1
 43
0.0
 10
0.4220241970486111
 20
54.638525390625
 10
0.4116889105902777
 20
64.77554660373264
 10
2.190219455295139
 20
67.54592013888889
 10
-1.699637858072917
 20
70.55176595052083
 10
0.4394219292534722
 20
73.02672254774305
 10
0.4394219292534722
 20
84.99119466145832
 10
93.54519449869791
 20
84.99222819010416
 10
93.54519449869791
 20
73.61635064019096
 10
95.78502332899305
 20
71.73050537109374
 10
92.30754394531249
 20
68.54775390624999
 10
93.66336127387152
 20
67.01537543402777
 10
93.51918402777777
 20
54.64576009114583
  0
LINE
  5
93
330
A
100
AcDbEntity
  8
LAYER_1
 62
     7
100
AcDbLine
 10
93.54519449869791
 20
88.70552435980902
 30
0.0
 11
93.54519449869791
 21
84.81566704644096
 31
0.0
  0
LINE
  5
92
330
A
100
AcDbEntity
  8
LAYER_1
 62
     7
100
AcDbLine
 10
93.54329969618054
 20
54.64576009114583
 30
0.0
 11
93.52538519965277
 21
51.51485731336805
 31
0.0
  0
LINE
  5
91
330
A
100
AcDbEntity
  8
LAYER_1
 62
     7
100
AcDbLine
 10
26.11830240885416
 20
47.5660888671875
 30
0.0
 11
50.81343587239583
 21
23.69640028211805
 31
0.0
  0
HATCH
  5
90
330
A
100
AcDbEntity
  8
LAYER_1
 62
     7
100
AcDbHatch
 10
0.0
 20
0.0
 30
0.0
210
0.0
220
0.0
230
1.0
  2
SOLID
 70
     1
 71
     0
 91
        1
 92
        3
 72
     0
 73
     1
 93
        3
 10
77.33464219835069
 20
29.59026963975694
 10
80.04576009114582
 20
34.48196072048611
 10
82.16742214626736
 20
32.30138753255208
 97
        0
 75
     0
 76
     1
 98
        1
 10
0.0
 20
0.0
  0
HATCH
  5
8F
330
A
100
AcDbEntity
  8
LAYER_1
 62
     7
100
AcDbHatch
 10
0.0
 20
0.0
 30
0.0
210
0.0
220
0.0
230
1.0
  2
SOLID
 70
     1
 71
     0
 91
        1
 92
        3
 72
     0
 73
     1
 93
        3
 10
60.83229031032985
 20
14.85559624565972
 10
65.31177571614583
 20
17.15433620876736
 10
62.95395236545139
 20
12.73393419053819
 97
        0
 75
     0
 76
     1
 98
        1
 10
0.0
 20
0.0
  0
LINE
  5
8E
330
A
100
AcDbEntity
  8
LAYER_1
 62
     7
100
AcDbLine
 10
79.39773763020833
 20
31.41685926649305
 30
0.0
 11
82.47851426866319
 21
34.80166558159722
 31
0.0
  0
LINE
  5
8D
330
A
100
AcDbEntity
  8
LAYER_1
 62
     7
100
AcDbLine
 10
59.94845106336805
 20
11.67284478081597
 30
0.0
 11
63.8660413953993
 21
15.65313585069444
 31
0.0
  0
LINE
  5
8C
330
A
100
AcDbEntity
  8
LAYER_1
 62
     7
100
AcDbLine
 10
85.46834038628471
 20
21.57473822699653
 30
0.0
 11
88.06129150390625
 21
24.10877821180555
 31
0.0
  0
LINE
  5
8B
330
A
100
AcDbEntity
  8
LAYER_1
 62
     7
100
AcDbLine
 10
70.93968370225694
 20
6.688136121961805
 30
0.0
 11
73.53349609374999
 21
9.222692871093749
 31
0.0
  0
LWPOLYLINE
  5
85
330
A
100
AcDbEntity
  8
LAYER_1
 62
     7
100
AcDbPolyline
 90
        4
 70
     1
 43
0.0
 10
65.65060085720485
 20
45.04600151909722
 10
64.76676161024305
 20
44.04451226128472
 10
66.53444010416666
 20
42.21723361545138
 10
67.47805175781249
 20
43.2190673828125
  0
LWPOLYLINE
  5
7F
330
A
100
AcDbEntity
  8
LAYER_1
 62
     7
100
AcDbPolyline
 90
        4
 70
     1
 43
0.0
 10
50.00383843315971
 20
29.94046359592014
 10
49.11931016710069
 20
28.93845757378472
 10
50.92919108072916
 20
27.1116956922743
 10
51.83042805989583
 20
28.11370171440972
  0
LINE
  5
7E
330
A
100
AcDbEntity
  8
LAYER_1
  6
AI9-LTYPE1
 62
     7
100
AcDbLine
 10
52.21386718749999
 20
30.10083279079861
 30
0.0
 11
64.29581705729166
 21
42.18347167968749
 31
0.0
  0
SPLINE
  5
7C
330
A
100
AcDbEntity
  8
LAYER_1
 62
     7
100
AcDbSpline
210
0.0
220
0.0
230
1.0
 70
    11
 71
     3
 72
    29
 73
    25
 74
     0
 42
0.0000000001
 43
0.0000000001
 40
0.0
 40
0.0
 40
0.0
 40
0.0
 40
1.0
 40
1.0
 40
1.0
 40
2.0
 40
2.0
 40
2.0
 40
3.0
 40
3.0
 40
3.0
 40
4.0
 40
4.0
 40
4.0
 40
5.0
 40
5.0
 40
5.0
 40
6.0
 40
6.0
 40
6.0
 40
7.0
 40
7.0
 40
7.0
 40
8.0
 40
8.0
 40
8.0
 40
8.0
 10
79.97237955729166
 20
54.62233344184028
 30
0.0
 10
79.97237955729166
 20
54.62233344184028
 30
0.0
 10
80.09054633246527
 20
52.85034857855902
 30
0.0
 10
80.09054633246527
 20
52.85034857855902
 30
0.0
 10
80.09054633246527
 20
52.85034857855902
 30
0.0
 10
57.39942491319444
 20
52.76714952256944
 30
0.0
 10
56.98704698350694
 20
52.82623291015624
 30
0.0
 10
56.57398003472222
 20
52.88462727864583
 30
0.0
 10
56.04412434895833
 20
52.59041612413194
 30
0.0
 10
56.63323567708333
 20
52.05987141927083
 30
0.0
 10
57.22269151475694
 20
51.52932671440972
 30
0.0
 10
67.35988498263889
 20
41.45087212456597
 30
0.0
 10
67.35988498263889
 20
41.45087212456597
 30
0.0
 10
67.35988498263889
 20
41.45087212456597
 30
0.0
 10
66.29931233723958
 20
40.27213270399305
 30
0.0
 10
66.29931233723958
 20
40.27213270399305
 30
0.0
 10
66.29931233723958
 20
40.27213270399305
 30
0.0
 10
53.80446777343749
 20
52.53150499131944
 30
0.0
 10
53.27392306857639
 20
53.06204969618055
 30
0.0
 10
52.74337836371527
 20
53.59190538194444
 30
0.0
 10
52.38991156684028
 20
54.65299479166666
 30
0.0
 10
54.5115736219618
 20
54.65299479166666
 30
0.0
 10
56.63323567708333
 20
54.65299479166666
 30
0.0
 10
79.97237955729166
 20
54.62233344184028
 30
0.0
 10
79.97237955729166
 20
54.62233344184028
 30
0.0
  0
LWPOLYLINE
  5
76
330
A
100
AcDbEntity
  8
LAYER_1
 62
     7
100
AcDbPolyline
 90
        4
 70
     1
 43
0.0
 10
21.1089613172743
 20
52.89737413194444
 10
24.23245713975694
 20
52.89737413194444
 10
24.23245713975694
 20
51.42390679253472
 10
21.1089613172743
 20
51.42390679253472
  0
LWPOLYLINE
  5
70
330
A
100
AcDbEntity
  8
LAYER_1
 62
     7
100
AcDbPolyline
 90
        4
 70
     1
 43
0.0
 10
16.86512044270833
 20
52.89737413194444
 10
19.9894775390625
 20
52.89737413194444
 10
19.9894775390625
 20
51.42390679253472
 10
16.86512044270833
 20
51.42390679253472
  0
LWPOLYLINE
  5
6A
330
A
100
AcDbEntity
  8
LAYER_1
 62
     7
100
AcDbPolyline
 90
        4
 70
     1
 43
0.0
 10
75.89304199218749
 20
52.72925347222222
 10
79.01671006944444
 20
52.72925347222222
 10
79.01671006944444
 20
51.2557861328125
 10
75.89304199218749
 20
51.2557861328125
  0
LWPOLYLINE
  5
64
330
A
100
AcDbEntity
  8
LAYER_1
 62
     7
100
AcDbPolyline
 90
        4
 70
     1
 43
0.0
 10
71.64937337239583
 20
52.72925347222222
 10
74.77355821397569
 20
52.72925347222222
 10
74.77355821397569
 20
51.2557861328125
 10
71.64937337239583
 20
51.2557861328125
  0
LWPOLYLINE
  5
59
330
A
100
AcDbEntity
  8
LAYER_1
 62
     7
100
AcDbPolyline
 90
        9
 70
     1
 43
0.0
 10
14.39033610026042
 20
54.63197970920138
 10
14.40721706814236
 20
52.92269558376736
 10
26.35411919487847
 20
52.94009331597222
 10
52.64019775390624
 20
27.3504408094618
 10
53.70128716362846
 20
28.58809136284722
 10
39.61532524956597
 20
42.49749213324652
 10
50.05740966796875
 20
52.95697428385416
 10
28.82959255642361
 20
52.92269558376736
 10
27.06122504340278
 20
54.62526177300347
  0
LINE
  5
58
330
A
100
AcDbEntity
  8
LAYER_1
 62
     7
100
AcDbLine
 10
0.4394219292534722
 20
85.05010579427082
 30
0.0
 11
0.4220241970486111
 21
88.93996310763887
 31
0.0
  0
LINE
  5
57
330
A
100
AcDbEntity
  8
LAYER_1
 62
     7
100
AcDbLine
 10
0.4220241970486111
 20
54.57944200303819
 30
0.0
 11
0.4220241970486111
 21
51.39669053819444
 31
0.0
  0
LINE
  5
56
330
A
100
AcDbEntity
  8
LAYER_1
 62
     7
100
AcDbLine
 10
28.82838677300347
 20
52.88531629774305
 30
0.0
 11
39.59844428168402
 21
42.59688313802083
 31
0.0
  0
LWPOLYLINE
  5
4C
330
A
100
AcDbEntity
  8
LAYER_1
 62
     7
100
AcDbPolyline
 90
        8
 70
     1
 43
0.0
 10
39.55624186197916
 20
42.49749213324652
 10
51.63819173177083
 20
54.57944200303819
 10
85.46834038628471
 20
21.57473822699653
 10
81.28358289930554
 20
17.33089735243055
 10
81.63739420572917
 20
15.03215738932292
 10
77.74702012803819
 20
16.38797471788194
 10
78.041748046875
 20
14.14831814236111
 10
73.50386827256943
 20
9.315538194444443
  0
HATCH
  5
4B
330
A
100
AcDbEntity
  8
LAYER_1
 62
     7
100
AcDbHatch
 10
0.0
 20
0.0
 30
0.0
210
0.0
220
0.0
230
1.0
  2
SOLID
 70
     1
 71
     0
 91
        1
 92
        1
 93
        1
 72
     4
 94
        3
 73
     0
 74
     0
 95
       53
 96
       49
 40
0.0
 40
0.0
 40
0.0
 40
0.0
 40
1.0
 40
1.0
 40
1.0
 40
2.0
 40
2.0
 40
2.0
 40
3.0
 40
3.0
 40
3.0
 40
4.0
 40
4.0
 40
4.0
 40
5.0
 40
5.0
 40
5.0
 40
6.0
 40
6.0
 40
6.0
 40
7.0
 40
7.0
 40
7.0
 40
8.0
 40
8.0
 40
8.0
 40
9.0
 40
9.0
 40
9.0
 40
10.0
 40
10.0
 40
10.0
 40
11.0
 40
11.0
 40
11.0
 40
12.0
 40
12.0
 40
12.0
 40
13.0
 40
13.0
 40
13.0
 40
14.0
 40
14.0
 40
14.0
 40
15.0
 40
15.0
 40
15.0
 40
16.0
 40
16.0
 40
16.0
 40
16.0
 10
73.65889756944443
 20
18.96662868923611
 10
73.65889756944443
 20
18.96662868923611
 10
72.96970621744791
 20
18.23110080295139
 10
72.96970621744791
 20
18.23110080295139
 10
72.96970621744791
 20
18.23110080295139
 10
66.5296169704861
 20
21.72959526909722
 10
66.5296169704861
 20
21.72959526909722
 10
66.5296169704861
 20
21.72959526909722
 10
67.23861762152777
 20
22.48682725694444
 10
67.23861762152777
 20
22.48682725694444
 10
67.23861762152777
 20
22.48682725694444
 10
72.35475667317708
 20
19.51043701171875
 10
72.35475667317708
 20
19.51043701171875
 10
72.35475667317708
 20
19.51043701171875
 10
72.36802029079861
 20
19.52490641276042
 10
72.36802029079861
 20
19.52490641276042
 10
72.36802029079861
 20
19.52490641276042
 10
69.24383544921875
 20
24.62898763020833
 10
69.24383544921875
 20
24.62898763020833
 10
69.24383544921875
 20
24.62898763020833
 10
69.95955403645833
 20
25.39276529947917
 10
69.95955403645833
 20
25.39276529947917
 10
69.95955403645833
 20
25.39276529947917
 10
75.2577663845486
 20
22.61171196831597
 10
75.2577663845486
 20
22.61171196831597
 10
75.2577663845486
 20
22.61171196831597
 10
75.27154676649305
 20
22.62566460503472
 10
75.27154676649305
 20
22.62566460503472
 10
75.27154676649305
 20
22.62566460503472
 10
71.964599609375
 20
27.53492567274305
 10
71.964599609375
 20
27.53492567274305
 10
71.964599609375
 20
27.53492567274305
 10
72.68703613281249
 20
28.30662706163194
 10
72.68703613281249
 20
28.30662706163194
 10
72.68703613281249
 20
28.30662706163194
 10
76.58895128038193
 20
22.09615342881944
 10
76.58895128038193
 20
22.09615342881944
 10
76.58895128038193
 20
22.09615342881944
 10
75.90027669270833
 20
21.36062554253472
 10
75.90027669270833
 20
21.36062554253472
 10
75.90027669270833
 20
21.36062554253472
 10
70.50215657552083
 20
24.19490559895833
 10
70.50215657552083
 20
24.19490559895833
 10
70.50215657552083
 20
24.19490559895833
 10
70.488720703125
 20
24.18043619791666
 10
70.488720703125
 20
24.18043619791666
 10
70.488720703125
 20
24.18043619791666
 10
73.65889756944443
 20
18.96662868923611
 10
73.65889756944443
 20
18.96662868923611
 97
        0
 75
     0
 76
     1
 98
        1
 10
0.0
 20
0.0
  0
SPLINE
  5
4A
330
A
100
AcDbEntity
  8
LAYER_1
 62
     7
100
AcDbSpline
210
0.0
220
0.0
230
1.0
 70
     8
 71
     3
 72
     8
 73
     4
 74
     0
 42
0.0000000001
 43
0.0000000001
 40
0.0
 40
0.0
 40
0.0
 40
0.0
 40
1.0
 40
1.0
 40
1.0
 40
1.0
 10
40.78372938368055
 20
9.932899305555555
 30
0.0
 10
40.57943522135416
 20
10.46413302951389
 30
0.0
 10
36.46220160590278
 20
22.07444932725694
 30
0.0
 10
35.53013102213541
 20
25.877490234375
 30
0.0
  0
SPLINE
  5
49
330
A
100
AcDbEntity
  8
LAYER_1
 62
     7
100
AcDbSpline
210
0.0
220
0.0
230
1.0
 70
     8
 71
     3
 72
     8
 73
     4
 74
     0
 42
0.0000000001
 43
0.0000000001
 40
0.0
 40
0.0
 40
0.0
 40
0.0
 40
1.0
 40
1.0
 40
1.0
 40
1.0
 10
29.53687065972222
 20
24.99313422309028
 30
0.0
 10
32.42454969618056
 20
25.34642876519097
 30
0.0
 10
37.37549641927083
 20
27.4680908203125
 30
0.0
 10
38.55423583984375
 20
28.94155815972222
 30
0.0
  0
HATCH
  5
48
330
A
100
AcDbEntity
  8
LAYER_1
 62
     7
100
AcDbHatch
 10
0.0
 20
0.0
 30
0.0
210
0.0
220
0.0
230
1.0
  2
SOLID
 70
     1
 71
     0
 91
        1
 92
        3
 72
     0
 73
     1
 93
        3
 10
37.34414605034722
 20
29.88448079427083
 10
41.82311469184027
 20
32.18270399305555
 10
39.46580810546875
 20
27.7628187391493
 97
        0
 75
     0
 76
     1
 98
        1
 10
0.0
 20
0.0
  0
HATCH
  5
47
330
A
100
AcDbEntity
  8
LAYER_1
 62
     7
100
AcDbHatch
 10
0.0
 20
0.0
 30
0.0
210
0.0
220
0.0
230
1.0
  2
SOLID
 70
     1
 71
     0
 91
        1
 92
        3
 72
     0
 73
     1
 93
        3
 10
31.41548122829861
 20
23.93927951388889
 10
26.38254123263889
 20
24.03815375434028
 10
30.55265706380208
 20
26.81317816840278
 97
        0
 75
     0
 76
     1
 98
        1
 10
0.0
 20
0.0
  0
INSERT
  5
38
330
A
100
AcDbEntity
  8
LAYER_1
 62
     7
100
AcDbBlockReference
  2
AI9-BLK2
 10
41.72820231119791
 20
1.890065511067708
 30
0.0
  0
INSERT
  5
32
330
A
100
AcDbEntity
  8
LAYER_1
 62
     7
100
AcDbBlockReference
  2
AI9-BLK1
 10
35.06590440538194
 20
26.72498372395833
 30
0.0
  0
SPLINE
  5
30
330
A
100
AcDbEntity
  8
LAYER_1
 62
     7
100
AcDbSpline
210
0.0
220
0.0
230
1.0
 70
     8
 71
     3
 72
     8
 73
     4
 74
     0
 42
0.0000000001
 43
0.0000000001
 40
0.0
 40
0.0
 40
0.0
 40
0.0
 40
1.0
 40
1.0
 40
1.0
 40
1.0
 10
74.83815375434027
 20
40.67917073567708
 30
0.0
 10
79.28990614149305
 20
42.45408393012153
 30
0.0
 10
81.60983344184027
 20
46.36133897569444
 30
0.0
 10
82.51227620442708
 20
50.61189778645833
 30
0.0
  0
HATCH
  5
2F
330
A
100
AcDbEntity
  8
LAYER_1
 62
     7
100
AcDbHatch
 10
0.0
 20
0.0
 30
0.0
210
0.0
220
0.0
230
1.0
  2
SOLID
 70
     1
 71
     0
 91
        1
 92
        3
 72
     0
 73
     1
 93
        3
 10
80.69154324001735
 20
49.84501953125
 10
83.21645372178818
 20
53.48700222439236
 10
84.03449164496527
 20
49.31068522135416
 97
        0
 75
     0
 76
     1
 98
        1
 10
0.0
 20
0.0
  0
HATCH
  5
2E
330
A
100
AcDbEntity
  8
LAYER_1
 62
     7
100
AcDbHatch
 10
0.0
 20
0.0
 30
0.0
210
0.0
220
0.0
230
1.0
  2
SOLID
 70
     1
 71
     0
 91
        1
 92
        3
 72
     0
 73
     1
 93
        3
 10
75.51098090277777
 20
39.16952989366319
 10
70.43273790147569
 20
39.02363009982638
 10
74.61870117187499
 20
42.19725206163194
 97
        0
 75
     0
 76
     1
 98
        1
 10
0.0
 20
0.0
  0
HATCH
  5
2D
330
A
100
AcDbEntity
  8
LAYER_1
 62
     7
100
AcDbHatch
 10
0.0
 20
0.0
 30
0.0
210
0.0
220
0.0
230
1.0
  2
SOLID
 70
     1
 71
     0
 91
        2
 92
       16
 93
        1
 72
     4
 94
        3
 73
     0
 74
     0
 95
       17
 96
       13
 40
0.0
 40
0.0
 40
0.0
 40
0.0
 40
1.0
 40
1.0
 40
1.0
 40
2.0
 40
2.0
 40
2.0
 40
3.0
 40
3.0
 40
3.0
 40
4.0
 40
4.0
 40
4.0
 40
4.0
 10
84.68148057725693
 20
45.72296278211805
 10
84.68148057725693
 20
45.72296278211805
 10
84.66701117621527
 20
45.72296278211805
 10
84.66701117621527
 20
45.72296278211805
 10
84.66701117621527
 20
45.72296278211805
 10
83.9332058376736
 20
42.76707085503472
 10
83.9332058376736
 20
42.76707085503472
 10
83.9332058376736
 20
42.76707085503472
 10
85.40012749565972
 20
42.76707085503472
 10
85.40012749565972
 20
42.76707085503472
 10
85.40012749565972
 20
42.76707085503472
 10
84.68148057725693
 20
45.72296278211805
 10
84.68148057725693
 20
45.72296278211805
 97
        0
 92
        1
 93
        1
 72
     4
 94
        3
 73
     0
 74
     0
 95
       29
 96
       25
 40
0.0
 40
0.0
 40
0.0
 40
0.0
 40
1.0
 40
1.0
 40
1.0
 40
2.0
 40
2.0
 40
2.0
 40
3.0
 40
3.0
 40
3.0
 40
4.0
 40
4.0
 40
4.0
 40
5.0
 40
5.0
 40
5.0
 40
6.0
 40
6.0
 40
6.0
 40
7.0
 40
7.0
 40
7.0
 40
8.0
 40
8.0
 40
8.0
 40
8.0
 10
84.28184950086805
 20
46.16738009982638
 10
84.28184950086805
 20
46.16738009982638
 10
85.09627007378471
 20
46.16738009982638
 10
85.09627007378471
 20
46.16738009982638
 10
85.09627007378471
 20
46.16738009982638
 10
86.65965440538194
 20
40.61113009982638
 10
86.65965440538194
 20
40.61113009982638
 10
86.65965440538194
 20
40.61113009982638
 10
85.97821451822917
 20
40.61113009982638
 10
85.97821451822917
 20
40.61113009982638
 10
85.97821451822917
 20
40.61113009982638
 10
85.54120415581596
 20
42.21103244357639
 10
85.54120415581596
 20
42.21103244357639
 10
85.54120415581596
 20
42.21103244357639
 10
83.78558349609374
 20
42.21103244357639
 10
83.78558349609374
 20
42.21103244357639
 10
83.78558349609374
 20
42.21103244357639
 10
83.3780287000868
 20
40.61113009982638
 10
83.3780287000868
 20
40.61113009982638
 10
83.3780287000868
 20
40.61113009982638
 10
82.6960720486111
 20
40.61113009982638
 10
82.6960720486111
 20
40.61113009982638
 10
82.6960720486111
 20
40.61113009982638
 10
84.28184950086805
 20
46.16738009982638
 10
84.28184950086805
 20
46.16738009982638
 97
        0
 75
     0
 76
     1
 98
        1
 10
0.0
 20
0.0
  0
HATCH
  5
2C
330
A
100
AcDbEntity
  8
LAYER_1
 62
     7
100
AcDbHatch
 10
0.0
 20
0.0
 30
0.0
210
0.0
220
0.0
230
1.0
  2
SOLID
 70
     1
 71
     0
 91
        1
 92
        1
 93
        1
 72
     4
 94
        3
 73
     0
 74
     0
 95
       44
 96
       40
 40
0.0
 40
0.0
 40
0.0
 40
0.0
 40
1.0
 40
1.0
 40
1.0
 40
2.0
 40
2.0
 40
2.0
 40
3.0
 40
3.0
 40
3.0
 40
4.0
 40
4.0
 40
4.0
 40
5.0
 40
5.0
 40
5.0
 40
6.0
 40
6.0
 40
6.0
 40
7.0
 40
7.0
 40
7.0
 40
8.0
 40
8.0
 40
8.0
 40
9.0
 40
9.0
 40
9.0
 40
10.0
 40
10.0
 40
10.0
 40
11.0
 40
11.0
 40
11.0
 40
12.0
 40
12.0
 40
12.0
 40
13.0
 40
13.0
 40
13.0
 40
13.0
 10
89.84464518229166
 20
44.50029839409722
 10
89.82948676215277
 20
45.15986192491319
 10
89.61485731336805
 20
45.72296278211805
 10
88.84453396267361
 20
45.72296278211805
 10
87.7779324001736
 20
45.72296278211805
 10
87.76277398003471
 20
44.20367567274305
 10
87.76277398003471
 20
43.4705593532986
 10
87.73331841362847
 20
42.71504991319444
 10
87.71833224826388
 20
41.033154296875
 10
88.84453396267361
 20
41.033154296875
 10
89.57765028211804
 20
41.033154296875
 10
89.73371310763888
 20
41.63363444010416
 10
89.80726589626735
 20
42.24066026475694
 10
89.82225206163194
 20
42.36675075954861
 10
89.82948676215277
 20
42.49266899956597
 10
89.84464518229166
 20
42.61858723958333
 10
89.84464518229166
 20
42.61858723958333
 10
90.45959472656249
 20
42.61858723958333
 10
90.45959472656249
 20
42.61858723958333
 10
90.4444363064236
 20
42.50765516493055
 10
90.4444363064236
 20
42.38897162543402
 10
90.42996690538193
 20
42.27803955078124
 10
90.39275987413194
 20
41.82587076822917
 10
90.37036675347221
 20
41.48515082465278
 10
90.10388861762152
 20
41.09998914930555
 10
89.8150173611111
 20
40.69966905381944
 10
89.42985568576388
 20
40.47780490451389
 10
88.89621039496527
 20
40.47780490451389
 10
87.18468695746527
 20
40.47780490451389
 10
87.12560356987846
 20
42.12972819010416
 10
87.12560356987846
 20
43.45540093315972
 10
87.12560356987846
 20
44.70769314236111
 10
87.31077745225694
 20
46.27831217447916
 10
88.88897569444444
 20
46.27831217447916
 10
89.94110785590277
 20
46.27831217447916
 10
90.48922254774305
 20
45.49317491319444
 10
90.45959472656249
 20
44.50029839409722
 10
90.45959472656249
 20
44.50029839409722
 10
89.84464518229166
 20
44.50029839409722
 10
89.84464518229166
 20
44.50029839409722
 97
        0
 75
     0
 76
     1
 98
        1
 10
0.0
 20
0.0
  0
HATCH
  5
2B
330
A
100
AcDbEntity
  8
LAYER_1
 62
     7
100
AcDbHatch
 10
0.0
 20
0.0
 30
0.0
210
0.0
220
0.0
230
1.0
  2
SOLID
 70
     1
 71
     0
 91
        1
 92
        1
 93
        1
 72
     4
 94
        3
 73
     0
 74
     0
 95
       35
 96
       31
 40
0.0
 40
0.0
 40
0.0
 40
0.0
 40
1.0
 40
1.0
 40
1.0
 40
2.0
 40
2.0
 40
2.0
 40
3.0
 40
3.0
 40
3.0
 40
4.0
 40
4.0
 40
4.0
 40
5.0
 40
5.0
 40
5.0
 40
6.0
 40
6.0
 40
6.0
 40
7.0
 40
7.0
 40
7.0
 40
8.0
 40
8.0
 40
8.0
 40
9.0
 40
9.0
 40
9.0
 40
10.0
 40
10.0
 40
10.0
 40
10.0
 10
91.45143771701387
 20
46.16738009982638
 10
91.45143771701387
 20
46.16738009982638
 10
92.06638726128472
 20
46.16738009982638
 10
92.06638726128472
 20
46.16738009982638
 10
92.06638726128472
 20
46.16738009982638
 10
92.06638726128472
 20
42.1743421766493
 10
92.06638726128472
 20
42.1743421766493
 10
92.05915256076388
 20
41.73733181423611
 10
92.13322211371526
 20
41.033154296875
 10
93.11834716796874
 20
41.033154296875
 10
94.10347222222221
 20
41.033154296875
 10
94.17754177517361
 20
41.73733181423611
 10
94.17030707465277
 20
42.1743421766493
 10
94.17030707465277
 20
42.1743421766493
 10
94.17030707465277
 20
46.16738009982638
 10
94.17030707465277
 20
46.16738009982638
 10
94.17030707465277
 20
46.16738009982638
 10
94.7852566189236
 20
46.16738009982638
 10
94.7852566189236
 20
46.16738009982638
 10
94.7852566189236
 20
46.16738009982638
 10
94.7852566189236
 20
41.95196126302083
 10
94.7852566189236
 20
41.95196126302083
 10
94.7852566189236
 20
40.9589124891493
 10
94.12586534288194
 20
40.47780490451389
 10
93.11834716796874
 20
40.47780490451389
 10
92.11082899305555
 20
40.47780490451389
 10
91.45143771701387
 20
40.9589124891493
 10
91.45143771701387
 20
41.95196126302083
 10
91.45143771701387
 20
41.95196126302083
 10
91.45143771701387
 20
46.16738009982638
 10
91.45143771701387
 20
46.16738009982638
 97
        0
 75
     0
 76
     1
 98
        1
 10
0.0
 20
0.0
  0
HATCH
  5
2A
330
A
100
AcDbEntity
  8
LAYER_1
 62
     7
100
AcDbHatch
 10
0.0
 20
0.0
 30
0.0
210
0.0
220
0.0
230
1.0
  2
SOLID
 70
     1
 71
     0
 91
        1
 92
        1
 93
        1
 72
     4
 94
        3
 73
     0
 74
     0
 95
       29
 96
       25
 40
0.0
 40
0.0
 40
0.0
 40
0.0
 40
1.0
 40
1.0
 40
1.0
 40
2.0
 40
2.0
 40
2.0
 40
3.0
 40
3.0
 40
3.0
 40
4.0
 40
4.0
 40
4.0
 40
5.0
 40
5.0
 40
5.0
 40
6.0
 40
6.0
 40
6.0
 40
7.0
 40
7.0
 40
7.0
 40
8.0
 40
8.0
 40
8.0
 40
8.0
 10
95.48771158854166
 20
46.16738009982638
 10
95.48771158854166
 20
46.16738009982638
 10
98.9772488064236
 20
46.16738009982638
 10
98.9772488064236
 20
46.16738009982638
 10
98.9772488064236
 20
46.16738009982638
 10
98.9772488064236
 20
45.61134168836805
 10
98.9772488064236
 20
45.61134168836805
 10
98.9772488064236
 20
45.61134168836805
 10
97.53995496961805
 20
45.61134168836805
 10
97.53995496961805
 20
45.61134168836805
 10
97.53995496961805
 20
45.61134168836805
 10
97.53995496961805
 20
40.61113009982638
 10
97.53995496961805
 20
40.61113009982638
 10
97.53995496961805
 20
40.61113009982638
 10
96.92500542534721
 20
40.61113009982638
 10
96.92500542534721
 20
40.61113009982638
 10
96.92500542534721
 20
40.61113009982638
 10
96.92500542534721
 20
45.61134168836805
 10
96.92500542534721
 20
45.61134168836805
 10
96.92500542534721
 20
45.61134168836805
 10
95.48771158854166
 20
45.61134168836805
 10
95.48771158854166
 20
45.61134168836805
 10
95.48771158854166
 20
45.61134168836805
 10
95.48771158854166
 20
46.16738009982638
 10
95.48771158854166
 20
46.16738009982638
 97
        0
 75
     0
 76
     1
 98
        1
 10
0.0
 20
0.0
  0
HATCH
  5
29
330
A
100
AcDbEntity
  8
LAYER_1
 62
     7
100
AcDbHatch
 10
0.0
 20
0.0
 30
0.0
210
0.0
220
0.0
230
1.0
  2
SOLID
 70
     1
 71
     0
 91
        1
 92
        1
 93
        1
 72
     4
 94
        3
 73
     0
 74
     0
 95
       41
 96
       37
 40
0.0
 40
0.0
 40
0.0
 40
0.0
 40
1.0
 40
1.0
 40
1.0
 40
2.0
 40
2.0
 40
2.0
 40
3.0
 40
3.0
 40
3.0
 40
4.0
 40
4.0
 40
4.0
 40
5.0
 40
5.0
 40
5.0
 40
6.0
 40
6.0
 40
6.0
 40
7.0
 40
7.0
 40
7.0
 40
8.0
 40
8.0
 40
8.0
 40
9.0
 40
9.0
 40
9.0
 40
10.0
 40
10.0
 40
10.0
 40
11.0
 40
11.0
 40
11.0
 40
12.0
 40
12.0
 40
12.0
 40
12.0
 10
99.62906087239583
 20
40.61113009982638
 10
99.62906087239583
 20
40.61113009982638
 10
99.62906087239583
 20
46.16738009982638
 10
99.62906087239583
 20
46.16738009982638
 10
99.62906087239583
 20
46.16738009982638
 10
102.4071858723958
 20
46.16738009982638
 10
102.4071858723958
 20
46.16738009982638
 10
102.4071858723958
 20
46.16738009982638
 10
102.4071858723958
 20
45.61134168836805
 10
102.4071858723958
 20
45.61134168836805
 10
102.4071858723958
 20
45.61134168836805
 10
100.2440104166667
 20
45.61134168836805
 10
100.2440104166667
 20
45.61134168836805
 10
100.2440104166667
 20
45.61134168836805
 10
100.2440104166667
 20
43.77441677517361
 10
100.2440104166667
 20
43.77441677517361
 10
100.2440104166667
 20
43.77441677517361
 10
102.2738606770833
 20
43.77441677517361
 10
102.2738606770833
 20
43.77441677517361
 10
102.2738606770833
 20
43.77441677517361
 10
102.2738606770833
 20
43.21855061848958
 10
102.2738606770833
 20
43.21855061848958
 10
102.2738606770833
 20
43.21855061848958
 10
100.2440104166667
 20
43.21855061848958
 10
100.2440104166667
 20
43.21855061848958
 10
100.2440104166667
 20
43.21855061848958
 10
100.2440104166667
 20
41.16630723741319
 10
100.2440104166667
 20
41.16630723741319
 10
100.2440104166667
 20
41.16630723741319
 10
102.4221720377604
 20
41.16630723741319
 10
102.4221720377604
 20
41.16630723741319
 10
102.4221720377604
 20
41.16630723741319
 10
102.4221720377604
 20
40.61113009982638
 10
102.4221720377604
 20
40.61113009982638
 10
102.4221720377604
 20
40.61113009982638
 10
99.62906087239583
 20
40.61113009982638
 10
99.62906087239583
 20
40.61113009982638
 97
        0
 75
     0
 76
     1
 98
        1
 10
0.0
 20
0.0
  0
HATCH
  5
28
330
A
100
AcDbEntity
  8
LAYER_1
 62
     7
100
AcDbHatch
 10
0.0
 20
0.0
 30
0.0
210
0.0
220
0.0
230
1.0
  2
SOLID
 70
     1
 71
     0
 91
        1
 92
        1
 93
        1
 72
     4
 94
        3
 73
     0
 74
     0
 95
       56
 96
       52
 40
0.0
 40
0.0
 40
0.0
 40
0.0
 40
1.0
 40
1.0
 40
1.0
 40
2.0
 40
2.0
 40
2.0
 40
3.0
 40
3.0
 40
3.0
 40
4.0
 40
4.0
 40
4.0
 40
5.0
 40
5.0
 40
5.0
 40
6.0
 40
6.0
 40
6.0
 40
7.0
 40
7.0
 40
7.0
 40
8.0
 40
8.0
 40
8.0
 40
9.0
 40
9.0
 40
9.0
 40
10.0
 40
10.0
 40
10.0
 40
11.0
 40
11.0
 40
11.0
 40
12.0
 40
12.0
 40
12.0
 40
13.0
 40
13.0
 40
13.0
 40
14.0
 40
14.0
 40
14.0
 40
15.0
 40
15.0
 40
15.0
 40
16.0
 40
16.0
 40
16.0
 40
17.0
 40
17.0
 40
17.0
 40
17.0
 10
91.34222819010415
 20
36.68199869791666
 10
91.3868421766493
 20
37.26008572048611
 10
91.07575005425346
 20
37.69726833767361
 10
90.46080050998263
 20
37.69726833767361
 10
89.56421440972221
 20
37.69726833767361
 10
89.4677517361111
 20
37.13416748046875
 10
89.4677517361111
 20
36.70439181857638
 10
89.4677517361111
 20
36.31905788845486
 10
89.63845621744791
 20
36.08220757378472
 10
89.99416232638887
 20
35.94888237847222
 10
90.29009602864582
 20
35.83726128472222
 10
90.57896728515624
 20
35.72632921006944
 10
90.87559000651041
 20
35.61539713541666
 10
91.92754991319444
 20
35.22231174045139
 10
92.11995849609374
 20
34.85230848524305
 10
92.11995849609374
 20
34.11850314670139
 10
92.11995849609374
 20
33.06706000434028
 10
91.46108398437499
 20
32.45211046006944
 10
90.39379340277777
 20
32.45211046006944
 10
89.8458509657118
 20
32.45211046006944
 10
89.19421115451388
 20
32.60765652126736
 10
88.8751953125
 20
33.33353814019097
 10
88.75702853732638
 20
33.60793999565972
 10
88.76426323784722
 20
34.05218505859375
 10
88.75702853732638
 20
34.34829101562499
 10
88.75702853732638
 20
34.34829101562499
 10
89.3712890625
 20
34.34829101562499
 10
89.3712890625
 20
34.34829101562499
 10
89.34183349609374
 20
33.52594672309027
 10
89.49737955729165
 20
33.00745985243055
 10
90.42342122395833
 20
33.00745985243055
 10
91.04629448784722
 20
33.00745985243055
 10
91.48330485026041
 20
33.32630343967013
 10
91.48330485026041
 20
33.97794325086805
 10
91.48330485026041
 20
34.8226806640625
 10
91.1420681423611
 20
34.82991536458333
 10
90.57896728515624
 20
35.04454481336806
 10
90.27562662760415
 20
35.16340060763888
 10
89.78676757812499
 20
35.3187744140625
 10
89.49014485677083
 20
35.47449273003472
 10
88.96442328559027
 20
35.74148763020833
 10
88.83058132595485
 20
36.18590494791666
 10
88.83058132595485
 20
36.73384738498264
 10
88.83058132595485
 20
37.65265435112847
 10
89.47567545572916
 20
38.25261773003472
 10
90.37932400173611
 20
38.25261773003472
 10
91.39407687717014
 20
38.25261773003472
 10
92.0162611219618
 20
37.72689615885416
 10
91.95717773437499
 20
36.68199869791666
 10
91.95717773437499
 20
36.68199869791666
 10
91.34222819010415
 20
36.68199869791666
 10
91.34222819010415
 20
36.68199869791666
 97
        0
 75
     0
 76
     1
 98
        1
 10
0.0
 20
0.0
  0
HATCH
  5
27
330
A
100
AcDbEntity
  8
LAYER_1
 62
     7
100
AcDbHatch
 10
0.0
 20
0.0
 30
0.0
210
0.0
220
0.0
230
1.0
  2
SOLID
 70
     1
 71
     0
 91
        1
 92
        1
 93
        1
 72
     4
 94
        3
 73
     0
 74
     0
 95
       17
 96
       13
 40
0.0
 40
0.0
 40
0.0
 40
0.0
 40
1.0
 40
1.0
 40
1.0
 40
2.0
 40
2.0
 40
2.0
 40
3.0
 40
3.0
 40
3.0
 40
4.0
 40
4.0
 40
4.0
 40
4.0
 10
93.22325032552082
 20
32.58543565538194
 10
93.22325032552082
 20
32.58543565538194
 10
93.22325032552082
 20
38.14168565538194
 10
93.22325032552082
 20
38.14168565538194
 10
93.22325032552082
 20
38.14168565538194
 10
93.83819986979165
 20
38.14168565538194
 10
93.83819986979165
 20
38.14168565538194
 10
93.83819986979165
 20
38.14168565538194
 10
93.83819986979165
 20
32.58543565538194
 10
93.83819986979165
 20
32.58543565538194
 10
93.83819986979165
 20
32.58543565538194
 10
93.22325032552082
 20
32.58543565538194
 10
93.22325032552082
 20
32.58543565538194
 97
        0
 75
     0
 76
     1
 98
        1
 10
0.0
 20
0.0
  0
HATCH
  5
26
330
A
100
AcDbEntity
  8
LAYER_1
 62
     7
100
AcDbHatch
 10
0.0
 20
0.0
 30
0.0
210
0.0
220
0.0
230
1.0
  2
SOLID
 70
     1
 71
     0
 91
        2
 92
       16
 93
        1
 72
     4
 94
        3
 73
     0
 74
     0
 95
       20
 96
       16
 40
0.0
 40
0.0
 40
0.0
 40
0.0
 40
1.0
 40
1.0
 40
1.0
 40
2.0
 40
2.0
 40
2.0
 40
3.0
 40
3.0
 40
3.0
 40
4.0
 40
4.0
 40
4.0
 40
5.0
 40
5.0
 40
5.0
 40
5.0
 10
95.77830539279513
 20
33.14061279296875
 10
95.77830539279513
 20
33.14061279296875
 10
96.76343044704861
 20
33.14061279296875
 10
96.76343044704861
 20
33.14061279296875
 10
97.66707899305554
 20
33.14061279296875
 10
98.0374267578125
 20
33.81533474392361
 10
97.97817111545137
 20
35.47449273003472
 10
97.93372938368054
 20
36.74159884982639
 10
97.7557902018229
 20
37.58564724392361
 10
96.76343044704861
 20
37.58564724392361
 10
96.76343044704861
 20
37.58564724392361
 10
95.77830539279513
 20
37.58564724392361
 10
95.77830539279513
 20
37.58564724392361
 10
95.77830539279513
 20
37.58564724392361
 10
95.77830539279513
 20
33.14061279296875
 10
95.77830539279513
 20
33.14061279296875
 97
        0
 92
        1
 93
        1
 72
     4
 94
        3
 73
     0
 74
     0
 95
       20
 96
       16
 40
0.0
 40
0.0
 40
0.0
 40
0.0
 40
1.0
 40
1.0
 40
1.0
 40
2.0
 40
2.0
 40
2.0
 40
3.0
 40
3.0
 40
3.0
 40
4.0
 40
4.0
 40
4.0
 40
5.0
 40
5.0
 40
5.0
 40
5.0
 10
95.16283908420138
 20
32.58543565538194
 10
95.16283908420138
 20
32.58543565538194
 10
95.16283908420138
 20
38.14168565538194
 10
95.16283908420138
 20
38.14168565538194
 10
95.16283908420138
 20
38.14168565538194
 10
96.68936089409722
 20
38.14168565538194
 10
96.68936089409722
 20
38.14168565538194
 10
98.42258843315972
 20
38.14168565538194
 10
98.66012776692708
 20
36.73384738498264
 10
98.61551378038193
 20
35.36356065538194
 10
98.5708997938368
 20
34.00757107204861
 10
98.3044216579861
 20
32.58543565538194
 10
96.80029296874999
 20
32.58543565538194
 10
96.80029296874999
 20
32.58543565538194
 10
95.16283908420138
 20
32.58543565538194
 10
95.16283908420138
 20
32.58543565538194
 97
        0
 75
     0
 76
     1
 98
        1
 10
0.0
 20
0.0
  0
HATCH
  5
25
330
A
100
AcDbEntity
  8
LAYER_1
 62
     7
100
AcDbHatch
 10
0.0
 20
0.0
 30
0.0
210
0.0
220
0.0
230
1.0
  2
SOLID
 70
     1
 71
     0
 91
        1
 92
        1
 93
        1
 72
     4
 94
        3
 73
     0
 74
     0
 95
       41
 96
       37
 40
0.0
 40
0.0
 40
0.0
 40
0.0
 40
1.0
 40
1.0
 40
1.0
 40
2.0
 40
2.0
 40
2.0
 40
3.0
 40
3.0
 40
3.0
 40
4.0
 40
4.0
 40
4.0
 40
5.0
 40
5.0
 40
5.0
 40
6.0
 40
6.0
 40
6.0
 40
7.0
 40
7.0
 40
7.0
 40
8.0
 40
8.0
 40
8.0
 40
9.0
 40
9.0
 40
9.0
 40
10.0
 40
10.0
 40
10.0
 40
11.0
 40
11.0
 40
11.0
 40
12.0
 40
12.0
 40
12.0
 40
12.0
 10
99.62906087239583
 20
32.58543565538194
 10
99.62906087239583
 20
32.58543565538194
 10
99.62906087239583
 20
38.14168565538194
 10
99.62906087239583
 20
38.14168565538194
 10
99.62906087239583
 20
38.14168565538194
 10
102.4071858723958
 20
38.14168565538194
 10
102.4071858723958
 20
38.14168565538194
 10
102.4071858723958
 20
38.14168565538194
 10
102.4071858723958
 20
37.58564724392361
 10
102.4071858723958
 20
37.58564724392361
 10
102.4071858723958
 20
37.58564724392361
 10
100.2440104166667
 20
37.58564724392361
 10
100.2440104166667
 20
37.58564724392361
 10
100.2440104166667
 20
37.58564724392361
 10
100.2440104166667
 20
35.74872233072917
 10
100.2440104166667
 20
35.74872233072917
 10
100.2440104166667
 20
35.74872233072917
 10
102.2738606770833
 20
35.74872233072917
 10
102.2738606770833
 20
35.74872233072917
 10
102.2738606770833
 20
35.74872233072917
 10
102.2738606770833
 20
35.19285617404513
 10
102.2738606770833
 20
35.19285617404513
 10
102.2738606770833
 20
35.19285617404513
 10
100.2440104166667
 20
35.19285617404513
 10
100.2440104166667
 20
35.19285617404513
 10
100.2440104166667
 20
35.19285617404513
 10
100.2440104166667
 20
33.14061279296875
 10
100.2440104166667
 20
33.14061279296875
 10
100.2440104166667
 20
33.14061279296875
 10
102.4221720377604
 20
33.14061279296875
 10
102.4221720377604
 20
33.14061279296875
 10
102.4221720377604
 20
33.14061279296875
 10
102.4221720377604
 20
32.58543565538194
 10
102.4221720377604
 20
32.58543565538194
 10
102.4221720377604
 20
32.58543565538194
 10
99.62906087239583
 20
32.58543565538194
 10
99.62906087239583
 20
32.58543565538194
 97
        0
 75
     0
 76
     1
 98
        1
 10
0.0
 20
0.0
  0
LINE
  5
24
330
A
100
AcDbEntity
  8
LAYER_1
 62
     7
100
AcDbLine
 10
26.18238118489583
 20
55.36561279296875
 30
0.0
 11
26.18238118489583
 21
19.94744737413194
 31
0.0
  0
HATCH
  5
23
330
A
100
AcDbEntity
  8
LAYER_1
 62
     7
100
AcDbHatch
 10
0.0
 20
0.0
 30
0.0
210
0.0
220
0.0
230
1.0
  2
SOLID
 70
     1
 71
     0
 91
        2
 92
       16
 93
        1
 72
     4
 94
        3
 73
     0
 74
     0
 95
       17
 96
       13
 40
0.0
 40
0.0
 40
0.0
 40
0.0
 40
1.0
 40
1.0
 40
1.0
 40
2.0
 40
2.0
 40
2.0
 40
3.0
 40
3.0
 40
3.0
 40
4.0
 40
4.0
 40
4.0
 40
4.0
 10
26.24439290364583
 20
13.30737033420139
 10
27.16319986979167
 20
13.30737033420139
 10
27.12582058376736
 20
14.62649739583333
 10
27.12582058376736
 20
15.69292670355903
 10
27.12582058376736
 20
16.47858072916667
 10
27.20729709201389
 20
17.79701877170139
 10
26.24439290364583
 20
17.86385362413194
 10
25.26650254991319
 20
17.92310926649305
 10
25.37019992404514
 20
16.20417887369792
 10
25.37019992404514
 20
15.69292670355903
 10
25.37019992404514
 20
14.62649739583333
 10
25.22188856336805
 20
13.30737033420139
 10
26.24439290364583
 20
13.30737033420139
 97
        0
 92
        1
 93
        1
 72
     4
 94
        3
 73
     0
 74
     0
 95
       17
 96
       13
 40
0.0
 40
0.0
 40
0.0
 40
0.0
 40
1.0
 40
1.0
 40
1.0
 40
2.0
 40
2.0
 40
2.0
 40
3.0
 40
3.0
 40
3.0
 40
4.0
 40
4.0
 40
4.0
 40
4.0
 10
24.73302951388889
 20
15.59646402994792
 10
24.73302951388889
 20
16.63395453559028
 10
24.79917534722222
 20
18.41920301649305
 10
26.24439290364583
 20
18.41920301649305
 10
27.799853515625
 20
18.41920301649305
 10
27.76299099392361
 20
16.65634765625
 10
27.76299099392361
 20
15.59646402994792
 10
27.76299099392361
 20
14.337109375
 10
27.69615614149305
 20
12.75202094184028
 10
26.24439290364583
 20
12.75202094184028
 10
24.76248508029514
 20
12.75202094184028
 10
24.73302951388889
 20
14.61133897569444
 10
24.73302951388889
 20
15.59646402994792
 97
        0
 75
     0
 76
     1
 98
        1
 10
0.0
 20
0.0
  0
HATCH
  5
22
330
A
100
AcDbEntity
  8
LAYER_1
 62
     7
100
AcDbHatch
 10
0.0
 20
0.0
 30
0.0
210
0.0
220
0.0
230
1.0
  2
SOLID
 70
     1
 71
     0
 91
        2
 92
       16
 93
        1
 72
     4
 94
        3
 73
     0
 74
     0
 95
       17
 96
       13
 40
0.0
 40
0.0
 40
0.0
 40
0.0
 40
1.0
 40
1.0
 40
1.0
 40
2.0
 40
2.0
 40
2.0
 40
3.0
 40
3.0
 40
3.0
 40
4.0
 40
4.0
 40
4.0
 40
4.0
 10
29.57063259548611
 20
17.95979953342014
 10
29.21475423177083
 20
17.95979953342014
 10
28.91882052951389
 20
17.66369357638889
 10
28.92605523003472
 20
17.30815972222222
 10
28.92605523003472
 20
16.94504665798611
 10
29.21475423177083
 20
16.65634765625
 10
29.57786729600694
 20
16.65634765625
 10
29.93340115017361
 20
16.65634765625
 10
30.23002387152777
 20
16.94504665798611
 10
30.23002387152777
 20
17.30815972222222
 10
30.23002387152777
 20
17.66369357638889
 10
29.93340115017361
 20
17.95979953342014
 10
29.57063259548611
 20
17.95979953342014
 97
        0
 92
        1
 93
        1
 72
     4
 94
        3
 73
     0
 74
     0
 95
       17
 96
       13
 40
0.0
 40
0.0
 40
0.0
 40
0.0
 40
1.0
 40
1.0
 40
1.0
 40
2.0
 40
2.0
 40
2.0
 40
3.0
 40
3.0
 40
3.0
 40
4.0
 40
4.0
 40
4.0
 40
4.0
 10
29.57786729600694
 20
16.19694417317708
 10
28.96291775173611
 20
16.19694417317708
 10
28.4666517469618
 20
16.69321017795139
 10
28.4666517469618
 20
17.30815972222222
 10
28.45941704644097
 20
17.91587456597222
 10
28.96291775173611
 20
18.41920301649305
 10
29.57786729600694
 20
18.41920301649305
 10
30.18558213975694
 20
18.41920301649305
 10
30.689599609375
 20
17.91587456597222
 10
30.689599609375
 20
17.30815972222222
 10
30.689599609375
 20
16.69321017795139
 10
30.18558213975694
 20
16.19694417317708
 10
29.57786729600694
 20
16.19694417317708
 97
        0
 75
     0
 76
     1
 98
        1
 10
0.0
 20
0.0
  0
ENDSEC
  0
SECTION
  2
OBJECTS
  0
DICTIONARY
  5
19
330
0
100
AcDbDictionary
281
     1
  3
ACAD_COLOR
350
D8
  3
ACAD_GROUP
350
1A
  3
ACAD_LAYOUT
350
A5
  3
ACAD_MATERIAL
350
DA
  3
ACAD_MLINESTYLE
350
1B
  3
ACAD_PLOTSETTINGS
350
A6
  3
ACAD_PLOTSTYLENAME
350
A3
  3
ACDBHEADERROUNDTRIPXREC
350
D7
  0
DICTIONARY
  5
D8
102
{ACAD_REACTORS
330
19
102
}
330
19
100
AcDbDictionary
281
     1
  0
DICTIONARY
  5
1A
102
{ACAD_REACTORS
330
19
102
}
330
19
100
AcDbDictionary
281
     1
  0
DICTIONARY
  5
A5
102
{ACAD_REACTORS
330
19
102
}
330
19
100
AcDbDictionary
281
     1
  3
Layout1
350
A8
  3
Model
350
A7
  0
DICTIONARY
  5
DA
102
{ACAD_REACTORS
330
19
102
}
330
19
100
AcDbDictionary
281
     1
  0
DICTIONARY
  5
1B
102
{ACAD_REACTORS
330
19
102
}
330
19
100
AcDbDictionary
281
     1
  3
STANDARD
350
1C
  0
DICTIONARY
  5
A6
102
{ACAD_REACTORS
330
19
102
}
330
19
100
AcDbDictionary
281
     1
  0
ACDBDICTIONARYWDFLT
  5
A3
102
{ACAD_REACTORS
330
19
102
}
330
19
100
AcDbDictionary
281
     1
  3
Normal
350
A4
100
AcDbDictionaryWithDefault
340
A4
  0
DICTIONARY
  5
D7
102
{ACAD_REACTORS
330
19
102
}
330
19
100
AcDbDictionary
281
     1
  3
COLORDICT
350
D9
  3
MATERIALDICT
350
DB
  0
LAYOUT
  5
A8
102
{ACAD_REACTORS
330
A5
102
}
102
{ACAD_XDICTIONARY
360
DC
102
}
330
A5
100
AcDbPlotSettings
  1

  2
Support Center HP LaserJet 4
  4

  6

 40
0.0
 41
0.0
 42
0.0
 43
0.0
 44
0.0
 45
0.0
 46
0.0
 47
0.0
 48
0.0
 49
0.0
140
0.0
141
0.0
142
1.0
143
1.0
 70
   688
 72
     0
 73
     0
 74
     5
  7

 75
    16
147
1.0
148
0.0
149
0.0
100
AcDbLayout
  1
Layout1
 70
     0
 71
     1
 10
0.0
 20
0.0
 11
12.0
 21
9.0
 12
0.0
 22
0.0
 32
0.0
 14
1.000000000000000E+20
 24
1.000000000000000E+20
 34
1.000000000000000E+20
 15
-1.000000000000000E+20
 25
-1.000000000000000E+20
 35
-1.000000000000000E+20
146
0.0
 13
0.0
 23
0.0
 33
0.0
 16
1.0
 26
0.0
 36
0.0
 17
0.0
 27
1.0
 37
0.0
 76
     0
330
B
  0
LAYOUT
  5
A7
102
{ACAD_REACTORS
330
A5
102
}
102
{ACAD_XDICTIONARY
360
DE
102
}
330
A5
100
AcDbPlotSettings
  1

  2
Support Center HP LaserJet 4
  4

  6

 40
0.0
 41
0.0
 42
0.0
 43
0.0
 44
0.0
 45
0.0
 46
0.0
 47
0.0
 48
0.0
 49
0.0
140
0.0
141
0.0
142
1.0
143
1.0
 70
  1712
 72
     0
 73
     0
 74
     0
  7

 75
     0
147
1.0
148
0.0
149
0.0
100
AcDbLayout
  1
Model
 70
     1
 71
     0
 10
0.0
 20
0.0
 11
12.0
 21
9.0
 12
0.0
 22
0.0
 32
0.0
 14
0.0
 24
0.0
 34
0.0
 15
0.0
 25
0.0
 35
0.0
146
0.0
 13
0.0
 23
0.0
 33
0.0
 16
1.0
 26
0.0
 36
0.0
 17
0.0
 27
1.0
 37
0.0
 76
     0
330
A
  0
MLINESTYLE
  5
1C
102
{ACAD_REACTORS
330
1B
102
}
330
1B
100
AcDbMlineStyle
  2
STANDARD
 70
     0
  3

 62
     0
 51
90.0000000000002
 52
90.0000000000002
 71
     2
 49
0.5
 62
   256
  6
BYLAYER
 49
-0.5
 62
   256
  6
BYLAYER
  0
ACDBPLACEHOLDER
  5
A4
102
{ACAD_REACTORS
330
A3
102
}
330
A3
  0
XRECORD
  5
D9
102
{ACAD_REACTORS
330
D7
102
}
330
D7
100
AcDbXrecord
340
D8
  0
XRECORD
  5
DB
102
{ACAD_REACTORS
330
D7
102
}
330
D7
100
AcDbXrecord
340
DA
  0
DICTIONARY
  5
DC
330
A8
100
AcDbDictionary
280
     1
281
     1
  3
ACAD_XREC_ROUNDTRIP
360
DD
  0
DICTIONARY
  5
DE
330
A7
100
AcDbDictionary
280
     1
281
     1
  3
ACAD_XREC_ROUNDTRIP
360
DF
  0
XRECORD
  5
DD
102
{ACAD_REACTORS
330
DC
102
}
330
DC
100
AcDbXrecord
102
SHADEPLOT
 70
     0
102
SHADEPLOTRESLEVEL
 70
     0
102
SHADEPLOTCUSTOMDPI
 70
     0
  0
XRECORD
  5
DF
102
{ACAD_REACTORS
330
DE
102
}
330
DE
100
AcDbXrecord
102
SHADEPLOT
 70
     0
102
SHADEPLOTRESLEVEL
 70
     0
102
SHADEPLOTCUSTOMDPI
 70
     0
  0
ENDSEC
  0
EOF
