  0
SECTION
  2
HEADER
  9
$ACADVER
  1
AC1015
  9
$ACADMAINTVER
 70
     6
  9
$DWGCODEPAGE
  3
ANSI_1252
  9
$INSBASE
 10
0.0
 20
0.0
 30
0.0
  9
$EXTMIN
 10
0.26498
 20
0.470057
 30
0.0
  9
$EXTMAX
 10
5.132809523809524
 20
5.419
 30
0.0
  9
$LIMMIN
 10
0.0
 20
0.0
  9
$LIMMAX
 10
15.0
 20
12.0
  9
$ORTHOMODE
 70
     0
  9
$REGENMODE
 70
     1
  9
$FILLMODE
 70
     1
  9
$QTEXTMODE
 70
     0
  9
$MIRRTEXT
 70
     1
  9
$LTSCALE
 40
0.25
  9
$ATTMODE
 70
     1
  9
$TEXTSIZE
 40
0.15
  9
$TRACEWID
 40
0.05
  9
$TEXTSTYLE
  7
STANDARD
  9
$CLAYER
  8
0
  9
$CELTYPE
  6
ByLayer
  9
$CECOLOR
 62
   256
  9
$CELTSCALE
 40
1.0
  9
$DISPSILH
 70
     0
  9
$DIMSCALE
 40
1.0
  9
$DIMASZ
 40
0.125
  9
$DIMEXO
 40
0.063
  9
$DIMDLI
 40
0.38
  9
$DIMRND
 40
0.0
  9
$DIMDLE
 40
0.0
  9
$DIMEXE
 40
0.18
  9
$DIMTP
 40
0.0
  9
$DIMTM
 40
0.0
  9
$DIMTXT
 40
0.125
  9
$DIMCEN
 40
0.09
  9
$DIMTSZ
 40
0.0
  9
$DIMTOL
 70
     0
  9
$DIMLIM
 70
     0
  9
$DIMTIH
 70
     1
  9
$DIMTOH
 70
     1
  9
$DIMSE1
 70
     0
  9
$DIMSE2
 70
     0
  9
$DIMTAD
 70
     0
  9
$DIMZIN
 70
     0
  9
$DIMBLK
  1

  9
$DIMASO
 70
     0
  9
$DIMSHO
 70
     0
  9
$DIMPOST
  1

  9
$DIMAPOST
  1

  9
$DIMALT
 70
     0
  9
$DIMALTD
 70
     2
  9
$DIMALTF
 40
25.4
  9
$DIMLFAC
 40
1.0
  9
$DIMTOFL
 70
     0
  9
$DIMTVP
 40
0.0
  9
$DIMTIX
 70
     0
  9
$DIMSOXD
 70
     0
  9
$DIMSAH
 70
     0
  9
$DIMBLK1
  1

  9
$DIMBLK2
  1

  9
$DIMSTYLE
  2
Standard
  9
$DIMCLRD
 70
     0
  9
$DIMCLRE
 70
     0
  9
$DIMCLRT
 70
     0
  9
$DIMTFAC
 40
1.0
  9
$DIMGAP
 40
0.09
  9
$DIMJUST
 70
     0
  9
$DIMSD1
 70
     0
  9
$DIMSD2
 70
     0
  9
$DIMTOLJ
 70
     1
  9
$DIMTZIN
 70
     0
  9
$DIMALTZ
 70
     0
  9
$DIMALTTZ
 70
     0
  9
$DIMUPT
 70
     0
  9
$DIMDEC
 70
     4
  9
$DIMTDEC
 70
     4
  9
$DIMALTU
 70
     2
  9
$DIMALTTD
 70
     2
  9
$DIMTXSTY
  7
STANDARD
  9
$DIMAUNIT
 70
     0
  9
$DIMADEC
 70
     0
  9
$DIMALTRND
 40
0.0
  9
$DIMAZIN
 70
     0
  9
$DIMDSEP
 70
    46
  9
$DIMATFIT
 70
     3
  9
$DIMFRAC
 70
     0
  9
$DIMLDRBLK
  1

  9
$DIMLUNIT
 70
     2
  9
$DIMLWD
 70
    -2
  9
$DIMLWE
 70
    -2
  9
$DIMTMOVE
 70
     0
  9
$LUNITS
 70
     2
  9
$LUPREC
 70
     4
  9
$SKETCHINC
 40
0.1
  9
$FILLETRAD
 40
0.03
  9
$AUNITS
 70
     0
  9
$AUPREC
 70
     0
  9
$MENU
  1
acad
  9
$ELEVATION
 40
0.0
  9
$PELEVATION
 40
0.0
  9
$THICKNESS
 40
0.0
  9
$LIMCHECK
 70
     0
  9
$CHAMFERA
 40
0.0
  9
$CHAMFERB
 40
0.0
  9
$CHAMFERC
 40
1.0
  9
$CHAMFERD
 40
0.0
  9
$SKPOLY
 70
     0
  9
$TDCREATE
 40
2453955.56027647
  9
$TDUCREATE
 40
2453955.893609803
  9
$TDUPDATE
 40
2453955.601943148
  9
$TDUUPDATE
 40
2453955.893609815
  9
$TDINDWG
 40
0.0000000116
  9
$TDUSRTIMER
 40
0.0000000116
  9
$USRTIMER
 70
     1
  9
$ANGBASE
 50
0.0
  9
$ANGDIR
 70
     0
  9
$PDMODE
 70
     0
  9
$PDSIZE
 40
0.0
  9
$PLINEWID
 40
0.0
  9
$SPLFRAME
 70
     0
  9
$SPLINETYPE
 70
     6
  9
$SPLINESEGS
 70
     8
  9
$HANDSEED
  5
275
  9
$SURFTAB1
 70
     6
  9
$SURFTAB2
 70
     6
  9
$SURFTYPE
 70
     6
  9
$SURFU
 70
     6
  9
$SURFV
 70
     6
  9
$UCSBASE
  2

  9
$UCSNAME
  2

  9
$UCSORG
 10
0.0
 20
0.0
 30
0.0
  9
$UCSXDIR
 10
1.0
 20
0.0
 30
0.0
  9
$UCSYDIR
 10
0.0
 20
1.0
 30
0.0
  9
$UCSORTHOREF
  2

  9
$UCSORTHOVIEW
 70
     0
  9
$UCSORGTOP
 10
0.0
 20
0.0
 30
0.0
  9
$UCSORGBOTTOM
 10
0.0
 20
0.0
 30
0.0
  9
$UCSORGLEFT
 10
0.0
 20
0.0
 30
0.0
  9
$UCSORGRIGHT
 10
0.0
 20
0.0
 30
0.0
  9
$UCSORGFRONT
 10
0.0
 20
0.0
 30
0.0
  9
$UCSORGBACK
 10
0.0
 20
0.0
 30
0.0
  9
$PUCSBASE
  2

  9
$PUCSNAME
  2

  9
$PUCSORG
 10
0.0
 20
0.0
 30
0.0
  9
$PUCSXDIR
 10
1.0
 20
0.0
 30
0.0
  9
$PUCSYDIR
 10
0.0
 20
1.0
 30
0.0
  9
$PUCSORTHOREF
  2

  9
$PUCSORTHOVIEW
 70
     0
  9
$PUCSORGTOP
 10
0.0
 20
0.0
 30
0.0
  9
$PUCSORGBOTTOM
 10
0.0
 20
0.0
 30
0.0
  9
$PUCSORGLEFT
 10
0.0
 20
0.0
 30
0.0
  9
$PUCSORGRIGHT
 10
0.0
 20
0.0
 30
0.0
  9
$PUCSORGFRONT
 10
0.0
 20
0.0
 30
0.0
  9
$PUCSORGBACK
 10
0.0
 20
0.0
 30
0.0
  9
$USERI1
 70
     0
  9
$USERI2
 70
     0
  9
$USERI3
 70
     0
  9
$USERI4
 70
     0
  9
$USERI5
 70
     0
  9
$USERR1
 40
0.0
  9
$USERR2
 40
0.0
  9
$USERR3
 40
0.0
  9
$USERR4
 40
0.0
  9
$USERR5
 40
0.0
  9
$WORLDVIEW
 70
     1
  9
$SHADEDGE
 70
     3
  9
$SHADEDIF
 70
    70
  9
$TILEMODE
 70
     1
  9
$MAXACTVP
 70
    16
  9
$PINSBASE
 10
0.0
 20
0.0
 30
0.0
  9
$PLIMCHECK
 70
     0
  9
$PEXTMIN
 10
1.000000000000000E+20
 20
1.000000000000000E+20
 30
1.000000000000000E+20
  9
$PEXTMAX
 10
-1.000000000000000E+20
 20
-1.000000000000000E+20
 30
-1.000000000000000E+20
  9
$PLIMMIN
 10
0.0
 20
0.0
  9
$PLIMMAX
 10
12.0
 20
9.0
  9
$UNITMODE
 70
     0
  9
$VISRETAIN
 70
     0
  9
$PLINEGEN
 70
     0
  9
$PSLTSCALE
 70
     0
  9
$TREEDEPTH
 70
  3020
  9
$CMLSTYLE
  2
Standard
  9
$CMLJUST
 70
     0
  9
$CMLSCALE
 40
1.0
  9
$PROXYGRAPHICS
 70
     1
  9
$MEASUREMENT
 70
     0
  9
$CELWEIGHT
370
    -1
  9
$ENDCAPS
280
     0
  9
$JOINSTYLE
280
     0
  9
$LWDISPLAY
290
     0
  9
$INSUNITS
 70
     1
  9
$HYPERLINKBASE
  1

  9
$STYLESHEET
  1

  9
$XEDIT
290
     1
  9
$CEPSNTYPE
380
     0
  9
$PSTYLEMODE
290
     0
  9
$FINGERPRINTGUID
  2
{FAEB1C30-E019-11D5-929B-00C0DF256EC4}
  9
$VERSIONGUID
  2
{FAEB1C32-E019-11D5-929B-00C0DF256EC4}
  9
$EXTNAMES
290
     1
  9
$PSVPSCALE
 40
0.0
  9
$OLESTARTUP
290
     0
  0
ENDSEC
  0
SECTION
  2
CLASSES
  0
CLASS
  1
ACDBDICTIONARYWDFLT
  2
AcDbDictionaryWithDefault
  3
AutoCAD 2000
 90
        0
280
     0
281
     0
  0
CLASS
  1
ACDBPLACEHOLDER
  2
AcDbPlaceHolder
  3
ObjectDBX Classes
 90
        0
280
     0
281
     0
  0
CLASS
  1
LAYOUT
  2
AcDbLayout
  3
ObjectDBX Classes
 90
        0
280
     0
281
     0
  0
ENDSEC
  0
SECTION
  2
TABLES
  0
TABLE
  2
VPORT
  5
8
330
0
100
AcDbSymbolTable
 70
     2
  0
VPORT
  5
1E
330
8
100
AcDbSymbolTableRecord
100
AcDbViewportTableRecord
  2
*ACTIVE
 70
     0
 10
0.0
 20
0.0
 11
1.0
 21
1.0
 12
8.324455205811137
 22
6.0
 13
0.0
 23
0.0
 14
1.0
 24
1.0
 15
0.0
 25
0.0
 16
0.0
 26
0.0
 36
1.0
 17
0.0
 27
0.0
 37
0.0
 40
12.0
 41
0.7207678883071553
 42
50.0
 43
0.0
 44
0.0
 50
0.0
 51
0.0
 71
     0
 72
  2000
 73
     1
 74
     0
 75
     0
 76
     0
 77
     0
 78
     0
281
     0
 65
     1
110
0.0
120
0.0
130
0.0
111
1.0
121
0.0
131
0.0
112
0.0
122
1.0
132
0.0
 79
     0
146
0.0
  0
ENDTAB
  0
TABLE
  2
LTYPE
  5
5
330
0
100
AcDbSymbolTable
 70
     1
  0
LTYPE
  5
10
330
5
100
AcDbSymbolTableRecord
100
AcDbLinetypeTableRecord
  2
ByBlock
 70
     0
  3

 72
    65
 73
     0
 40
0.0
  0
LTYPE
  5
11
330
5
100
AcDbSymbolTableRecord
100
AcDbLinetypeTableRecord
  2
ByLayer
 70
     0
  3

 72
    65
 73
     0
 40
0.0
  0
LTYPE
  5
1B
330
5
100
AcDbSymbolTableRecord
100
AcDbLinetypeTableRecord
  2
CONTINUOUS
 70
     0
  3
Solid line
 72
    65
 73
     0
 40
0.0
  0
ENDTAB
  0
TABLE
  2
LAYER
  5
2
330
0
100
AcDbSymbolTable
 70
     1
  0
LAYER
  5
1C
330
2
100
AcDbSymbolTableRecord
100
AcDbLayerTableRecord
  2
0
 70
     0
 62
     7
  6
CONTINUOUS
370
    -3
390
F
  0
ENDTAB
  0
TABLE
  2
STYLE
  5
3
330
0
100
AcDbSymbolTable
 70
     1
  0
STYLE
  5
20
330
3
100
AcDbSymbolTableRecord
100
AcDbTextStyleTableRecord
  2
STANDARD
 70
     0
 40
0.0
 41
1.0
 50
0.0
 71
     0
 42
0.15
  3
ROMANS
  4

  0
ENDTAB
  0
TABLE
  2
VIEW
  5
6
330
0
100
AcDbSymbolTable
 70
     0
  0
ENDTAB
  0
TABLE
  2
UCS
  5
7
330
0
100
AcDbSymbolTable
 70
     0
  0
ENDTAB
  0
TABLE
  2
APPID
  5
9
330
0
100
AcDbSymbolTable
 70
     1
  0
APPID
  5
1F
330
9
100
AcDbSymbolTableRecord
100
AcDbRegAppTableRecord
  2
ACAD
 70
     0
  0
ENDTAB
  0
TABLE
  2
DIMSTYLE
  5
A
330
0
100
AcDbSymbolTable
 70
     1
100
AcDbDimStyleTable
  0
DIMSTYLE
105
21
330
A
100
AcDbSymbolTableRecord
100
AcDbDimStyleTableRecord
  2
Standard
 70
     0
  3

  4

340
20
  0
ENDTAB
  0
TABLE
  2
BLOCK_RECORD
  5
1
330
0
100
AcDbSymbolTable
 70
     0
  0
BLOCK_RECORD
  5
18
330
1
100
AcDbSymbolTableRecord
100
AcDbBlockTableRecord
  2
*Model_Space
340
19
  0
BLOCK_RECORD
  5
16
330
1
100
AcDbSymbolTableRecord
100
AcDbBlockTableRecord
  2
*Paper_Space
340
17
  0
ENDTAB
  0
ENDSEC
  0
SECTION
  2
BLOCKS
  0
BLOCK
  5
26A
330
18
100
AcDbEntity
  8
0
100
AcDbBlockBegin
  2
*Model_Space
 70
     0
 10
0.0
 20
0.0
 30
0.0
  3
*Model_Space
  1

  4

  0
ENDBLK
  5
26B
330
18
100
AcDbEntity
  8
0
100
AcDbBlockEnd
  0
BLOCK
  5
268
330
16
100
AcDbEntity
 67
     1
  8
0
100
AcDbBlockBegin
  2
*Paper_Space
 70
     0
 10
0.0
 20
0.0
 30
0.0
  3
*Paper_Space
  1

  4

  0
ENDBLK
  5
269
330
16
100
AcDbEntity
 67
     1
  8
0
100
AcDbBlockEnd
  0
ENDSEC
  0
SECTION
  2
ENTITIES
  0
ARC
  5
22
330
18
100
AcDbEntity
  8
0
100
AcDbCircle
 10
2.745
 20
2.074
 30
0.0
 40
0.03
100
AcDbArc
 50
186.436
 51
205.615
  0
ARC
  5
23
330
18
100
AcDbEntity
  8
0
100
AcDbCircle
 10
2.821
 20
2.732
 30
0.0
 40
0.03
100
AcDbArc
 50
76.955
 51
103.603
  0
ARC
  5
24
330
18
100
AcDbEntity
  8
0
100
AcDbCircle
 10
2.752
 20
2.716
 30
0.0
 40
0.03
100
AcDbArc
 50
103.603
 51
129.937
  0
ARC
  5
25
330
18
100
AcDbEntity
  8
0
100
AcDbCircle
 10
2.362
 20
3.659
 30
0.0
 40
0.03
100
AcDbArc
 50
91.98499999999999
 51
99.81200000000001
  0
ARC
  5
26
330
18
100
AcDbEntity
  8
0
100
AcDbCircle
 10
2.383
 20
3.286
 30
0.0
 40
0.03
100
AcDbArc
 50
103.307
 51
123.086
  0
ARC
  5
27
330
18
100
AcDbEntity
  8
0
100
AcDbCircle
 10
2.845
 20
3.346
 30
0.0
 40
0.03
100
AcDbArc
 50
90.839
 51
112.111
  0
LINE
  5
28
330
18
100
AcDbEntity
  8
0
100
AcDbLine
 10
1.981
 20
4.637
 30
0.0
 11
1.981
 21
4.665
 31
0.0
  0
LINE
  5
29
330
18
100
AcDbEntity
  8
0
100
AcDbLine
 10
1.099
 20
1.427
 30
0.0
 11
1.099
 21
4.319
 31
0.0
  0
LINE
  5
2A
330
18
100
AcDbEntity
  8
0
100
AcDbLine
 10
1.099
 20
4.319
 30
0.0
 11
0.379
 21
4.577
 31
0.0
  0
LINE
  5
2B
330
18
100
AcDbEntity
  8
0
100
AcDbLine
 10
0.379
 20
4.577
 30
0.0
 11
0.36
 21
1.794
 31
0.0
  0
LINE
  5
2C
330
18
100
AcDbEntity
  8
0
100
AcDbLine
 10
0.36
 20
1.794
 30
0.0
 11
1.099
 21
1.427
 31
0.0
  0
LINE
  5
2D
330
18
100
AcDbEntity
  8
0
100
AcDbLine
 10
1.099
 20
4.319
 30
0.0
 11
1.303
 21
4.396
 31
0.0
  0
LINE
  5
2E
330
18
100
AcDbEntity
  8
0
100
AcDbLine
 10
3.555
 20
5.251
 30
0.0
 11
3.39
 21
5.289
 31
0.0
  0
LINE
  5
2F
330
18
100
AcDbEntity
  8
0
100
AcDbLine
 10
2.831
 20
5.419
 30
0.0
 11
1.943
 21
5.114
 31
0.0
  0
LINE
  5
30
330
18
100
AcDbEntity
  8
0
100
AcDbLine
 10
3.555
 20
5.251
 30
0.0
 11
3.552
 21
4.422
 31
0.0
  0
LINE
  5
31
330
18
100
AcDbEntity
  8
0
100
AcDbLine
 10
3.544
 20
2.609
 30
0.0
 11
3.065
 21
2.377
 31
0.0
  0
LINE
  5
32
330
18
100
AcDbEntity
  8
0
100
AcDbLine
 10
3.055
 20
5.367000000000001
 30
0.0
 11
3.286
 21
5.376
 31
0.0
  0
LINE
  5
33
330
18
100
AcDbEntity
  8
0
100
AcDbLine
 10
3.286
 20
5.376
 30
0.0
 11
3.151
 21
5.272
 31
0.0
  0
LINE
  5
34
330
18
100
AcDbEntity
  8
0
100
AcDbLine
 10
3.151
 20
5.272
 30
0.0
 11
3.39
 21
5.289
 31
0.0
  0
LINE
  5
35
330
18
100
AcDbEntity
  8
0
100
AcDbLine
 10
3.055
 20
5.367000000000001
 30
0.0
 11
2.831
 21
5.419
 31
0.0
  0
LINE
  5
36
330
18
100
AcDbEntity
  8
0
100
AcDbLine
 10
3.286
 20
5.376
 30
0.0
 11
3.282
 21
5.281000000000001
 31
0.0
  0
LINE
  5
37
330
18
100
AcDbEntity
  8
0
100
AcDbLine
 10
3.258
 20
5.279
 30
0.0
 11
3.235
 21
5.299
 31
0.0
  0
LINE
  5
38
330
18
100
AcDbEntity
  8
0
100
AcDbLine
 10
3.235
 20
5.299
 30
0.0
 11
3.208
 21
5.315
 31
0.0
  0
LINE
  5
39
330
18
100
AcDbEntity
  8
0
100
AcDbLine
 10
1.981
 20
4.665
 30
0.0
 11
2.709
 21
3.825
 31
0.0
  0
LINE
  5
3A
330
18
100
AcDbEntity
  8
0
100
AcDbLine
 10
3.206
 20
4.038
 30
0.0
 11
3.01
 21
4.249
 31
0.0
  0
LINE
  5
3B
330
18
100
AcDbEntity
  8
0
100
AcDbLine
 10
2.462
 20
4.841
 30
0.0
 11
2.252
 21
4.763999999999999
 31
0.0
  0
LINE
  5
3C
330
18
100
AcDbEntity
  8
0
100
AcDbLine
 10
3.044
 20
5.057
 30
0.0
 11
3.555
 21
5.251
 31
0.0
  0
LINE
  5
3D
330
18
100
AcDbEntity
  8
0
100
AcDbLine
 10
2.709
 20
3.825
 30
0.0
 11
2.712
 21
3.429
 31
0.0
  0
LINE
  5
3E
330
18
100
AcDbEntity
  8
0
100
AcDbLine
 10
2.712
 20
3.429
 30
0.0
 11
2.29
 21
3.933
 31
0.0
  0
LINE
  5
3F
330
18
100
AcDbEntity
  8
0
100
AcDbLine
 10
2.712
 20
3.429
 30
0.0
 11
2.903
 21
3.511
 31
0.0
  0
LINE
  5
40
330
18
100
AcDbEntity
  8
0
100
AcDbLine
 10
2.289
 20
3.87
 30
0.0
 11
2.491
 21
3.625
 31
0.0
  0
LINE
  5
41
330
18
100
AcDbEntity
  8
0
100
AcDbLine
 10
2.491
 20
3.625
 30
0.0
 11
2.483
 21
1.384
 31
0.0
  0
LINE
  5
42
330
18
100
AcDbEntity
  8
0
100
AcDbLine
 10
2.491
 20
3.625
 30
0.0
 11
2.533
 21
3.643
 31
0.0
  0
LINE
  5
43
330
18
100
AcDbEntity
  8
0
100
AcDbLine
 10
2.903
 20
3.511
 30
0.0
 11
2.903
 21
1.159
 31
0.0
  0
LINE
  5
44
330
18
100
AcDbEntity
  8
0
100
AcDbLine
 10
2.903
 20
3.511
 30
0.0
 11
2.935
 21
3.708
 31
0.0
  0
LINE
  5
45
330
18
100
AcDbEntity
  8
0
100
AcDbLine
 10
2.935
 20
3.708
 30
0.0
 11
3.019
 21
3.745
 31
0.0
  0
LINE
  5
46
330
18
100
AcDbEntity
  8
0
100
AcDbLine
 10
3.019
 20
3.745
 30
0.0
 11
3.063
 21
3.579
 31
0.0
  0
LINE
  5
47
330
18
100
AcDbEntity
  8
0
100
AcDbLine
 10
3.063
 20
3.579
 30
0.0
 11
3.213
 21
3.643
 31
0.0
  0
LINE
  5
48
330
18
100
AcDbEntity
  8
0
100
AcDbLine
 10
3.063
 20
3.579
 30
0.0
 11
3.066
 21
1.239
 31
0.0
  0
LINE
  5
49
330
18
100
AcDbEntity
  8
0
100
AcDbLine
 10
3.066
 20
1.239
 30
0.0
 11
3.036
 21
1.059
 31
0.0
  0
LINE
  5
4A
330
18
100
AcDbEntity
  8
0
100
AcDbLine
 10
3.036
 20
1.059
 30
0.0
 11
2.956
 21
1.017
 31
0.0
  0
LINE
  5
4B
330
18
100
AcDbEntity
  8
0
100
AcDbLine
 10
2.956
 20
1.017
 30
0.0
 11
2.903
 21
1.159
 31
0.0
  0
LINE
  5
4C
330
18
100
AcDbEntity
  8
0
100
AcDbLine
 10
2.713
 20
0.617
 30
0.0
 11
2.285
 21
1.318
 31
0.0
  0
LINE
  5
4D
330
18
100
AcDbEntity
  8
0
100
AcDbLine
 10
2.713
 20
0.617
 30
0.0
 11
2.696
 21
1.042
 31
0.0
  0
LINE
  5
4E
330
18
100
AcDbEntity
  8
0
100
AcDbLine
 10
2.696
 20
1.042
 30
0.0
 11
2.905
 21
1.155
 31
0.0
  0
LINE
  5
4F
330
18
100
AcDbEntity
  8
0
100
AcDbLine
 10
3.207
 20
1.32
 30
0.0
 11
3.207
 21
0.8859999999999999
 31
0.0
  0
LINE
  5
50
330
18
100
AcDbEntity
  8
0
100
AcDbLine
 10
2.696
 20
1.042
 30
0.0
 11
2.286
 21
1.699
 31
0.0
  0
LINE
  5
51
330
18
100
AcDbEntity
  8
0
100
AcDbLine
 10
3.066
 20
1.243
 30
0.0
 11
3.207
 21
1.32
 31
0.0
  0
LINE
  5
52
330
18
100
AcDbEntity
  8
0
100
AcDbLine
 10
3.207
 20
1.32
 30
0.0
 11
3.066
 21
1.518
 31
0.0
  0
LINE
  5
53
330
18
100
AcDbEntity
  8
0
100
AcDbLine
 10
1.926
 20
1.826
 30
0.0
 11
1.099
 21
1.427
 31
0.0
  0
LINE
  5
54
330
18
100
AcDbEntity
  8
0
100
AcDbLine
 10
2.903
 20
1.159
 30
0.0
 11
2.674
 21
1.507
 31
0.0
  0
LINE
  5
55
330
18
100
AcDbEntity
  8
0
100
AcDbLine
 10
2.674
 20
1.507
 30
0.0
 11
2.678
 21
3.47
 31
0.0
  0
LINE
  5
56
330
18
100
AcDbEntity
  8
0
100
AcDbLine
 10
2.529
 20
3.641
 30
0.0
 11
2.52
 21
1.404
 31
0.0
  0
LINE
  5
57
330
18
100
AcDbEntity
  8
0
100
AcDbLine
 10
2.566
 20
3.603
 30
0.0
 11
2.558
 21
1.425
 31
0.0
  0
LINE
  5
58
330
18
100
AcDbEntity
  8
0
100
AcDbLine
 10
2.603
 20
3.558
 30
0.0
 11
2.595
 21
1.445
 31
0.0
  0
LINE
  5
59
330
18
100
AcDbEntity
  8
0
100
AcDbLine
 10
2.641
 20
3.514
 30
0.0
 11
2.633
 21
1.465
 31
0.0
  0
LINE
  5
5A
330
18
100
AcDbEntity
  8
0
100
AcDbLine
 10
2.709
 20
3.825
 30
0.0
 11
2.95
 21
3.928
 31
0.0
  0
LINE
  5
5B
330
18
100
AcDbEntity
  8
0
100
AcDbLine
 10
2.71
 20
3.785
 30
0.0
 11
2.976
 21
3.899
 31
0.0
  0
LINE
  5
5C
330
18
100
AcDbEntity
  8
0
100
AcDbLine
 10
2.71
 20
3.744
 30
0.0
 11
3.003
 21
3.869
 31
0.0
  0
LINE
  5
5D
330
18
100
AcDbEntity
  8
0
100
AcDbLine
 10
2.71
 20
3.703
 30
0.0
 11
3.029
 21
3.84
 31
0.0
  0
LINE
  5
5E
330
18
100
AcDbEntity
  8
0
100
AcDbLine
 10
2.71
 20
3.663
 30
0.0
 11
3.055
 21
3.81
 31
0.0
  0
LINE
  5
5F
330
18
100
AcDbEntity
  8
0
100
AcDbLine
 10
2.711
 20
3.622
 30
0.0
 11
3.081
 21
3.78
 31
0.0
  0
LINE
  5
60
330
18
100
AcDbEntity
  8
0
100
AcDbLine
 10
2.711
 20
3.581
 30
0.0
 11
2.93
 21
3.675
 31
0.0
  0
LINE
  5
61
330
18
100
AcDbEntity
  8
0
100
AcDbLine
 10
2.711
 20
3.541
 30
0.0
 11
2.923
 21
3.631
 31
0.0
  0
LINE
  5
62
330
18
100
AcDbEntity
  8
0
100
AcDbLine
 10
2.712
 20
3.5
 30
0.0
 11
2.916
 21
3.587
 31
0.0
  0
LINE
  5
63
330
18
100
AcDbEntity
  8
0
100
AcDbLine
 10
2.712
 20
3.459
 30
0.0
 11
2.909
 21
3.544
 31
0.0
  0
LINE
  5
64
330
18
100
AcDbEntity
  8
0
100
AcDbLine
 10
3.056
 20
3.607
 30
0.0
 11
3.186
 21
3.662
 31
0.0
  0
LINE
  5
65
330
18
100
AcDbEntity
  8
0
100
AcDbLine
 10
3.046
 20
3.643
 30
0.0
 11
3.16
 21
3.692
 31
0.0
  0
LINE
  5
66
330
18
100
AcDbEntity
  8
0
100
AcDbLine
 10
3.037
 20
3.68
 30
0.0
 11
3.133
 21
3.721
 31
0.0
  0
LINE
  5
67
330
18
100
AcDbEntity
  8
0
100
AcDbLine
 10
3.027
 20
3.716
 30
0.0
 11
3.107
 21
3.751
 31
0.0
  0
LINE
  5
68
330
18
100
AcDbEntity
  8
0
100
AcDbLine
 10
2.713
 20
0.617
 30
0.0
 11
3.207
 21
0.8859999999999999
 31
0.0
  0
LINE
  5
69
330
18
100
AcDbEntity
  8
0
100
AcDbLine
 10
2.711
 20
0.66
 30
0.0
 11
3.207
 21
0.9300000000000001
 31
0.0
  0
LINE
  5
6A
330
18
100
AcDbEntity
  8
0
100
AcDbLine
 10
2.709
 20
0.7020000000000001
 30
0.0
 11
3.207
 21
0.973
 31
0.0
  0
LINE
  5
6B
330
18
100
AcDbEntity
  8
0
100
AcDbLine
 10
2.708
 20
0.7440000000000001
 30
0.0
 11
3.207
 21
1.016
 31
0.0
  0
LINE
  5
6C
330
18
100
AcDbEntity
  8
0
100
AcDbLine
 10
2.706
 20
0.785
 30
0.0
 11
3.207
 21
1.058
 31
0.0
  0
LINE
  5
6D
330
18
100
AcDbEntity
  8
0
100
AcDbLine
 10
2.704
 20
0.8270000000000001
 30
0.0
 11
3.207
 21
1.101
 31
0.0
  0
LINE
  5
6E
330
18
100
AcDbEntity
  8
0
100
AcDbLine
 10
2.703
 20
0.8690000000000001
 30
0.0
 11
3.207
 21
1.143
 31
0.0
  0
LINE
  5
6F
330
18
100
AcDbEntity
  8
0
100
AcDbLine
 10
2.701
 20
0.9109999999999999
 30
0.0
 11
2.946
 21
1.044
 31
0.0
  0
LINE
  5
70
330
18
100
AcDbEntity
  8
0
100
AcDbLine
 10
2.7
 20
0.953
 30
0.0
 11
2.933
 21
1.08
 31
0.0
  0
LINE
  5
71
330
18
100
AcDbEntity
  8
0
100
AcDbLine
 10
2.698
 20
0.995
 30
0.0
 11
2.919
 21
1.115
 31
0.0
  0
LINE
  5
72
330
18
100
AcDbEntity
  8
0
100
AcDbLine
 10
3.042
 20
1.096
 30
0.0
 11
3.207
 21
1.186
 31
0.0
  0
LINE
  5
73
330
18
100
AcDbEntity
  8
0
100
AcDbLine
 10
3.05
 20
1.143
 30
0.0
 11
3.207
 21
1.229
 31
0.0
  0
LINE
  5
74
330
18
100
AcDbEntity
  8
0
100
AcDbLine
 10
3.058
 20
1.19
 30
0.0
 11
3.207
 21
1.271
 31
0.0
  0
LINE
  5
75
330
18
100
AcDbEntity
  8
0
100
AcDbLine
 10
2.937
 20
3.709
 30
0.0
 11
2.937
 21
1.068
 31
0.0
  0
LINE
  5
76
330
18
100
AcDbEntity
  8
0
100
AcDbLine
 10
2.968
 20
3.723
 30
0.0
 11
2.968
 21
1.024
 31
0.0
  0
LINE
  5
77
330
18
100
AcDbEntity
  8
0
100
AcDbLine
 10
3.0
 20
3.737
 30
0.0
 11
2.999
 21
1.04
 31
0.0
  0
LINE
  5
78
330
18
100
AcDbEntity
  8
0
100
AcDbLine
 10
3.031
 20
3.701
 30
0.0
 11
3.031
 21
1.056
 31
0.0
  0
LINE
  5
79
330
18
100
AcDbEntity
  8
0
100
AcDbLine
 10
2.483
 20
1.384
 30
0.0
 11
2.683
 21
1.493
 31
0.0
  0
LINE
  5
7A
330
18
100
AcDbEntity
  8
0
100
AcDbLine
 10
2.253
 20
4.251
 30
0.0
 11
2.247
 21
1.305
 31
0.0
  0
LINE
  5
7B
330
18
100
AcDbEntity
  8
0
100
AcDbLine
 10
2.321
 20
1.26
 30
0.0
 11
2.313
 21
1.257
 31
0.0
  0
ARC
  5
7C
330
18
100
AcDbEntity
  8
0
100
AcDbCircle
 10
2.297
 20
1.305
 30
0.0
 40
0.05
100
AcDbArc
 50
179.899
 51
288.183
  0
LINE
  5
7D
330
18
100
AcDbEntity
  8
0
100
AcDbLine
 10
2.29
 20
4.267
 30
0.0
 11
2.285
 21
1.318
 31
0.0
  0
LINE
  5
7E
330
18
100
AcDbEntity
  8
0
100
AcDbLine
 10
1.981
 20
4.637
 30
0.0
 11
2.29
 21
4.267
 31
0.0
  0
LINE
  5
7F
330
18
100
AcDbEntity
  8
0
100
AcDbLine
 10
2.253
 20
4.251
 30
0.0
 11
2.29
 21
4.267
 31
0.0
  0
LINE
  5
80
330
18
100
AcDbEntity
  8
0
100
AcDbLine
 10
1.943
 20
4.622
 30
0.0
 11
2.253
 21
4.251
 31
0.0
  0
LINE
  5
81
330
18
100
AcDbEntity
  8
0
100
AcDbLine
 10
1.923
 20
4.615
 30
0.0
 11
1.923
 21
4.544
 31
0.0
  0
LINE
  5
82
330
18
100
AcDbEntity
  8
0
100
AcDbLine
 10
1.981
 20
4.637
 30
0.0
 11
1.923
 21
4.615
 31
0.0
  0
LINE
  5
83
330
18
100
AcDbEntity
  8
0
100
AcDbLine
 10
1.92
 20
1.836
 30
0.0
 11
2.255
 21
1.279
 31
0.0
  0
LINE
  5
84
330
18
100
AcDbEntity
  8
0
100
AcDbLine
 10
1.355
 20
3.782
 30
0.0
 11
1.923
 21
4.018
 31
0.0
  0
LINE
  5
85
330
18
100
AcDbEntity
  8
0
100
AcDbLine
 10
1.355
 20
3.782
 30
0.0
 11
1.353
 21
4.381
 31
0.0
  0
LINE
  5
86
330
18
100
AcDbEntity
  8
0
100
AcDbLine
 10
0.865
 20
4.572
 30
0.0
 11
1.318
 21
4.428999999999999
 31
0.0
  0
ARC
  5
87
330
18
100
AcDbEntity
  8
0
100
AcDbCircle
 10
1.303
 20
4.381
 30
0.0
 40
0.05
100
AcDbArc
 50
0.211
 51
72.482
  0
LINE
  5
88
330
18
100
AcDbEntity
  8
0
100
AcDbLine
 10
0.865
 20
4.572
 30
0.0
 11
1.692
 21
4.872
 31
0.0
  0
LINE
  5
89
330
18
100
AcDbEntity
  8
0
100
AcDbLine
 10
2.564
 20
5.189
 30
0.0
 11
3.019
 21
5.072
 31
0.0
  0
LINE
  5
8A
330
18
100
AcDbEntity
  8
0
100
AcDbLine
 10
3.066
 20
4.497
 30
0.0
 11
3.065
 21
4.513999999999999
 31
0.0
  0
LINE
  5
8B
330
18
100
AcDbEntity
  8
0
100
AcDbLine
 10
3.066
 20
4.497
 30
0.0
 11
2.862
 21
4.409
 31
0.0
  0
LINE
  5
8C
330
18
100
AcDbEntity
  8
0
100
AcDbLine
 10
1.317
 20
3.796
 30
0.0
 11
1.315
 21
4.372
 31
0.0
  0
LINE
  5
8D
330
18
100
AcDbEntity
  8
0
100
AcDbLine
 10
0.865
 20
4.532
 30
0.0
 11
1.298
 21
4.396
 31
0.0
  0
LINE
  5
8E
330
18
100
AcDbEntity
  8
0
100
AcDbLine
 10
1.355
 20
3.782
 30
0.0
 11
1.317
 21
3.796
 31
0.0
  0
ARC
  5
8F
330
18
100
AcDbEntity
  8
0
100
AcDbCircle
 10
1.29
 20
4.372
 30
0.0
 40
0.025
100
AcDbArc
 50
0.211
 51
72.482
  0
LINE
  5
90
330
18
100
AcDbEntity
  8
0
100
AcDbLine
 10
0.865
 20
4.532
 30
0.0
 11
0.865
 21
4.572
 31
0.0
  0
ARC
  5
91
330
18
100
AcDbEntity
  8
0
100
AcDbCircle
 10
3.007
 20
5.023
 30
0.0
 40
0.05
100
AcDbArc
 50
0.968
 51
75.486
  0
LINE
  5
92
330
18
100
AcDbEntity
  8
0
100
AcDbLine
 10
1.448
 20
4.504
 30
0.0
 11
2.131
 21
4.759
 31
0.0
  0
LINE
  5
93
330
18
100
AcDbEntity
  8
0
100
AcDbLine
 10
1.494
 20
4.472
 30
0.0
 11
1.827
 21
4.596
 31
0.0
  0
LINE
  5
94
330
18
100
AcDbEntity
  8
0
100
AcDbLine
 10
2.583
 20
4.878
 30
0.0
 11
2.801
 21
4.96
 31
0.0
  0
LINE
  5
95
330
18
100
AcDbEntity
  8
0
100
AcDbLine
 10
1.923
 20
4.044
 30
0.0
 11
1.92
 21
1.836
 31
0.0
  0
ARC
  5
96
330
18
100
AcDbEntity
  8
0
100
AcDbCircle
 10
1.919
 20
4.483000000000001
 30
0.0
 40
0.062
100
AcDbArc
 50
41.021
 51
131.021
  0
ARC
  5
97
330
18
100
AcDbEntity
  8
0
100
AcDbCircle
 10
1.919
 20
4.433
 30
0.0
 40
0.062
100
AcDbArc
 50
41.021
 51
131.021
  0
ARC
  5
98
330
18
100
AcDbEntity
  8
0
100
AcDbCircle
 10
1.919
 20
4.383
 30
0.0
 40
0.062
100
AcDbArc
 50
41.021
 51
131.021
  0
ARC
  5
99
330
18
100
AcDbEntity
  8
0
100
AcDbCircle
 10
1.919
 20
4.333
 30
0.0
 40
0.062
100
AcDbArc
 50
41.021
 51
131.021
  0
ARC
  5
9A
330
18
100
AcDbEntity
  8
0
100
AcDbCircle
 10
1.919
 20
4.283
 30
0.0
 40
0.062
100
AcDbArc
 50
41.021
 51
131.021
  0
ARC
  5
9B
330
18
100
AcDbEntity
  8
0
100
AcDbCircle
 10
1.919
 20
4.233000000000001
 30
0.0
 40
0.062
100
AcDbArc
 50
41.021
 51
131.021
  0
ARC
  5
9C
330
18
100
AcDbEntity
  8
0
100
AcDbCircle
 10
1.919
 20
4.183
 30
0.0
 40
0.062
100
AcDbArc
 50
41.021
 51
131.021
  0
ARC
  5
9D
330
18
100
AcDbEntity
  8
0
100
AcDbCircle
 10
1.918
 20
4.133
 30
0.0
 40
0.062
100
AcDbArc
 50
41.021
 51
131.021
  0
ARC
  5
9E
330
18
100
AcDbEntity
  8
0
100
AcDbCircle
 10
1.918
 20
4.083
 30
0.0
 40
0.062
100
AcDbArc
 50
41.021
 51
131.021
  0
ARC
  5
9F
330
18
100
AcDbEntity
  8
0
100
AcDbCircle
 10
1.918
 20
4.033
 30
0.0
 40
0.062
100
AcDbArc
 50
41.021
 51
131.021
  0
ARC
  5
A0
330
18
100
AcDbEntity
  8
0
100
AcDbCircle
 10
1.918
 20
3.983
 30
0.0
 40
0.062
100
AcDbArc
 50
41.021
 51
131.021
  0
LINE
  5
A1
330
18
100
AcDbEntity
  8
0
100
AcDbLine
 10
1.846
 20
5.223
 30
0.0
 11
3.846
 21
2.958
 31
0.0
  0
LINE
  5
A2
330
18
100
AcDbEntity
  8
0
100
AcDbLine
 10
1.11
 20
5.038
 30
0.0
 11
3.871
 21
4.342
 31
0.0
  0
LINE
  5
A3
330
18
100
AcDbEntity
  8
0
100
AcDbLine
 10
2.268
 20
4.746
 30
0.0
 11
4.074
 21
3.598
 31
0.0
  0
LINE
  5
A4
330
18
100
AcDbEntity
  8
0
100
AcDbLine
 10
1.723
 20
4.883
 30
0.0
 11
2.013
 21
4.989
 31
0.0
  0
LINE
  5
A5
330
18
100
AcDbEntity
  8
0
100
AcDbLine
 10
2.043
 20
5.0
 30
0.0
 11
2.564
 21
5.189
 31
0.0
  0
LINE
  5
A6
330
18
100
AcDbEntity
  8
0
100
AcDbLine
 10
2.225
 20
4.794
 30
0.0
 11
2.755
 21
4.992
 31
0.0
  0
LINE
  5
A7
330
18
100
AcDbEntity
  8
0
100
AcDbLine
 10
2.165
 20
4.772
 30
0.0
 11
2.197
 21
4.784
 31
0.0
  0
LINE
  5
A8
330
18
100
AcDbEntity
  8
0
100
AcDbLine
 10
2.636
 20
4.653000000000001
 30
0.0
 11
2.462
 21
4.841
 31
0.0
  0
LINE
  5
A9
330
18
100
AcDbEntity
  8
0
100
AcDbLine
 10
3.065
 20
4.545
 30
0.0
 11
3.057
 21
5.024
 31
0.0
  0
LINE
  5
AA
330
18
100
AcDbEntity
  8
0
100
AcDbLine
 10
1.917
 20
5.105
 30
0.0
 11
1.463
 21
4.949
 31
0.0
  0
LINE
  5
AB
330
18
100
AcDbEntity
  8
0
100
AcDbLine
 10
1.428
 20
4.937
 30
0.0
 11
0.379
 21
4.577
 31
0.0
  0
LINE
  5
AC
330
18
100
AcDbEntity
  8
0
100
AcDbLine
 10
2.206
 20
4.747
 30
0.0
 11
1.981
 21
4.665
 31
0.0
  0
LINE
  5
AD
330
18
100
AcDbEntity
  8
0
100
AcDbLine
 10
2.953
 20
4.31
 30
0.0
 11
2.663
 21
4.624
 31
0.0
  0
LINE
  5
AE
330
18
100
AcDbEntity
  8
0
100
AcDbLine
 10
2.979
 20
3.941
 30
0.0
 11
3.206
 21
4.038
 31
0.0
  0
LINE
  5
AF
330
18
100
AcDbEntity
  8
0
100
AcDbLine
 10
3.005
 20
3.911
 30
0.0
 11
3.207
 21
3.997
 31
0.0
  0
LINE
  5
B0
330
18
100
AcDbEntity
  8
0
100
AcDbLine
 10
3.031
 20
3.881
 30
0.0
 11
3.207
 21
3.957
 31
0.0
  0
LINE
  5
B1
330
18
100
AcDbEntity
  8
0
100
AcDbLine
 10
3.057
 20
3.852
 30
0.0
 11
3.208
 21
3.916
 31
0.0
  0
LINE
  5
B2
330
18
100
AcDbEntity
  8
0
100
AcDbLine
 10
3.083
 20
3.822
 30
0.0
 11
3.209
 21
3.876
 31
0.0
  0
LINE
  5
B3
330
18
100
AcDbEntity
  8
0
100
AcDbLine
 10
3.11
 20
3.793
 30
0.0
 11
3.21
 21
3.835
 31
0.0
  0
LINE
  5
B4
330
18
100
AcDbEntity
  8
0
100
AcDbLine
 10
3.136
 20
3.763
 30
0.0
 11
3.21
 21
3.795
 31
0.0
  0
LINE
  5
B5
330
18
100
AcDbEntity
  8
0
100
AcDbLine
 10
3.162
 20
3.733
 30
0.0
 11
3.211
 21
3.754
 31
0.0
  0
LINE
  5
B6
330
18
100
AcDbEntity
  8
0
100
AcDbLine
 10
3.188
 20
3.704
 30
0.0
 11
3.212
 21
3.714
 31
0.0
  0
LINE
  5
B7
330
18
100
AcDbEntity
  8
0
100
AcDbLine
 10
3.213
 20
3.676
 30
0.0
 11
3.206
 21
4.038
 31
0.0
  0
LINE
  5
B8
330
18
100
AcDbEntity
  8
0
100
AcDbLine
 10
3.547
 20
3.261
 30
0.0
 11
3.544
 21
2.609
 31
0.0
  0
ARC
  5
B9
330
18
100
AcDbEntity
  8
0
100
AcDbCircle
 10
3.43
 20
6.575
 30
0.0
 40
2.81
100
AcDbArc
 50
277.124
 51
298.776
  0
ARC
  5
BA
330
18
100
AcDbEntity
  8
0
100
AcDbCircle
 10
2.949
 20
3.721
 30
0.0
 40
1.013
100
AcDbArc
 50
320.997
 51
357.129
  0
SOLID
  5
BB
330
18
100
AcDbEntity
  8
0
100
AcDbTrace
 10
3.923
 20
3.549
 30
0.0
 11
3.964
 21
3.543
 31
0.0
 12
3.961
 22
3.67
 32
0.0
 13
3.961
 23
3.67
 33
0.0
  0
SOLID
  5
BC
330
18
100
AcDbEntity
  8
0
100
AcDbTrace
 10
3.827
 20
3.171
 30
0.0
 11
3.794
 21
3.196
 31
0.0
 12
3.736
 22
3.083
 32
0.0
 13
3.736
 23
3.083
 33
0.0
  0
SOLID
  5
BD
330
18
100
AcDbEntity
  8
0
100
AcDbTrace
 10
3.905
 20
3.789
 30
0.0
 11
3.897
 21
3.83
 31
0.0
 12
3.778
 22
3.786
 32
0.0
 13
3.778
 23
3.786
 33
0.0
  0
SOLID
  5
BE
330
18
100
AcDbEntity
  8
0
100
AcDbTrace
 10
4.662
 20
4.072
 30
0.0
 11
4.681
 21
4.035
 31
0.0
 12
4.782
 22
4.112
 32
0.0
 13
4.782
 23
4.112
 33
0.0
  0
LINE
  5
BF
330
18
100
AcDbEntity
  8
0
100
AcDbLine
 10
3.549
 20
3.872
 30
0.0
 11
3.547
 21
3.298
 31
0.0
  0
LINE
  5
C0
330
18
100
AcDbEntity
  8
0
100
AcDbLine
 10
3.551
 20
4.368
 30
0.0
 11
3.55
 21
3.931
 31
0.0
  0
TEXT
  5
C1
330
18
100
AcDbEntity
  8
0
100
AcDbText
 10
4.406000000000001
 20
3.714
 30
0.0
 40
0.2
  1
SKEW
 41
0.8
100
AcDbText
  0
TEXT
  5
C2
330
18
100
AcDbEntity
  8
0
100
AcDbText
 10
4.409
 20
3.46
 30
0.0
 40
0.2
  1
ANGLE
 41
0.8
100
AcDbText
  0
TEXT
  5
C3
330
18
100
AcDbEntity
  8
0
100
AcDbText
 10
3.933
 20
3.136
 30
0.0
 40
0.2
  1
SLOPE
 41
0.8
100
AcDbText
  0
TEXT
  5
C4
330
18
100
AcDbEntity
  8
0
100
AcDbText
 10
3.936
 20
2.882
 30
0.0
 40
0.2
  1
ANGLE
 41
0.8
100
AcDbText
  0
TEXT
  5
C5
330
18
100
AcDbEntity
  8
0
100
AcDbText
 10
3.968
 20
4.21
 30
0.0
 40
0.2
  1
C
100
AcDbText
  0
TEXT
  5
C6
330
18
100
AcDbEntity
  8
0
100
AcDbText
 10
4.043
 20
4.115
 30
0.0
 40
0.2
  1
L
100
AcDbText
  0
LINE
  5
C7
330
18
100
AcDbEntity
  8
0
100
AcDbLine
 10
4.281000000000001
 20
4.238
 30
0.0
 11
4.988
 21
4.06
 31
0.0
  0
TEXT
  5
C8
330
18
100
AcDbEntity
  8
0
100
AcDbText
 10
0.900523
 20
4.958531
 30
0.0
 40
0.2
  1
L
100
AcDbText
  0
TEXT
  5
C9
330
18
100
AcDbEntity
  8
0
100
AcDbText
 10
0.8338180000000001
 20
5.058505
 30
0.0
 40
0.2
  1
C
100
AcDbText
  0
LINE
  5
CA
330
18
100
AcDbEntity
  8
0
100
AcDbLine
 10
0.652
 20
4.479
 30
0.0
 11
0.7140000000000001
 21
4.367
 31
0.0
  0
LINE
  5
CB
330
18
100
AcDbEntity
  8
0
100
AcDbLine
 10
0.7140000000000001
 20
4.367
 30
0.0
 11
0.851
 21
4.097
 31
0.0
  0
LINE
  5
CC
330
18
100
AcDbEntity
  8
0
100
AcDbLine
 10
0.851
 20
4.097
 30
0.0
 11
1.006
 21
3.789
 31
0.0
  0
LINE
  5
CD
330
18
100
AcDbEntity
  8
0
100
AcDbLine
 10
1.006
 20
3.789
 30
0.0
 11
1.099
 21
3.595
 31
0.0
  0
LINE
  5
CE
330
18
100
AcDbEntity
  8
0
100
AcDbLine
 10
0.843
 20
4.411000000000001
 30
0.0
 11
0.88
 21
4.354
 31
0.0
  0
LINE
  5
CF
330
18
100
AcDbEntity
  8
0
100
AcDbLine
 10
0.88
 20
4.354
 30
0.0
 11
0.972
 21
4.178
 31
0.0
  0
LINE
  5
D0
330
18
100
AcDbEntity
  8
0
100
AcDbLine
 10
0.972
 20
4.178
 30
0.0
 11
1.039
 21
4.047
 31
0.0
  0
LINE
  5
D1
330
18
100
AcDbEntity
  8
0
100
AcDbLine
 10
1.039
 20
4.047
 30
0.0
 11
1.099
 21
3.91
 31
0.0
  0
LINE
  5
D2
330
18
100
AcDbEntity
  8
0
100
AcDbLine
 10
0.955
 20
4.371
 30
0.0
 11
0.9740000000000001
 21
4.345
 31
0.0
  0
LINE
  5
D3
330
18
100
AcDbEntity
  8
0
100
AcDbLine
 10
0.9740000000000001
 20
4.345
 30
0.0
 11
1.068
 21
4.197
 31
0.0
  0
LINE
  5
D4
330
18
100
AcDbEntity
  8
0
100
AcDbLine
 10
1.068
 20
4.197
 30
0.0
 11
1.099
 21
4.136
 31
0.0
  0
LINE
  5
D5
330
18
100
AcDbEntity
  8
0
100
AcDbLine
 10
0.378
 20
4.388999999999999
 30
0.0
 11
0.454
 21
4.31
 31
0.0
  0
LINE
  5
D6
330
18
100
AcDbEntity
  8
0
100
AcDbLine
 10
0.454
 20
4.31
 30
0.0
 11
0.546
 21
4.175
 31
0.0
  0
LINE
  5
D7
330
18
100
AcDbEntity
  8
0
100
AcDbLine
 10
0.546
 20
4.175
 30
0.0
 11
0.63
 21
4.049
 31
0.0
  0
LINE
  5
D8
330
18
100
AcDbEntity
  8
0
100
AcDbLine
 10
0.63
 20
4.049
 30
0.0
 11
0.7170000000000001
 21
3.917
 31
0.0
  0
LINE
  5
D9
330
18
100
AcDbEntity
  8
0
100
AcDbLine
 10
0.7170000000000001
 20
3.917
 30
0.0
 11
0.7979999999999999
 21
3.789
 31
0.0
  0
LINE
  5
DA
330
18
100
AcDbEntity
  8
0
100
AcDbLine
 10
0.7979999999999999
 20
3.789
 30
0.0
 11
0.8809999999999999
 21
3.651
 31
0.0
  0
LINE
  5
DB
330
18
100
AcDbEntity
  8
0
100
AcDbLine
 10
0.8809999999999999
 20
3.651
 30
0.0
 11
0.9540000000000001
 21
3.516
 31
0.0
  0
LINE
  5
DC
330
18
100
AcDbEntity
  8
0
100
AcDbLine
 10
0.9540000000000001
 20
3.516
 30
0.0
 11
1.014
 21
3.379
 31
0.0
  0
LINE
  5
DD
330
18
100
AcDbEntity
  8
0
100
AcDbLine
 10
1.014
 20
3.379
 30
0.0
 11
1.071
 21
3.235
 31
0.0
  0
LINE
  5
DE
330
18
100
AcDbEntity
  8
0
100
AcDbLine
 10
1.071
 20
3.235
 30
0.0
 11
1.099
 21
3.164
 31
0.0
  0
LINE
  5
DF
330
18
100
AcDbEntity
  8
0
100
AcDbLine
 10
0.377
 20
4.233000000000001
 30
0.0
 11
0.433
 21
4.156000000000001
 31
0.0
  0
LINE
  5
E0
330
18
100
AcDbEntity
  8
0
100
AcDbLine
 10
0.433
 20
4.156000000000001
 30
0.0
 11
0.499
 21
4.022
 31
0.0
  0
LINE
  5
E1
330
18
100
AcDbEntity
  8
0
100
AcDbLine
 10
0.499
 20
4.022
 30
0.0
 11
0.5710000000000001
 21
3.883
 31
0.0
  0
LINE
  5
E2
330
18
100
AcDbEntity
  8
0
100
AcDbLine
 10
0.5710000000000001
 20
3.883
 30
0.0
 11
0.65
 21
3.735
 31
0.0
  0
LINE
  5
E3
330
18
100
AcDbEntity
  8
0
100
AcDbLine
 10
0.65
 20
3.735
 30
0.0
 11
0.731
 21
3.599
 31
0.0
  0
LINE
  5
E4
330
18
100
AcDbEntity
  8
0
100
AcDbLine
 10
0.731
 20
3.599
 30
0.0
 11
0.8120000000000001
 21
3.467
 31
0.0
  0
LINE
  5
E5
330
18
100
AcDbEntity
  8
0
100
AcDbLine
 10
0.8120000000000001
 20
3.467
 30
0.0
 11
0.8859999999999999
 21
3.336
 31
0.0
  0
LINE
  5
E6
330
18
100
AcDbEntity
  8
0
100
AcDbLine
 10
0.8859999999999999
 20
3.336
 30
0.0
 11
0.9590000000000001
 21
3.197
 31
0.0
  0
LINE
  5
E7
330
18
100
AcDbEntity
  8
0
100
AcDbLine
 10
0.9590000000000001
 20
3.197
 30
0.0
 11
1.02
 21
3.045
 31
0.0
  0
LINE
  5
E8
330
18
100
AcDbEntity
  8
0
100
AcDbLine
 10
1.02
 20
3.045
 30
0.0
 11
1.067
 21
2.894
 31
0.0
  0
LINE
  5
E9
330
18
100
AcDbEntity
  8
0
100
AcDbLine
 10
1.067
 20
2.894
 30
0.0
 11
1.099
 21
2.787
 31
0.0
  0
LINE
  5
EA
330
18
100
AcDbEntity
  8
0
100
AcDbLine
 10
0.376
 20
4.066
 30
0.0
 11
0.4370000000000001
 21
3.976
 31
0.0
  0
LINE
  5
EB
330
18
100
AcDbEntity
  8
0
100
AcDbLine
 10
0.4370000000000001
 20
3.976
 30
0.0
 11
0.506
 21
3.84
 31
0.0
  0
LINE
  5
EC
330
18
100
AcDbEntity
  8
0
100
AcDbLine
 10
0.506
 20
3.84
 30
0.0
 11
0.578
 21
3.699
 31
0.0
  0
LINE
  5
ED
330
18
100
AcDbEntity
  8
0
100
AcDbLine
 10
0.578
 20
3.699
 30
0.0
 11
0.6559999999999999
 21
3.555
 31
0.0
  0
LINE
  5
EE
330
18
100
AcDbEntity
  8
0
100
AcDbLine
 10
0.6559999999999999
 20
3.555
 30
0.0
 11
0.731
 21
3.425
 31
0.0
  0
LINE
  5
EF
330
18
100
AcDbEntity
  8
0
100
AcDbLine
 10
0.731
 20
3.425
 30
0.0
 11
0.8079999999999999
 21
3.28
 31
0.0
  0
LINE
  5
F0
330
18
100
AcDbEntity
  8
0
100
AcDbLine
 10
0.8079999999999999
 20
3.28
 30
0.0
 11
0.8740000000000001
 21
3.137
 31
0.0
  0
LINE
  5
F1
330
18
100
AcDbEntity
  8
0
100
AcDbLine
 10
0.8740000000000001
 20
3.137
 30
0.0
 11
0.9350000000000001
 21
2.982
 31
0.0
  0
LINE
  5
F2
330
18
100
AcDbEntity
  8
0
100
AcDbLine
 10
0.9350000000000001
 20
2.982
 30
0.0
 11
0.983
 21
2.826
 31
0.0
  0
LINE
  5
F3
330
18
100
AcDbEntity
  8
0
100
AcDbLine
 10
0.983
 20
2.826
 30
0.0
 11
1.022
 21
2.667
 31
0.0
  0
LINE
  5
F4
330
18
100
AcDbEntity
  8
0
100
AcDbLine
 10
1.022
 20
2.667
 30
0.0
 11
1.058
 21
2.515
 31
0.0
  0
LINE
  5
F5
330
18
100
AcDbEntity
  8
0
100
AcDbLine
 10
1.058
 20
2.515
 30
0.0
 11
1.087
 21
2.363
 31
0.0
  0
LINE
  5
F6
330
18
100
AcDbEntity
  8
0
100
AcDbLine
 10
1.087
 20
2.363
 30
0.0
 11
1.099
 21
2.315
 31
0.0
  0
LINE
  5
F7
330
18
100
AcDbEntity
  8
0
100
AcDbLine
 10
1.099
 20
1.809
 30
0.0
 11
1.071
 21
1.889
 31
0.0
  0
LINE
  5
F8
330
18
100
AcDbEntity
  8
0
100
AcDbLine
 10
1.071
 20
1.889
 30
0.0
 11
1.048
 21
2.042
 31
0.0
  0
LINE
  5
F9
330
18
100
AcDbEntity
  8
0
100
AcDbLine
 10
1.048
 20
2.042
 30
0.0
 11
1.029
 21
2.201
 31
0.0
  0
LINE
  5
FA
330
18
100
AcDbEntity
  8
0
100
AcDbLine
 10
1.029
 20
2.201
 30
0.0
 11
0.9990000000000001
 21
2.365
 31
0.0
  0
LINE
  5
FB
330
18
100
AcDbEntity
  8
0
100
AcDbLine
 10
0.9990000000000001
 20
2.365
 30
0.0
 11
0.956
 21
2.524
 31
0.0
  0
LINE
  5
FC
330
18
100
AcDbEntity
  8
0
100
AcDbLine
 10
0.956
 20
2.524
 30
0.0
 11
0.91
 21
2.68
 31
0.0
  0
LINE
  5
FD
330
18
100
AcDbEntity
  8
0
100
AcDbLine
 10
0.91
 20
2.68
 30
0.0
 11
0.8690000000000001
 21
2.826
 31
0.0
  0
LINE
  5
FE
330
18
100
AcDbEntity
  8
0
100
AcDbLine
 10
0.8690000000000001
 20
2.826
 30
0.0
 11
0.8190000000000001
 21
2.976
 31
0.0
  0
LINE
  5
FF
330
18
100
AcDbEntity
  8
0
100
AcDbLine
 10
0.8190000000000001
 20
2.976
 30
0.0
 11
0.759
 21
3.121
 31
0.0
  0
LINE
  5
100
330
18
100
AcDbEntity
  8
0
100
AcDbLine
 10
0.759
 20
3.121
 30
0.0
 11
0.696
 21
3.264
 31
0.0
  0
LINE
  5
101
330
18
100
AcDbEntity
  8
0
100
AcDbLine
 10
0.696
 20
3.264
 30
0.0
 11
0.633
 21
3.404
 31
0.0
  0
LINE
  5
102
330
18
100
AcDbEntity
  8
0
100
AcDbLine
 10
0.633
 20
3.404
 30
0.0
 11
0.564
 21
3.549
 31
0.0
  0
LINE
  5
103
330
18
100
AcDbEntity
  8
0
100
AcDbLine
 10
0.564
 20
3.549
 30
0.0
 11
0.485
 21
3.693
 31
0.0
  0
LINE
  5
104
330
18
100
AcDbEntity
  8
0
100
AcDbLine
 10
0.485
 20
3.693
 30
0.0
 11
0.415
 21
3.826
 31
0.0
  0
LINE
  5
105
330
18
100
AcDbEntity
  8
0
100
AcDbLine
 10
0.415
 20
3.826
 30
0.0
 11
0.374
 21
3.898
 31
0.0
  0
LINE
  5
106
330
18
100
AcDbEntity
  8
0
100
AcDbLine
 10
0.373
 20
3.648
 30
0.0
 11
0.399
 21
3.607
 31
0.0
  0
LINE
  5
107
330
18
100
AcDbEntity
  8
0
100
AcDbLine
 10
0.399
 20
3.607
 30
0.0
 11
0.484
 21
3.47
 31
0.0
  0
LINE
  5
108
330
18
100
AcDbEntity
  8
0
100
AcDbLine
 10
0.484
 20
3.47
 30
0.0
 11
0.5520000000000001
 21
3.321
 31
0.0
  0
LINE
  5
109
330
18
100
AcDbEntity
  8
0
100
AcDbLine
 10
0.5520000000000001
 20
3.321
 30
0.0
 11
0.61
 21
3.176
 31
0.0
  0
LINE
  5
10A
330
18
100
AcDbEntity
  8
0
100
AcDbLine
 10
0.61
 20
3.176
 30
0.0
 11
0.6629999999999999
 21
3.029
 31
0.0
  0
LINE
  5
10B
330
18
100
AcDbEntity
  8
0
100
AcDbLine
 10
0.6629999999999999
 20
3.029
 30
0.0
 11
0.721
 21
2.874
 31
0.0
  0
LINE
  5
10C
330
18
100
AcDbEntity
  8
0
100
AcDbLine
 10
0.721
 20
2.874
 30
0.0
 11
0.77
 21
2.732
 31
0.0
  0
LINE
  5
10D
330
18
100
AcDbEntity
  8
0
100
AcDbLine
 10
0.77
 20
2.732
 30
0.0
 11
0.8170000000000001
 21
2.585
 31
0.0
  0
LINE
  5
10E
330
18
100
AcDbEntity
  8
0
100
AcDbLine
 10
0.8170000000000001
 20
2.585
 30
0.0
 11
0.862
 21
2.438
 31
0.0
  0
LINE
  5
10F
330
18
100
AcDbEntity
  8
0
100
AcDbLine
 10
0.862
 20
2.438
 30
0.0
 11
0.909
 21
2.272
 31
0.0
  0
LINE
  5
110
330
18
100
AcDbEntity
  8
0
100
AcDbLine
 10
0.909
 20
2.272
 30
0.0
 11
0.946
 21
2.118
 31
0.0
  0
LINE
  5
111
330
18
100
AcDbEntity
  8
0
100
AcDbLine
 10
0.946
 20
2.118
 30
0.0
 11
0.975
 21
1.966
 31
0.0
  0
LINE
  5
112
330
18
100
AcDbEntity
  8
0
100
AcDbLine
 10
0.975
 20
1.966
 30
0.0
 11
1.001
 21
1.811
 31
0.0
  0
LINE
  5
113
330
18
100
AcDbEntity
  8
0
100
AcDbLine
 10
1.001
 20
1.811
 30
0.0
 11
1.026
 21
1.661
 31
0.0
  0
LINE
  5
114
330
18
100
AcDbEntity
  8
0
100
AcDbLine
 10
1.026
 20
1.661
 30
0.0
 11
1.049
 21
1.508
 31
0.0
  0
LINE
  5
115
330
18
100
AcDbEntity
  8
0
100
AcDbLine
 10
1.049
 20
1.508
 30
0.0
 11
1.056
 21
1.449
 31
0.0
  0
LINE
  5
116
330
18
100
AcDbEntity
  8
0
100
AcDbLine
 10
0.953
 20
1.499
 30
0.0
 11
0.948
 21
1.576
 31
0.0
  0
LINE
  5
117
330
18
100
AcDbEntity
  8
0
100
AcDbLine
 10
0.948
 20
1.576
 30
0.0
 11
0.92
 21
1.727
 31
0.0
  0
LINE
  5
118
330
18
100
AcDbEntity
  8
0
100
AcDbLine
 10
0.92
 20
1.727
 30
0.0
 11
0.895
 21
1.877
 31
0.0
  0
LINE
  5
119
330
18
100
AcDbEntity
  8
0
100
AcDbLine
 10
0.895
 20
1.877
 30
0.0
 11
0.856
 21
2.045
 31
0.0
  0
LINE
  5
11A
330
18
100
AcDbEntity
  8
0
100
AcDbLine
 10
0.856
 20
2.045
 30
0.0
 11
0.823
 21
2.198
 31
0.0
  0
LINE
  5
11B
330
18
100
AcDbEntity
  8
0
100
AcDbLine
 10
0.823
 20
2.198
 30
0.0
 11
0.79
 21
2.353
 31
0.0
  0
LINE
  5
11C
330
18
100
AcDbEntity
  8
0
100
AcDbLine
 10
0.79
 20
2.353
 30
0.0
 11
0.759
 21
2.502
 31
0.0
  0
LINE
  5
11D
330
18
100
AcDbEntity
  8
0
100
AcDbLine
 10
0.759
 20
2.502
 30
0.0
 11
0.72
 21
2.649
 31
0.0
  0
LINE
  5
11E
330
18
100
AcDbEntity
  8
0
100
AcDbLine
 10
0.72
 20
2.649
 30
0.0
 11
0.672
 21
2.794
 31
0.0
  0
LINE
  5
11F
330
18
100
AcDbEntity
  8
0
100
AcDbLine
 10
0.672
 20
2.794
 30
0.0
 11
0.621
 21
2.941
 31
0.0
  0
LINE
  5
120
330
18
100
AcDbEntity
  8
0
100
AcDbLine
 10
0.621
 20
2.941
 30
0.0
 11
0.5560000000000001
 21
3.078
 31
0.0
  0
LINE
  5
121
330
18
100
AcDbEntity
  8
0
100
AcDbLine
 10
0.5560000000000001
 20
3.078
 30
0.0
 11
0.486
 21
3.212
 31
0.0
  0
LINE
  5
122
330
18
100
AcDbEntity
  8
0
100
AcDbLine
 10
0.486
 20
3.212
 30
0.0
 11
0.409
 21
3.36
 31
0.0
  0
LINE
  5
123
330
18
100
AcDbEntity
  8
0
100
AcDbLine
 10
0.409
 20
3.36
 30
0.0
 11
0.371
 21
3.426
 31
0.0
  0
LINE
  5
124
330
18
100
AcDbEntity
  8
0
100
AcDbLine
 10
0.369
 20
3.097
 30
0.0
 11
0.439
 21
2.951
 31
0.0
  0
LINE
  5
125
330
18
100
AcDbEntity
  8
0
100
AcDbLine
 10
0.439
 20
2.951
 30
0.0
 11
0.506
 21
2.794
 31
0.0
  0
LINE
  5
126
330
18
100
AcDbEntity
  8
0
100
AcDbLine
 10
0.506
 20
2.794
 30
0.0
 11
0.5670000000000001
 21
2.652
 31
0.0
  0
LINE
  5
127
330
18
100
AcDbEntity
  8
0
100
AcDbLine
 10
0.5670000000000001
 20
2.652
 30
0.0
 11
0.642
 21
2.475
 31
0.0
  0
LINE
  5
128
330
18
100
AcDbEntity
  8
0
100
AcDbLine
 10
0.642
 20
2.475
 30
0.0
 11
0.693
 21
2.328
 31
0.0
  0
LINE
  5
129
330
18
100
AcDbEntity
  8
0
100
AcDbLine
 10
0.693
 20
2.328
 30
0.0
 11
0.7390000000000001
 21
2.167
 31
0.0
  0
LINE
  5
12A
330
18
100
AcDbEntity
  8
0
100
AcDbLine
 10
0.7390000000000001
 20
2.167
 30
0.0
 11
0.7829999999999999
 21
2.01
 31
0.0
  0
LINE
  5
12B
330
18
100
AcDbEntity
  8
0
100
AcDbLine
 10
0.7829999999999999
 20
2.01
 30
0.0
 11
0.818
 21
1.859
 31
0.0
  0
LINE
  5
12C
330
18
100
AcDbEntity
  8
0
100
AcDbLine
 10
0.818
 20
1.859
 30
0.0
 11
0.857
 21
1.709
 31
0.0
  0
LINE
  5
12D
330
18
100
AcDbEntity
  8
0
100
AcDbLine
 10
0.857
 20
1.709
 30
0.0
 11
0.894
 21
1.559
 31
0.0
  0
LINE
  5
12E
330
18
100
AcDbEntity
  8
0
100
AcDbLine
 10
0.894
 20
1.559
 30
0.0
 11
0.9
 21
1.526
 31
0.0
  0
LINE
  5
12F
330
18
100
AcDbEntity
  8
0
100
AcDbLine
 10
0.795
 20
1.578
 30
0.0
 11
0.731
 21
1.81
 31
0.0
  0
LINE
  5
130
330
18
100
AcDbEntity
  8
0
100
AcDbLine
 10
0.731
 20
1.81
 30
0.0
 11
0.693
 21
1.973
 31
0.0
  0
LINE
  5
131
330
18
100
AcDbEntity
  8
0
100
AcDbLine
 10
0.693
 20
1.973
 30
0.0
 11
0.652
 21
2.127
 31
0.0
  0
LINE
  5
132
330
18
100
AcDbEntity
  8
0
100
AcDbLine
 10
0.652
 20
2.127
 30
0.0
 11
0.601
 21
2.282
 31
0.0
  0
LINE
  5
133
330
18
100
AcDbEntity
  8
0
100
AcDbLine
 10
0.601
 20
2.282
 30
0.0
 11
0.5529999999999999
 21
2.433
 31
0.0
  0
LINE
  5
134
330
18
100
AcDbEntity
  8
0
100
AcDbLine
 10
0.5529999999999999
 20
2.433
 30
0.0
 11
0.502
 21
2.592
 31
0.0
  0
LINE
  5
135
330
18
100
AcDbEntity
  8
0
100
AcDbLine
 10
0.502
 20
2.592
 30
0.0
 11
0.449
 21
2.743
 31
0.0
  0
LINE
  5
136
330
18
100
AcDbEntity
  8
0
100
AcDbLine
 10
0.449
 20
2.743
 30
0.0
 11
0.386
 21
2.895
 31
0.0
  0
LINE
  5
137
330
18
100
AcDbEntity
  8
0
100
AcDbLine
 10
0.386
 20
2.895
 30
0.0
 11
0.368
 21
2.934
 31
0.0
  0
LINE
  5
138
330
18
100
AcDbEntity
  8
0
100
AcDbLine
 10
0.363
 20
2.287
 30
0.0
 11
0.39
 21
2.22
 31
0.0
  0
LINE
  5
139
330
18
100
AcDbEntity
  8
0
100
AcDbLine
 10
0.39
 20
2.22
 30
0.0
 11
0.448
 21
2.078
 31
0.0
  0
LINE
  5
13A
330
18
100
AcDbEntity
  8
0
100
AcDbLine
 10
0.448
 20
2.078
 30
0.0
 11
0.512
 21
1.912
 31
0.0
  0
LINE
  5
13B
330
18
100
AcDbEntity
  8
0
100
AcDbLine
 10
0.512
 20
1.912
 30
0.0
 11
0.5600000000000001
 21
1.759
 31
0.0
  0
LINE
  5
13C
330
18
100
AcDbEntity
  8
0
100
AcDbLine
 10
0.5600000000000001
 20
1.759
 30
0.0
 11
0.581
 21
1.684
 31
0.0
  0
LINE
  5
13D
330
18
100
AcDbEntity
  8
0
100
AcDbLine
 10
0.466
 20
1.741
 30
0.0
 11
0.419
 21
1.894
 31
0.0
  0
LINE
  5
13E
330
18
100
AcDbEntity
  8
0
100
AcDbLine
 10
0.419
 20
1.894
 30
0.0
 11
0.362
 21
2.062
 31
0.0
  0
LINE
  5
13F
330
18
100
AcDbEntity
  8
0
100
AcDbLine
 10
0.636
 20
1.657
 30
0.0
 11
0.633
 21
1.687
 31
0.0
  0
LINE
  5
140
330
18
100
AcDbEntity
  8
0
100
AcDbLine
 10
0.633
 20
1.687
 30
0.0
 11
0.5920000000000001
 21
1.833
 31
0.0
  0
LINE
  5
141
330
18
100
AcDbEntity
  8
0
100
AcDbLine
 10
0.5920000000000001
 20
1.833
 30
0.0
 11
0.541
 21
1.99
 31
0.0
  0
LINE
  5
142
330
18
100
AcDbEntity
  8
0
100
AcDbLine
 10
0.541
 20
1.99
 30
0.0
 11
0.493
 21
2.139
 31
0.0
  0
LINE
  5
143
330
18
100
AcDbEntity
  8
0
100
AcDbLine
 10
0.493
 20
2.139
 30
0.0
 11
0.444
 21
2.293
 31
0.0
  0
LINE
  5
144
330
18
100
AcDbEntity
  8
0
100
AcDbLine
 10
0.444
 20
2.293
 30
0.0
 11
0.4
 21
2.447
 31
0.0
  0
LINE
  5
145
330
18
100
AcDbEntity
  8
0
100
AcDbLine
 10
0.4
 20
2.447
 30
0.0
 11
0.365
 21
2.53
 31
0.0
  0
LINE
  5
146
330
18
100
AcDbEntity
  8
0
100
AcDbLine
 10
0.3670000000000001
 20
2.769
 30
0.0
 11
0.3720000000000001
 21
2.761
 31
0.0
  0
LINE
  5
147
330
18
100
AcDbEntity
  8
0
100
AcDbLine
 10
0.3720000000000001
 20
2.761
 30
0.0
 11
0.433
 21
2.617
 31
0.0
  0
LINE
  5
148
330
18
100
AcDbEntity
  8
0
100
AcDbLine
 10
0.433
 20
2.617
 30
0.0
 11
0.485
 21
2.457
 31
0.0
  0
LINE
  5
149
330
18
100
AcDbEntity
  8
0
100
AcDbLine
 10
0.485
 20
2.457
 30
0.0
 11
0.5379999999999999
 21
2.314
 31
0.0
  0
LINE
  5
14A
330
18
100
AcDbEntity
  8
0
100
AcDbLine
 10
0.5379999999999999
 20
2.314
 30
0.0
 11
0.58
 21
2.161
 31
0.0
  0
LINE
  5
14B
330
18
100
AcDbEntity
  8
0
100
AcDbLine
 10
0.58
 20
2.161
 30
0.0
 11
0.628
 21
1.999
 31
0.0
  0
LINE
  5
14C
330
18
100
AcDbEntity
  8
0
100
AcDbLine
 10
0.628
 20
1.999
 30
0.0
 11
0.675
 21
1.844
 31
0.0
  0
LINE
  5
14D
330
18
100
AcDbEntity
  8
0
100
AcDbLine
 10
0.675
 20
1.844
 30
0.0
 11
0.7240000000000001
 21
1.684
 31
0.0
  0
LINE
  5
14E
330
18
100
AcDbEntity
  8
0
100
AcDbLine
 10
0.7240000000000001
 20
1.684
 30
0.0
 11
0.747
 21
1.602
 31
0.0
  0
LINE
  5
14F
330
18
100
AcDbEntity
  8
0
100
AcDbLine
 10
0.382
 20
4.577
 30
0.0
 11
0.398
 21
4.553
 31
0.0
  0
LINE
  5
150
330
18
100
AcDbEntity
  8
0
100
AcDbLine
 10
0.398
 20
4.553
 30
0.0
 11
0.488
 21
4.432
 31
0.0
  0
LINE
  5
151
330
18
100
AcDbEntity
  8
0
100
AcDbLine
 10
0.488
 20
4.432
 30
0.0
 11
0.584
 21
4.303999999999999
 31
0.0
  0
LINE
  5
152
330
18
100
AcDbEntity
  8
0
100
AcDbLine
 10
0.584
 20
4.303999999999999
 30
0.0
 11
0.675
 21
4.184
 31
0.0
  0
LINE
  5
153
330
18
100
AcDbEntity
  8
0
100
AcDbLine
 10
0.675
 20
4.184
 30
0.0
 11
0.769
 21
4.065
 31
0.0
  0
LINE
  5
154
330
18
100
AcDbEntity
  8
0
100
AcDbLine
 10
0.769
 20
4.065
 30
0.0
 11
0.851
 21
3.939
 31
0.0
  0
LINE
  5
155
330
18
100
AcDbEntity
  8
0
100
AcDbLine
 10
0.851
 20
3.939
 30
0.0
 11
0.924
 21
3.794
 31
0.0
  0
LINE
  5
156
330
18
100
AcDbEntity
  8
0
100
AcDbLine
 10
0.924
 20
3.794
 30
0.0
 11
0.995
 21
3.651
 31
0.0
  0
LINE
  5
157
330
18
100
AcDbEntity
  8
0
100
AcDbLine
 10
0.995
 20
3.651
 30
0.0
 11
1.057
 21
3.501
 31
0.0
  0
LINE
  5
158
330
18
100
AcDbEntity
  8
0
100
AcDbLine
 10
1.057
 20
3.501
 30
0.0
 11
1.099
 21
3.412
 31
0.0
  0
ARC
  5
159
330
18
100
AcDbEntity
  8
0
100
AcDbCircle
 10
4.696000000000001
 20
3.185
 30
0.0
 40
2.107
100
AcDbArc
 50
210.986
 51
211.726
  0
ARC
  5
15A
330
18
100
AcDbEntity
  8
0
100
AcDbCircle
 10
2.993
 20
2.162
 30
0.0
 40
0.121
100
AcDbArc
 50
207.893
 51
210.986
  0
ARC
  5
15B
330
18
100
AcDbEntity
  8
0
100
AcDbCircle
 10
7.324
 20
4.455
 30
0.0
 40
5.022
100
AcDbArc
 50
206.963
 51
207.893
  0
ARC
  5
15C
330
18
100
AcDbEntity
  8
0
100
AcDbCircle
 10
5.964
 20
3.763
 30
0.0
 40
3.495
100
AcDbArc
 50
205.848
 51
206.963
  0
ARC
  5
15D
330
18
100
AcDbEntity
  8
0
100
AcDbCircle
 10
3.721
 20
2.677
 30
0.0
 40
1.003
100
AcDbArc
 50
203.07
 51
205.848
  0
ARC
  5
15E
330
18
100
AcDbEntity
  8
0
100
AcDbCircle
 10
3.164
 20
2.439
 30
0.0
 40
0.398
100
AcDbArc
 50
198.658
 51
203.07
  0
ARC
  5
15F
330
18
100
AcDbEntity
  8
0
100
AcDbCircle
 10
2.858
 20
2.336
 30
0.0
 40
0.075
100
AcDbArc
 50
183.813
 51
198.658
  0
ARC
  5
160
330
18
100
AcDbEntity
  8
0
100
AcDbCircle
 10
4.229
 20
2.427
 30
0.0
 40
1.449
100
AcDbArc
 50
180.45
 51
183.813
  0
ARC
  5
161
330
18
100
AcDbEntity
  8
0
100
AcDbCircle
 10
3.282
 20
2.42
 30
0.0
 40
0.502
100
AcDbArc
 50
173.913
 51
180.45
  0
ARC
  5
162
330
18
100
AcDbEntity
  8
0
100
AcDbCircle
 10
2.811
 20
2.47
 30
0.0
 40
0.028
100
AcDbArc
 50
145.987
 51
173.913
  0
ARC
  5
163
330
18
100
AcDbEntity
  8
0
100
AcDbCircle
 10
2.802
 20
2.476
 30
0.0
 40
0.017
100
AcDbArc
 50
102.374
 51
145.987
  0
ARC
  5
164
330
18
100
AcDbEntity
  8
0
100
AcDbCircle
 10
2.807
 20
2.454
 30
0.0
 40
0.04
100
AcDbArc
 50
74.223
 51
102.374
  0
ARC
  5
165
330
18
100
AcDbEntity
  8
0
100
AcDbCircle
 10
2.775
 20
2.343
 30
0.0
 40
0.155
100
AcDbArc
 50
66.962
 51
74.223
  0
ARC
  5
166
330
18
100
AcDbEntity
  8
0
100
AcDbCircle
 10
2.598
 20
1.925
 30
0.0
 40
0.609
100
AcDbArc
 50
63.299
 51
66.962
  0
ARC
  5
167
330
18
100
AcDbEntity
  8
0
100
AcDbCircle
 10
2.77
 20
2.268
 30
0.0
 40
0.226
100
AcDbArc
 50
59.305
 51
63.299
  0
ARC
  5
168
330
18
100
AcDbEntity
  8
0
100
AcDbCircle
 10
2.676
 20
2.109
 30
0.0
 40
0.411
100
AcDbArc
 50
56.342
 51
59.305
  0
LINE
  5
169
330
18
100
AcDbEntity
  8
0
100
AcDbLine
 10
2.676
 20
2.318
 30
0.0
 11
2.689
 21
2.281
 31
0.0
  0
LINE
  5
16A
330
18
100
AcDbEntity
  8
0
100
AcDbLine
 10
2.689
 20
2.281
 30
0.0
 11
2.707
 21
2.151
 31
0.0
  0
LINE
  5
16B
330
18
100
AcDbEntity
  8
0
100
AcDbLine
 10
2.707
 20
2.151
 30
0.0
 11
2.716
 21
2.071
 31
0.0
  0
LINE
  5
16C
330
18
100
AcDbEntity
  8
0
100
AcDbLine
 10
2.718
 20
2.061
 30
0.0
 11
2.75
 21
1.994
 31
0.0
  0
LINE
  5
16D
330
18
100
AcDbEntity
  8
0
100
AcDbLine
 10
2.75
 20
1.994
 30
0.0
 11
2.826
 21
1.873
 31
0.0
  0
LINE
  5
16E
330
18
100
AcDbEntity
  8
0
100
AcDbLine
 10
2.826
 20
1.873
 30
0.0
 11
2.903
 21
1.761
 31
0.0
  0
LINE
  5
16F
330
18
100
AcDbEntity
  8
0
100
AcDbLine
 10
2.675
 20
1.885
 30
0.0
 11
2.694
 21
1.842
 31
0.0
  0
LINE
  5
170
330
18
100
AcDbEntity
  8
0
100
AcDbLine
 10
2.694
 20
1.842
 30
0.0
 11
2.749
 21
1.701
 31
0.0
  0
LINE
  5
171
330
18
100
AcDbEntity
  8
0
100
AcDbLine
 10
2.749
 20
1.701
 30
0.0
 11
2.801
 21
1.601
 31
0.0
  0
LINE
  5
172
330
18
100
AcDbEntity
  8
0
100
AcDbLine
 10
2.801
 20
1.601
 30
0.0
 11
2.891
 21
1.42
 31
0.0
  0
LINE
  5
173
330
18
100
AcDbEntity
  8
0
100
AcDbLine
 10
2.891
 20
1.42
 30
0.0
 11
2.903
 21
1.401
 31
0.0
  0
LINE
  5
174
330
18
100
AcDbEntity
  8
0
100
AcDbLine
 10
2.287
 20
2.533
 30
0.0
 11
2.396
 21
2.306
 31
0.0
  0
LINE
  5
175
330
18
100
AcDbEntity
  8
0
100
AcDbLine
 10
2.396
 20
2.306
 30
0.0
 11
2.48
 21
2.159
 31
0.0
  0
LINE
  5
176
330
18
100
AcDbEntity
  8
0
100
AcDbLine
 10
2.48
 20
2.159
 30
0.0
 11
2.485
 21
2.15
 31
0.0
  0
LINE
  5
177
330
18
100
AcDbEntity
  8
0
100
AcDbLine
 10
2.286
 20
2.16
 30
0.0
 11
2.4
 21
1.935
 31
0.0
  0
LINE
  5
178
330
18
100
AcDbEntity
  8
0
100
AcDbLine
 10
2.4
 20
1.935
 30
0.0
 11
2.46
 21
1.802
 31
0.0
  0
LINE
  5
179
330
18
100
AcDbEntity
  8
0
100
AcDbLine
 10
2.46
 20
1.802
 30
0.0
 11
2.484
 21
1.762
 31
0.0
  0
LINE
  5
17A
330
18
100
AcDbEntity
  8
0
100
AcDbLine
 10
2.676
 20
2.691
 30
0.0
 11
2.733
 21
2.739
 31
0.0
  0
LINE
  5
17B
330
18
100
AcDbEntity
  8
0
100
AcDbLine
 10
2.745
 20
2.745
 30
0.0
 11
2.814
 21
2.761
 31
0.0
  0
LINE
  5
17C
330
18
100
AcDbEntity
  8
0
100
AcDbLine
 10
2.828
 20
2.761
 30
0.0
 11
2.903
 21
2.744
 31
0.0
  0
LINE
  5
17D
330
18
100
AcDbEntity
  8
0
100
AcDbLine
 10
2.677
 20
2.957
 30
0.0
 11
2.71
 21
2.958
 31
0.0
  0
LINE
  5
17E
330
18
100
AcDbEntity
  8
0
100
AcDbLine
 10
2.71
 20
2.958
 30
0.0
 11
2.836
 21
2.967
 31
0.0
  0
LINE
  5
17F
330
18
100
AcDbEntity
  8
0
100
AcDbLine
 10
2.836
 20
2.967
 30
0.0
 11
2.903
 21
2.964
 31
0.0
  0
LINE
  5
180
330
18
100
AcDbEntity
  8
0
100
AcDbLine
 10
2.678
 20
3.305
 30
0.0
 11
2.684
 21
3.308
 31
0.0
  0
LINE
  5
181
330
18
100
AcDbEntity
  8
0
100
AcDbLine
 10
2.684
 20
3.308
 30
0.0
 11
2.759
 21
3.344
 31
0.0
  0
LINE
  5
182
330
18
100
AcDbEntity
  8
0
100
AcDbLine
 10
2.759
 20
3.344
 30
0.0
 11
2.833
 21
3.374
 31
0.0
  0
LINE
  5
183
330
18
100
AcDbEntity
  8
0
100
AcDbLine
 10
2.844
 20
3.376
 30
0.0
 11
2.903
 21
3.377
 31
0.0
  0
ARC
  5
184
330
18
100
AcDbEntity
  8
0
100
AcDbCircle
 10
4.524
 20
4.075
 30
0.0
 40
2.478
100
AcDbArc
 50
214.587
 51
214.721
  0
ARC
  5
185
330
18
100
AcDbEntity
  8
0
100
AcDbCircle
 10
2.677
 20
2.801
 30
0.0
 40
0.235
100
AcDbArc
 50
214.154
 51
214.587
  0
ARC
  5
186
330
18
100
AcDbEntity
  8
0
100
AcDbCircle
 10
4.187
 20
3.826
 30
0.0
 40
2.059
100
AcDbArc
 50
212.324
 51
214.154
  0
ARC
  5
187
330
18
100
AcDbEntity
  8
0
100
AcDbCircle
 10
3.651
 20
3.486
 30
0.0
 40
1.425
100
AcDbArc
 50
210.125
 51
212.324
  0
ARC
  5
188
330
18
100
AcDbEntity
  8
0
100
AcDbCircle
 10
2.547
 20
2.846
 30
0.0
 40
0.148
100
AcDbArc
 50
196.999
 51
210.125
  0
ARC
  5
189
330
18
100
AcDbEntity
  8
0
100
AcDbCircle
 10
3.277
 20
3.069
 30
0.0
 40
0.912
100
AcDbArc
 50
191.723
 51
196.999
  0
ARC
  5
18A
330
18
100
AcDbEntity
  8
0
100
AcDbCircle
 10
2.725
 20
2.954
 30
0.0
 40
0.348
100
AcDbArc
 50
183.135
 51
191.723
  0
ARC
  5
18B
330
18
100
AcDbEntity
  8
0
100
AcDbCircle
 10
2.817
 20
2.959
 30
0.0
 40
0.44
100
AcDbArc
 50
175.498
 51
183.135
  0
ARC
  5
18C
330
18
100
AcDbEntity
  8
0
100
AcDbCircle
 10
2.502
 20
2.984
 30
0.0
 40
0.124
100
AcDbArc
 50
155.979
 51
175.498
  0
ARC
  5
18D
330
18
100
AcDbEntity
  8
0
100
AcDbCircle
 10
2.56
 20
2.958
 30
0.0
 40
0.187
100
AcDbArc
 50
140.146
 51
155.979
  0
ARC
  5
18E
330
18
100
AcDbEntity
  8
0
100
AcDbCircle
 10
2.464
 20
3.038
 30
0.0
 40
0.063
100
AcDbArc
 50
109.904
 51
140.146
  0
ARC
  5
18F
330
18
100
AcDbEntity
  8
0
100
AcDbCircle
 10
2.487
 20
2.976
 30
0.0
 40
0.129
100
AcDbArc
 50
88.947
 51
109.904
  0
LINE
  5
190
330
18
100
AcDbEntity
  8
0
100
AcDbLine
 10
2.288
 20
3.26
 30
0.0
 11
2.367
 21
3.311
 31
0.0
  0
LINE
  5
191
330
18
100
AcDbEntity
  8
0
100
AcDbLine
 10
2.376
 20
3.315
 30
0.0
 11
2.468
 21
3.337
 31
0.0
  0
LINE
  5
192
330
18
100
AcDbEntity
  8
0
100
AcDbLine
 10
2.468
 20
3.337
 30
0.0
 11
2.49
 21
3.337
 31
0.0
  0
LINE
  5
193
330
18
100
AcDbEntity
  8
0
100
AcDbLine
 10
2.289
 20
3.677
 30
0.0
 11
2.357
 21
3.688
 31
0.0
  0
LINE
  5
194
330
18
100
AcDbEntity
  8
0
100
AcDbLine
 10
2.361
 20
3.689
 30
0.0
 11
2.437
 21
3.691
 31
0.0
  0
ARC
  5
195
330
18
100
AcDbEntity
  8
0
100
AcDbCircle
 10
1.106
 20
4.595
 30
0.0
 40
0.02
100
AcDbArc
 50
182.422
 51
214.418
  0
ARC
  5
196
330
18
100
AcDbEntity
  8
0
100
AcDbCircle
 10
1.118
 20
4.603
 30
0.0
 40
0.033
100
AcDbArc
 50
214.418
 51
238.879
  0
ARC
  5
197
330
18
100
AcDbEntity
  8
0
100
AcDbCircle
 10
1.125
 20
4.615
 30
0.0
 40
0.047
100
AcDbArc
 50
238.879
 51
257.066
  0
ARC
  5
198
330
18
100
AcDbEntity
  8
0
100
AcDbCircle
 10
1.129
 20
4.633
 30
0.0
 40
0.066
100
AcDbArc
 50
257.066
 51
272.422
  0
ARC
  5
199
330
18
100
AcDbEntity
  8
0
100
AcDbCircle
 10
1.129
 20
4.633
 30
0.0
 40
0.066
100
AcDbArc
 50
272.422
 51
287.777
  0
ARC
  5
19A
330
18
100
AcDbEntity
  8
0
100
AcDbCircle
 10
1.135
 20
4.615
 30
0.0
 40
0.047
100
AcDbArc
 50
287.777
 51
305.965
  0
ARC
  5
19B
330
18
100
AcDbEntity
  8
0
100
AcDbCircle
 10
1.143
 20
4.604
 30
0.0
 40
0.033
100
AcDbArc
 50
305.965
 51
330.425
  0
ARC
  5
19C
330
18
100
AcDbEntity
  8
0
100
AcDbCircle
 10
1.155
 20
4.598
 30
0.0
 40
0.02
100
AcDbArc
 50
330.425
 51
2.422
  0
ARC
  5
19D
330
18
100
AcDbEntity
  8
0
100
AcDbCircle
 10
1.155
 20
4.598
 30
0.0
 40
0.02
100
AcDbArc
 50
2.422
 51
34.418
  0
ARC
  5
19E
330
18
100
AcDbEntity
  8
0
100
AcDbCircle
 10
1.143
 20
4.59
 30
0.0
 40
0.033
100
AcDbArc
 50
34.418
 51
58.87899999999999
  0
ARC
  5
19F
330
18
100
AcDbEntity
  8
0
100
AcDbCircle
 10
1.136
 20
4.578
 30
0.0
 40
0.047
100
AcDbArc
 50
58.87899999999999
 51
77.066
  0
ARC
  5
1A0
330
18
100
AcDbEntity
  8
0
100
AcDbCircle
 10
1.132
 20
4.56
 30
0.0
 40
0.066
100
AcDbArc
 50
77.066
 51
92.422
  0
ARC
  5
1A1
330
18
100
AcDbEntity
  8
0
100
AcDbCircle
 10
1.132
 20
4.56
 30
0.0
 40
0.066
100
AcDbArc
 50
92.422
 51
107.777
  0
ARC
  5
1A2
330
18
100
AcDbEntity
  8
0
100
AcDbCircle
 10
1.126
 20
4.578
 30
0.0
 40
0.047
100
AcDbArc
 50
107.777
 51
125.965
  0
ARC
  5
1A3
330
18
100
AcDbEntity
  8
0
100
AcDbCircle
 10
1.118
 20
4.589
 30
0.0
 40
0.033
100
AcDbArc
 50
125.965
 51
150.425
  0
ARC
  5
1A4
330
18
100
AcDbEntity
  8
0
100
AcDbCircle
 10
1.106
 20
4.595
 30
0.0
 40
0.02
100
AcDbArc
 50
150.425
 51
182.422
  0
ARC
  5
1A5
330
18
100
AcDbEntity
  8
0
100
AcDbCircle
 10
1.105
 20
4.579
 30
0.0
 40
0.02
100
AcDbArc
 50
182.422
 51
214.418
  0
ARC
  5
1A6
330
18
100
AcDbEntity
  8
0
100
AcDbCircle
 10
1.116
 20
4.587
 30
0.0
 40
0.033
100
AcDbArc
 50
214.418
 51
238.879
  0
ARC
  5
1A7
330
18
100
AcDbEntity
  8
0
100
AcDbCircle
 10
1.124
 20
4.599
 30
0.0
 40
0.047
100
AcDbArc
 50
238.879
 51
257.066
  0
ARC
  5
1A8
330
18
100
AcDbEntity
  8
0
100
AcDbCircle
 10
1.128
 20
4.617
 30
0.0
 40
0.066
100
AcDbArc
 50
257.066
 51
272.422
  0
ARC
  5
1A9
330
18
100
AcDbEntity
  8
0
100
AcDbCircle
 10
1.128
 20
4.617
 30
0.0
 40
0.066
100
AcDbArc
 50
272.422
 51
287.777
  0
ARC
  5
1AA
330
18
100
AcDbEntity
  8
0
100
AcDbCircle
 10
1.133
 20
4.599
 30
0.0
 40
0.047
100
AcDbArc
 50
287.777
 51
305.965
  0
ARC
  5
1AB
330
18
100
AcDbEntity
  8
0
100
AcDbCircle
 10
1.142
 20
4.588
 30
0.0
 40
0.033
100
AcDbArc
 50
305.965
 51
330.425
  0
ARC
  5
1AC
330
18
100
AcDbEntity
  8
0
100
AcDbCircle
 10
1.153
 20
4.581
 30
0.0
 40
0.02
100
AcDbArc
 50
330.425
 51
2.422
  0
ARC
  5
1AD
330
18
100
AcDbEntity
  8
0
100
AcDbCircle
 10
1.153
 20
4.581
 30
0.0
 40
0.02
100
AcDbArc
 50
2.422
 51
20.585
  0
ARC
  5
1AE
330
18
100
AcDbEntity
  8
0
100
AcDbCircle
 10
1.105
 20
4.579
 30
0.0
 40
0.02
100
AcDbArc
 50
151.048
 51
182.422
  0
ARC
  5
1AF
330
18
100
AcDbEntity
  8
0
100
AcDbCircle
 10
1.648
 20
4.734
 30
0.0
 40
0.02
100
AcDbArc
 50
151.048
 51
182.422
  0
ARC
  5
1B0
330
18
100
AcDbEntity
  8
0
100
AcDbCircle
 10
1.648
 20
4.734
 30
0.0
 40
0.02
100
AcDbArc
 50
182.422
 51
214.418
  0
ARC
  5
1B1
330
18
100
AcDbEntity
  8
0
100
AcDbCircle
 10
1.659
 20
4.742
 30
0.0
 40
0.033
100
AcDbArc
 50
214.418
 51
238.879
  0
ARC
  5
1B2
330
18
100
AcDbEntity
  8
0
100
AcDbCircle
 10
1.666
 20
4.754
 30
0.0
 40
0.047
100
AcDbArc
 50
238.879
 51
257.066
  0
ARC
  5
1B3
330
18
100
AcDbEntity
  8
0
100
AcDbCircle
 10
1.671
 20
4.772
 30
0.0
 40
0.066
100
AcDbArc
 50
257.066
 51
272.422
  0
ARC
  5
1B4
330
18
100
AcDbEntity
  8
0
100
AcDbCircle
 10
1.671
 20
4.772
 30
0.0
 40
0.066
100
AcDbArc
 50
272.422
 51
287.777
  0
ARC
  5
1B5
330
18
100
AcDbEntity
  8
0
100
AcDbCircle
 10
1.676
 20
4.754
 30
0.0
 40
0.047
100
AcDbArc
 50
287.777
 51
305.965
  0
ARC
  5
1B6
330
18
100
AcDbEntity
  8
0
100
AcDbCircle
 10
1.684
 20
4.743
 30
0.0
 40
0.033
100
AcDbArc
 50
305.965
 51
330.425
  0
ARC
  5
1B7
330
18
100
AcDbEntity
  8
0
100
AcDbCircle
 10
1.696
 20
4.736000000000001
 30
0.0
 40
0.02
100
AcDbArc
 50
330.425
 51
2.422
  0
ARC
  5
1B8
330
18
100
AcDbEntity
  8
0
100
AcDbCircle
 10
1.696
 20
4.736000000000001
 30
0.0
 40
0.02
100
AcDbArc
 50
2.422
 51
20.585
  0
ARC
  5
1B9
330
18
100
AcDbEntity
  8
0
100
AcDbCircle
 10
1.649
 20
4.751
 30
0.0
 40
0.02
100
AcDbArc
 50
182.422
 51
214.418
  0
ARC
  5
1BA
330
18
100
AcDbEntity
  8
0
100
AcDbCircle
 10
1.66
 20
4.758
 30
0.0
 40
0.033
100
AcDbArc
 50
214.418
 51
238.879
  0
ARC
  5
1BB
330
18
100
AcDbEntity
  8
0
100
AcDbCircle
 10
1.668
 20
4.77
 30
0.0
 40
0.047
100
AcDbArc
 50
238.879
 51
257.066
  0
ARC
  5
1BC
330
18
100
AcDbEntity
  8
0
100
AcDbCircle
 10
1.672
 20
4.788
 30
0.0
 40
0.066
100
AcDbArc
 50
257.066
 51
272.422
  0
ARC
  5
1BD
330
18
100
AcDbEntity
  8
0
100
AcDbCircle
 10
1.672
 20
4.788
 30
0.0
 40
0.066
100
AcDbArc
 50
272.422
 51
287.777
  0
ARC
  5
1BE
330
18
100
AcDbEntity
  8
0
100
AcDbCircle
 10
1.677
 20
4.77
 30
0.0
 40
0.047
100
AcDbArc
 50
287.777
 51
305.965
  0
ARC
  5
1BF
330
18
100
AcDbEntity
  8
0
100
AcDbCircle
 10
1.686
 20
4.759
 30
0.0
 40
0.033
100
AcDbArc
 50
305.965
 51
330.425
  0
ARC
  5
1C0
330
18
100
AcDbEntity
  8
0
100
AcDbCircle
 10
1.697
 20
4.753
 30
0.0
 40
0.02
100
AcDbArc
 50
330.425
 51
2.422
  0
ARC
  5
1C1
330
18
100
AcDbEntity
  8
0
100
AcDbCircle
 10
1.697
 20
4.753
 30
0.0
 40
0.02
100
AcDbArc
 50
2.422
 51
34.418
  0
ARC
  5
1C2
330
18
100
AcDbEntity
  8
0
100
AcDbCircle
 10
1.686
 20
4.745
 30
0.0
 40
0.033
100
AcDbArc
 50
34.418
 51
58.87899999999999
  0
ARC
  5
1C3
330
18
100
AcDbEntity
  8
0
100
AcDbCircle
 10
1.679
 20
4.733000000000001
 30
0.0
 40
0.047
100
AcDbArc
 50
58.87899999999999
 51
77.066
  0
ARC
  5
1C4
330
18
100
AcDbEntity
  8
0
100
AcDbCircle
 10
1.675
 20
4.715
 30
0.0
 40
0.066
100
AcDbArc
 50
77.066
 51
92.422
  0
ARC
  5
1C5
330
18
100
AcDbEntity
  8
0
100
AcDbCircle
 10
1.675
 20
4.715
 30
0.0
 40
0.066
100
AcDbArc
 50
92.422
 51
107.777
  0
ARC
  5
1C6
330
18
100
AcDbEntity
  8
0
100
AcDbCircle
 10
1.669
 20
4.733000000000001
 30
0.0
 40
0.047
100
AcDbArc
 50
107.777
 51
125.965
  0
ARC
  5
1C7
330
18
100
AcDbEntity
  8
0
100
AcDbCircle
 10
1.661
 20
4.744
 30
0.0
 40
0.033
100
AcDbArc
 50
125.965
 51
150.425
  0
ARC
  5
1C8
330
18
100
AcDbEntity
  8
0
100
AcDbCircle
 10
1.649
 20
4.751
 30
0.0
 40
0.02
100
AcDbArc
 50
150.425
 51
182.422
  0
ARC
  5
1C9
330
18
100
AcDbEntity
  8
0
100
AcDbCircle
 10
2.26
 20
4.95
 30
0.0
 40
0.02
100
AcDbArc
 50
151.048
 51
182.422
  0
ARC
  5
1CA
330
18
100
AcDbEntity
  8
0
100
AcDbCircle
 10
2.26
 20
4.95
 30
0.0
 40
0.02
100
AcDbArc
 50
182.422
 51
214.418
  0
ARC
  5
1CB
330
18
100
AcDbEntity
  8
0
100
AcDbCircle
 10
2.272
 20
4.957
 30
0.0
 40
0.033
100
AcDbArc
 50
214.418
 51
238.879
  0
ARC
  5
1CC
330
18
100
AcDbEntity
  8
0
100
AcDbCircle
 10
2.279
 20
4.968999999999999
 30
0.0
 40
0.047
100
AcDbArc
 50
238.879
 51
257.066
  0
ARC
  5
1CD
330
18
100
AcDbEntity
  8
0
100
AcDbCircle
 10
2.283
 20
4.987
 30
0.0
 40
0.066
100
AcDbArc
 50
257.066
 51
272.422
  0
ARC
  5
1CE
330
18
100
AcDbEntity
  8
0
100
AcDbCircle
 10
2.283
 20
4.987
 30
0.0
 40
0.066
100
AcDbArc
 50
272.422
 51
287.777
  0
ARC
  5
1CF
330
18
100
AcDbEntity
  8
0
100
AcDbCircle
 10
2.289
 20
4.97
 30
0.0
 40
0.047
100
AcDbArc
 50
287.777
 51
305.965
  0
ARC
  5
1D0
330
18
100
AcDbEntity
  8
0
100
AcDbCircle
 10
2.297
 20
4.958
 30
0.0
 40
0.033
100
AcDbArc
 50
305.965
 51
330.425
  0
ARC
  5
1D1
330
18
100
AcDbEntity
  8
0
100
AcDbCircle
 10
2.309
 20
4.952
 30
0.0
 40
0.02
100
AcDbArc
 50
330.425
 51
2.422
  0
ARC
  5
1D2
330
18
100
AcDbEntity
  8
0
100
AcDbCircle
 10
2.309
 20
4.952
 30
0.0
 40
0.02
100
AcDbArc
 50
2.422
 51
20.585
  0
ARC
  5
1D3
330
18
100
AcDbEntity
  8
0
100
AcDbCircle
 10
2.262
 20
4.966
 30
0.0
 40
0.02
100
AcDbArc
 50
182.422
 51
214.418
  0
ARC
  5
1D4
330
18
100
AcDbEntity
  8
0
100
AcDbCircle
 10
2.273
 20
4.974
 30
0.0
 40
0.033
100
AcDbArc
 50
214.418
 51
238.879
  0
ARC
  5
1D5
330
18
100
AcDbEntity
  8
0
100
AcDbCircle
 10
2.28
 20
4.986000000000001
 30
0.0
 40
0.047
100
AcDbArc
 50
238.879
 51
257.066
  0
ARC
  5
1D6
330
18
100
AcDbEntity
  8
0
100
AcDbCircle
 10
2.284
 20
5.004
 30
0.0
 40
0.066
100
AcDbArc
 50
257.066
 51
272.422
  0
ARC
  5
1D7
330
18
100
AcDbEntity
  8
0
100
AcDbCircle
 10
2.284
 20
5.004
 30
0.0
 40
0.066
100
AcDbArc
 50
272.422
 51
287.777
  0
ARC
  5
1D8
330
18
100
AcDbEntity
  8
0
100
AcDbCircle
 10
2.29
 20
4.986000000000001
 30
0.0
 40
0.047
100
AcDbArc
 50
287.777
 51
305.965
  0
ARC
  5
1D9
330
18
100
AcDbEntity
  8
0
100
AcDbCircle
 10
2.298
 20
4.975
 30
0.0
 40
0.033
100
AcDbArc
 50
305.965
 51
330.425
  0
ARC
  5
1DA
330
18
100
AcDbEntity
  8
0
100
AcDbCircle
 10
2.31
 20
4.968
 30
0.0
 40
0.02
100
AcDbArc
 50
330.425
 51
2.422
  0
ARC
  5
1DB
330
18
100
AcDbEntity
  8
0
100
AcDbCircle
 10
2.31
 20
4.968
 30
0.0
 40
0.02
100
AcDbArc
 50
2.422
 51
34.418
  0
ARC
  5
1DC
330
18
100
AcDbEntity
  8
0
100
AcDbCircle
 10
2.299
 20
4.96
 30
0.0
 40
0.033
100
AcDbArc
 50
34.418
 51
58.87899999999999
  0
ARC
  5
1DD
330
18
100
AcDbEntity
  8
0
100
AcDbCircle
 10
2.291
 20
4.949
 30
0.0
 40
0.047
100
AcDbArc
 50
58.87899999999999
 51
77.066
  0
ARC
  5
1DE
330
18
100
AcDbEntity
  8
0
100
AcDbCircle
 10
2.287
 20
4.93
 30
0.0
 40
0.066
100
AcDbArc
 50
77.066
 51
92.422
  0
ARC
  5
1DF
330
18
100
AcDbEntity
  8
0
100
AcDbCircle
 10
2.287
 20
4.93
 30
0.0
 40
0.066
100
AcDbArc
 50
92.422
 51
107.777
  0
ARC
  5
1E0
330
18
100
AcDbEntity
  8
0
100
AcDbCircle
 10
2.282
 20
4.948
 30
0.0
 40
0.047
100
AcDbArc
 50
107.777
 51
125.965
  0
ARC
  5
1E1
330
18
100
AcDbEntity
  8
0
100
AcDbCircle
 10
2.273
 20
4.959
 30
0.0
 40
0.033
100
AcDbArc
 50
125.965
 51
150.425
  0
ARC
  5
1E2
330
18
100
AcDbEntity
  8
0
100
AcDbCircle
 10
2.262
 20
4.966
 30
0.0
 40
0.02
100
AcDbArc
 50
150.425
 51
182.422
  0
ARC
  5
1E3
330
18
100
AcDbEntity
  8
0
100
AcDbCircle
 10
2.522
 20
5.1
 30
0.0
 40
0.02
100
AcDbArc
 50
151.048
 51
182.422
  0
ARC
  5
1E4
330
18
100
AcDbEntity
  8
0
100
AcDbCircle
 10
2.522
 20
5.1
 30
0.0
 40
0.02
100
AcDbArc
 50
182.422
 51
214.418
  0
ARC
  5
1E5
330
18
100
AcDbEntity
  8
0
100
AcDbCircle
 10
2.533
 20
5.108000000000001
 30
0.0
 40
0.033
100
AcDbArc
 50
214.418
 51
238.879
  0
ARC
  5
1E6
330
18
100
AcDbEntity
  8
0
100
AcDbCircle
 10
2.54
 20
5.12
 30
0.0
 40
0.047
100
AcDbArc
 50
238.879
 51
257.066
  0
ARC
  5
1E7
330
18
100
AcDbEntity
  8
0
100
AcDbCircle
 10
2.544
 20
5.138
 30
0.0
 40
0.066
100
AcDbArc
 50
257.066
 51
272.422
  0
ARC
  5
1E8
330
18
100
AcDbEntity
  8
0
100
AcDbCircle
 10
2.544
 20
5.138
 30
0.0
 40
0.066
100
AcDbArc
 50
272.422
 51
287.777
  0
ARC
  5
1E9
330
18
100
AcDbEntity
  8
0
100
AcDbCircle
 10
2.55
 20
5.12
 30
0.0
 40
0.047
100
AcDbArc
 50
287.777
 51
305.965
  0
ARC
  5
1EA
330
18
100
AcDbEntity
  8
0
100
AcDbCircle
 10
2.558
 20
5.109
 30
0.0
 40
0.033
100
AcDbArc
 50
305.965
 51
330.425
  0
ARC
  5
1EB
330
18
100
AcDbEntity
  8
0
100
AcDbCircle
 10
2.57
 20
5.102
 30
0.0
 40
0.02
100
AcDbArc
 50
330.425
 51
2.422
  0
ARC
  5
1EC
330
18
100
AcDbEntity
  8
0
100
AcDbCircle
 10
2.57
 20
5.102
 30
0.0
 40
0.02
100
AcDbArc
 50
2.422
 51
20.585
  0
ARC
  5
1ED
330
18
100
AcDbEntity
  8
0
100
AcDbCircle
 10
2.523
 20
5.117
 30
0.0
 40
0.02
100
AcDbArc
 50
182.422
 51
214.418
  0
ARC
  5
1EE
330
18
100
AcDbEntity
  8
0
100
AcDbCircle
 10
2.534
 20
5.124
 30
0.0
 40
0.033
100
AcDbArc
 50
214.418
 51
238.879
  0
ARC
  5
1EF
330
18
100
AcDbEntity
  8
0
100
AcDbCircle
 10
2.541
 20
5.136
 30
0.0
 40
0.047
100
AcDbArc
 50
238.879
 51
257.066
  0
ARC
  5
1F0
330
18
100
AcDbEntity
  8
0
100
AcDbCircle
 10
2.545
 20
5.154
 30
0.0
 40
0.066
100
AcDbArc
 50
257.066
 51
272.422
  0
ARC
  5
1F1
330
18
100
AcDbEntity
  8
0
100
AcDbCircle
 10
2.545
 20
5.154
 30
0.0
 40
0.066
100
AcDbArc
 50
272.422
 51
287.777
  0
ARC
  5
1F2
330
18
100
AcDbEntity
  8
0
100
AcDbCircle
 10
2.551
 20
5.137000000000001
 30
0.0
 40
0.047
100
AcDbArc
 50
287.777
 51
305.965
  0
ARC
  5
1F3
330
18
100
AcDbEntity
  8
0
100
AcDbCircle
 10
2.559
 20
5.125
 30
0.0
 40
0.033
100
AcDbArc
 50
305.965
 51
330.425
  0
ARC
  5
1F4
330
18
100
AcDbEntity
  8
0
100
AcDbCircle
 10
2.571
 20
5.119
 30
0.0
 40
0.02
100
AcDbArc
 50
330.425
 51
2.422
  0
ARC
  5
1F5
330
18
100
AcDbEntity
  8
0
100
AcDbCircle
 10
2.571
 20
5.119
 30
0.0
 40
0.02
100
AcDbArc
 50
2.422
 51
34.418
  0
ARC
  5
1F6
330
18
100
AcDbEntity
  8
0
100
AcDbCircle
 10
2.56
 20
5.111000000000001
 30
0.0
 40
0.033
100
AcDbArc
 50
34.418
 51
58.87899999999999
  0
ARC
  5
1F7
330
18
100
AcDbEntity
  8
0
100
AcDbCircle
 10
2.553
 20
5.099
 30
0.0
 40
0.047
100
AcDbArc
 50
58.87899999999999
 51
77.066
  0
ARC
  5
1F8
330
18
100
AcDbEntity
  8
0
100
AcDbCircle
 10
2.549
 20
5.081
 30
0.0
 40
0.066
100
AcDbArc
 50
77.066
 51
92.422
  0
ARC
  5
1F9
330
18
100
AcDbEntity
  8
0
100
AcDbCircle
 10
2.549
 20
5.081
 30
0.0
 40
0.066
100
AcDbArc
 50
92.422
 51
107.777
  0
ARC
  5
1FA
330
18
100
AcDbEntity
  8
0
100
AcDbCircle
 10
2.543
 20
5.099
 30
0.0
 40
0.047
100
AcDbArc
 50
107.777
 51
125.965
  0
ARC
  5
1FB
330
18
100
AcDbEntity
  8
0
100
AcDbCircle
 10
2.535
 20
5.11
 30
0.0
 40
0.033
100
AcDbArc
 50
125.965
 51
150.425
  0
ARC
  5
1FC
330
18
100
AcDbEntity
  8
0
100
AcDbCircle
 10
2.523
 20
5.117
 30
0.0
 40
0.02
100
AcDbArc
 50
150.425
 51
182.422
  0
ARC
  5
1FD
330
18
100
AcDbEntity
  8
0
100
AcDbCircle
 10
2.168
 20
2.7
 30
0.0
 40
0.023
100
AcDbArc
 50
88.175
 51
118.591
  0
ARC
  5
1FE
330
18
100
AcDbEntity
  8
0
100
AcDbCircle
 10
2.174
 20
2.689
 30
0.0
 40
0.035
100
AcDbArc
 50
118.591
 51
142.97
  0
ARC
  5
1FF
330
18
100
AcDbEntity
  8
0
100
AcDbCircle
 10
2.183
 20
2.682
 30
0.0
 40
0.047
100
AcDbArc
 50
142.97
 51
161.884
  0
ARC
  5
200
330
18
100
AcDbEntity
  8
0
100
AcDbCircle
 10
2.199
 20
2.677
 30
0.0
 40
0.064
100
AcDbArc
 50
161.884
 51
178.175
  0
ARC
  5
201
330
18
100
AcDbEntity
  8
0
100
AcDbCircle
 10
2.199
 20
2.677
 30
0.0
 40
0.064
100
AcDbArc
 50
178.175
 51
194.466
  0
ARC
  5
202
330
18
100
AcDbEntity
  8
0
100
AcDbCircle
 10
2.183
 20
2.672
 30
0.0
 40
0.047
100
AcDbArc
 50
194.466
 51
213.38
  0
ARC
  5
203
330
18
100
AcDbEntity
  8
0
100
AcDbCircle
 10
2.173
 20
2.666
 30
0.0
 40
0.035
100
AcDbArc
 50
213.38
 51
237.759
  0
ARC
  5
204
330
18
100
AcDbEntity
  8
0
100
AcDbCircle
 10
2.166
 20
2.655
 30
0.0
 40
0.023
100
AcDbArc
 50
237.759
 51
268.175
  0
ARC
  5
205
330
18
100
AcDbEntity
  8
0
100
AcDbCircle
 10
2.166
 20
2.655
 30
0.0
 40
0.023
100
AcDbArc
 50
268.175
 51
298.591
  0
ARC
  5
206
330
18
100
AcDbEntity
  8
0
100
AcDbCircle
 10
2.16
 20
2.666
 30
0.0
 40
0.035
100
AcDbArc
 50
298.591
 51
322.97
  0
ARC
  5
207
330
18
100
AcDbEntity
  8
0
100
AcDbCircle
 10
2.151
 20
2.673
 30
0.0
 40
0.047
100
AcDbArc
 50
322.97
 51
341.884
  0
ARC
  5
208
330
18
100
AcDbEntity
  8
0
100
AcDbCircle
 10
2.135
 20
2.679
 30
0.0
 40
0.064
100
AcDbArc
 50
341.884
 51
358.175
  0
ARC
  5
209
330
18
100
AcDbEntity
  8
0
100
AcDbCircle
 10
2.135
 20
2.679
 30
0.0
 40
0.064
100
AcDbArc
 50
358.175
 51
14.466
  0
ARC
  5
20A
330
18
100
AcDbEntity
  8
0
100
AcDbCircle
 10
2.151
 20
2.683
 30
0.0
 40
0.047
100
AcDbArc
 50
14.466
 51
33.38
  0
ARC
  5
20B
330
18
100
AcDbEntity
  8
0
100
AcDbCircle
 10
2.161
 20
2.689
 30
0.0
 40
0.035
100
AcDbArc
 50
33.38
 51
57.759
  0
ARC
  5
20C
330
18
100
AcDbEntity
  8
0
100
AcDbCircle
 10
2.168
 20
2.7
 30
0.0
 40
0.023
100
AcDbArc
 50
57.759
 51
88.175
  0
ARC
  5
20D
330
18
100
AcDbEntity
  8
0
100
AcDbCircle
 10
2.182
 20
2.699
 30
0.0
 40
0.023
100
AcDbArc
 50
88.175
 51
105.09
  0
ARC
  5
20E
330
18
100
AcDbEntity
  8
0
100
AcDbCircle
 10
2.181
 20
2.654
 30
0.0
 40
0.023
100
AcDbArc
 50
247.3390000000001
 51
268.175
  0
ARC
  5
20F
330
18
100
AcDbEntity
  8
0
100
AcDbCircle
 10
2.181
 20
2.654
 30
0.0
 40
0.023
100
AcDbArc
 50
268.175
 51
298.591
  0
ARC
  5
210
330
18
100
AcDbEntity
  8
0
100
AcDbCircle
 10
2.175
 20
2.665
 30
0.0
 40
0.035
100
AcDbArc
 50
298.591
 51
322.97
  0
ARC
  5
211
330
18
100
AcDbEntity
  8
0
100
AcDbCircle
 10
2.165
 20
2.672
 30
0.0
 40
0.047
100
AcDbArc
 50
322.97
 51
341.884
  0
ARC
  5
212
330
18
100
AcDbEntity
  8
0
100
AcDbCircle
 10
2.15
 20
2.678
 30
0.0
 40
0.064
100
AcDbArc
 50
341.884
 51
358.175
  0
ARC
  5
213
330
18
100
AcDbEntity
  8
0
100
AcDbCircle
 10
2.15
 20
2.678
 30
0.0
 40
0.064
100
AcDbArc
 50
358.175
 51
14.466
  0
ARC
  5
214
330
18
100
AcDbEntity
  8
0
100
AcDbCircle
 10
2.166
 20
2.682
 30
0.0
 40
0.047
100
AcDbArc
 50
14.466
 51
33.38
  0
ARC
  5
215
330
18
100
AcDbEntity
  8
0
100
AcDbCircle
 10
2.176
 20
2.688
 30
0.0
 40
0.035
100
AcDbArc
 50
33.38
 51
57.759
  0
ARC
  5
216
330
18
100
AcDbEntity
  8
0
100
AcDbCircle
 10
2.182
 20
2.699
 30
0.0
 40
0.023
100
AcDbArc
 50
57.759
 51
88.175
  0
ARC
  5
217
330
18
100
AcDbEntity
  8
0
100
AcDbCircle
 10
2.176
 20
1.715
 30
0.0
 40
0.023
100
AcDbArc
 50
247.3390000000001
 51
268.175
  0
ARC
  5
218
330
18
100
AcDbEntity
  8
0
100
AcDbCircle
 10
2.176
 20
1.715
 30
0.0
 40
0.023
100
AcDbArc
 50
268.175
 51
298.591
  0
ARC
  5
219
330
18
100
AcDbEntity
  8
0
100
AcDbCircle
 10
2.17
 20
1.726
 30
0.0
 40
0.035
100
AcDbArc
 50
298.591
 51
322.97
  0
ARC
  5
21A
330
18
100
AcDbEntity
  8
0
100
AcDbCircle
 10
2.16
 20
1.734
 30
0.0
 40
0.047
100
AcDbArc
 50
322.97
 51
341.884
  0
ARC
  5
21B
330
18
100
AcDbEntity
  8
0
100
AcDbCircle
 10
2.145
 20
1.739
 30
0.0
 40
0.064
100
AcDbArc
 50
341.884
 51
358.175
  0
ARC
  5
21C
330
18
100
AcDbEntity
  8
0
100
AcDbCircle
 10
2.145
 20
1.739
 30
0.0
 40
0.064
100
AcDbArc
 50
358.175
 51
14.466
  0
ARC
  5
21D
330
18
100
AcDbEntity
  8
0
100
AcDbCircle
 10
2.161
 20
1.743
 30
0.0
 40
0.047
100
AcDbArc
 50
14.466
 51
33.38
  0
ARC
  5
21E
330
18
100
AcDbEntity
  8
0
100
AcDbCircle
 10
2.171
 20
1.75
 30
0.0
 40
0.035
100
AcDbArc
 50
33.38
 51
57.759
  0
ARC
  5
21F
330
18
100
AcDbEntity
  8
0
100
AcDbCircle
 10
2.177
 20
1.76
 30
0.0
 40
0.023
100
AcDbArc
 50
57.759
 51
88.175
  0
ARC
  5
220
330
18
100
AcDbEntity
  8
0
100
AcDbCircle
 10
2.177
 20
1.76
 30
0.0
 40
0.023
100
AcDbArc
 50
88.175
 51
105.09
  0
ARC
  5
221
330
18
100
AcDbEntity
  8
0
100
AcDbCircle
 10
2.163
 20
1.761
 30
0.0
 40
0.023
100
AcDbArc
 50
88.175
 51
118.591
  0
ARC
  5
222
330
18
100
AcDbEntity
  8
0
100
AcDbCircle
 10
2.169
 20
1.75
 30
0.0
 40
0.035
100
AcDbArc
 50
118.591
 51
142.97
  0
ARC
  5
223
330
18
100
AcDbEntity
  8
0
100
AcDbCircle
 10
2.178
 20
1.743
 30
0.0
 40
0.047
100
AcDbArc
 50
142.97
 51
161.884
  0
ARC
  5
224
330
18
100
AcDbEntity
  8
0
100
AcDbCircle
 10
2.194
 20
1.738
 30
0.0
 40
0.064
100
AcDbArc
 50
161.884
 51
178.175
  0
ARC
  5
225
330
18
100
AcDbEntity
  8
0
100
AcDbCircle
 10
2.194
 20
1.738
 30
0.0
 40
0.064
100
AcDbArc
 50
178.175
 51
194.466
  0
ARC
  5
226
330
18
100
AcDbEntity
  8
0
100
AcDbCircle
 10
2.178
 20
1.734
 30
0.0
 40
0.047
100
AcDbArc
 50
194.466
 51
213.38
  0
ARC
  5
227
330
18
100
AcDbEntity
  8
0
100
AcDbCircle
 10
2.168
 20
1.727
 30
0.0
 40
0.035
100
AcDbArc
 50
213.38
 51
237.759
  0
ARC
  5
228
330
18
100
AcDbEntity
  8
0
100
AcDbCircle
 10
2.161
 20
1.716
 30
0.0
 40
0.023
100
AcDbArc
 50
237.759
 51
268.175
  0
ARC
  5
229
330
18
100
AcDbEntity
  8
0
100
AcDbCircle
 10
2.161
 20
1.716
 30
0.0
 40
0.023
100
AcDbArc
 50
268.175
 51
298.591
  0
ARC
  5
22A
330
18
100
AcDbEntity
  8
0
100
AcDbCircle
 10
2.155
 20
1.727
 30
0.0
 40
0.035
100
AcDbArc
 50
298.591
 51
322.97
  0
ARC
  5
22B
330
18
100
AcDbEntity
  8
0
100
AcDbCircle
 10
2.146
 20
1.735
 30
0.0
 40
0.047
100
AcDbArc
 50
322.97
 51
341.884
  0
ARC
  5
22C
330
18
100
AcDbEntity
  8
0
100
AcDbCircle
 10
2.13
 20
1.74
 30
0.0
 40
0.064
100
AcDbArc
 50
341.884
 51
358.175
  0
ARC
  5
22D
330
18
100
AcDbEntity
  8
0
100
AcDbCircle
 10
2.13
 20
1.74
 30
0.0
 40
0.064
100
AcDbArc
 50
358.175
 51
14.466
  0
ARC
  5
22E
330
18
100
AcDbEntity
  8
0
100
AcDbCircle
 10
2.146
 20
1.744
 30
0.0
 40
0.047
100
AcDbArc
 50
14.466
 51
33.38
  0
ARC
  5
22F
330
18
100
AcDbEntity
  8
0
100
AcDbCircle
 10
2.156
 20
1.75
 30
0.0
 40
0.035
100
AcDbArc
 50
33.38
 51
57.759
  0
ARC
  5
230
330
18
100
AcDbEntity
  8
0
100
AcDbCircle
 10
2.163
 20
1.761
 30
0.0
 40
0.023
100
AcDbArc
 50
57.759
 51
88.175
  0
ARC
  5
231
330
18
100
AcDbEntity
  8
0
100
AcDbCircle
 10
2.428
 20
1.714
 30
0.0
 40
0.023
100
AcDbArc
 50
247.3390000000001
 51
268.175
  0
ARC
  5
232
330
18
100
AcDbEntity
  8
0
100
AcDbCircle
 10
2.428
 20
1.714
 30
0.0
 40
0.023
100
AcDbArc
 50
268.175
 51
298.591
  0
ARC
  5
233
330
18
100
AcDbEntity
  8
0
100
AcDbCircle
 10
2.422
 20
1.725
 30
0.0
 40
0.035
100
AcDbArc
 50
298.591
 51
322.97
  0
ARC
  5
234
330
18
100
AcDbEntity
  8
0
100
AcDbCircle
 10
2.413
 20
1.732
 30
0.0
 40
0.047
100
AcDbArc
 50
322.97
 51
341.884
  0
ARC
  5
235
330
18
100
AcDbEntity
  8
0
100
AcDbCircle
 10
2.397
 20
1.737
 30
0.0
 40
0.064
100
AcDbArc
 50
341.884
 51
358.175
  0
ARC
  5
236
330
18
100
AcDbEntity
  8
0
100
AcDbCircle
 10
2.397
 20
1.737
 30
0.0
 40
0.064
100
AcDbArc
 50
358.175
 51
14.466
  0
ARC
  5
237
330
18
100
AcDbEntity
  8
0
100
AcDbCircle
 10
2.413
 20
1.741
 30
0.0
 40
0.047
100
AcDbArc
 50
14.466
 51
33.38
  0
ARC
  5
238
330
18
100
AcDbEntity
  8
0
100
AcDbCircle
 10
2.423
 20
1.748
 30
0.0
 40
0.035
100
AcDbArc
 50
33.38
 51
57.759
  0
ARC
  5
239
330
18
100
AcDbEntity
  8
0
100
AcDbCircle
 10
2.43
 20
1.758
 30
0.0
 40
0.023
100
AcDbArc
 50
57.759
 51
88.175
  0
ARC
  5
23A
330
18
100
AcDbEntity
  8
0
100
AcDbCircle
 10
2.43
 20
1.758
 30
0.0
 40
0.023
100
AcDbArc
 50
88.175
 51
105.09
  0
ARC
  5
23B
330
18
100
AcDbEntity
  8
0
100
AcDbCircle
 10
2.415
 20
1.759
 30
0.0
 40
0.023
100
AcDbArc
 50
88.175
 51
118.591
  0
ARC
  5
23C
330
18
100
AcDbEntity
  8
0
100
AcDbCircle
 10
2.421
 20
1.748
 30
0.0
 40
0.035
100
AcDbArc
 50
118.591
 51
142.97
  0
ARC
  5
23D
330
18
100
AcDbEntity
  8
0
100
AcDbCircle
 10
2.431
 20
1.741
 30
0.0
 40
0.047
100
AcDbArc
 50
142.97
 51
161.884
  0
ARC
  5
23E
330
18
100
AcDbEntity
  8
0
100
AcDbCircle
 10
2.446
 20
1.736
 30
0.0
 40
0.064
100
AcDbArc
 50
161.884
 51
178.175
  0
ARC
  5
23F
330
18
100
AcDbEntity
  8
0
100
AcDbCircle
 10
2.446
 20
1.736
 30
0.0
 40
0.064
100
AcDbArc
 50
178.175
 51
194.466
  0
ARC
  5
240
330
18
100
AcDbEntity
  8
0
100
AcDbCircle
 10
2.43
 20
1.732
 30
0.0
 40
0.047
100
AcDbArc
 50
194.466
 51
213.38
  0
ARC
  5
241
330
18
100
AcDbEntity
  8
0
100
AcDbCircle
 10
2.42
 20
1.725
 30
0.0
 40
0.035
100
AcDbArc
 50
213.38
 51
237.759
  0
ARC
  5
242
330
18
100
AcDbEntity
  8
0
100
AcDbCircle
 10
2.414
 20
1.715
 30
0.0
 40
0.023
100
AcDbArc
 50
237.759
 51
268.175
  0
ARC
  5
243
330
18
100
AcDbEntity
  8
0
100
AcDbCircle
 10
2.414
 20
1.715
 30
0.0
 40
0.023
100
AcDbArc
 50
268.175
 51
298.591
  0
ARC
  5
244
330
18
100
AcDbEntity
  8
0
100
AcDbCircle
 10
2.408
 20
1.726
 30
0.0
 40
0.035
100
AcDbArc
 50
298.591
 51
322.97
  0
ARC
  5
245
330
18
100
AcDbEntity
  8
0
100
AcDbCircle
 10
2.398
 20
1.733
 30
0.0
 40
0.047
100
AcDbArc
 50
322.97
 51
341.884
  0
ARC
  5
246
330
18
100
AcDbEntity
  8
0
100
AcDbCircle
 10
2.383
 20
1.738
 30
0.0
 40
0.064
100
AcDbArc
 50
341.884
 51
358.175
  0
ARC
  5
247
330
18
100
AcDbEntity
  8
0
100
AcDbCircle
 10
2.383
 20
1.738
 30
0.0
 40
0.064
100
AcDbArc
 50
358.175
 51
14.466
  0
ARC
  5
248
330
18
100
AcDbEntity
  8
0
100
AcDbCircle
 10
2.398
 20
1.742
 30
0.0
 40
0.047
100
AcDbArc
 50
14.466
 51
33.38
  0
ARC
  5
249
330
18
100
AcDbEntity
  8
0
100
AcDbCircle
 10
2.408
 20
1.749
 30
0.0
 40
0.035
100
AcDbArc
 50
33.38
 51
57.759
  0
ARC
  5
24A
330
18
100
AcDbEntity
  8
0
100
AcDbCircle
 10
2.415
 20
1.759
 30
0.0
 40
0.023
100
AcDbArc
 50
57.759
 51
88.175
  0
ARC
  5
24B
330
18
100
AcDbEntity
  8
0
100
AcDbCircle
 10
2.412
 20
2.545
 30
0.0
 40
0.023
100
AcDbArc
 50
247.3390000000001
 51
268.175
  0
ARC
  5
24C
330
18
100
AcDbEntity
  8
0
100
AcDbCircle
 10
2.412
 20
2.545
 30
0.0
 40
0.023
100
AcDbArc
 50
268.175
 51
298.591
  0
ARC
  5
24D
330
18
100
AcDbEntity
  8
0
100
AcDbCircle
 10
2.406
 20
2.555
 30
0.0
 40
0.035
100
AcDbArc
 50
298.591
 51
322.97
  0
ARC
  5
24E
330
18
100
AcDbEntity
  8
0
100
AcDbCircle
 10
2.397
 20
2.563
 30
0.0
 40
0.047
100
AcDbArc
 50
322.97
 51
341.884
  0
ARC
  5
24F
330
18
100
AcDbEntity
  8
0
100
AcDbCircle
 10
2.381
 20
2.568
 30
0.0
 40
0.064
100
AcDbArc
 50
341.884
 51
358.175
  0
ARC
  5
250
330
18
100
AcDbEntity
  8
0
100
AcDbCircle
 10
2.381
 20
2.568
 30
0.0
 40
0.064
100
AcDbArc
 50
358.175
 51
14.466
  0
ARC
  5
251
330
18
100
AcDbEntity
  8
0
100
AcDbCircle
 10
2.397
 20
2.572
 30
0.0
 40
0.047
100
AcDbArc
 50
14.466
 51
33.38
  0
ARC
  5
252
330
18
100
AcDbEntity
  8
0
100
AcDbCircle
 10
2.407
 20
2.579
 30
0.0
 40
0.035
100
AcDbArc
 50
33.38
 51
57.759
  0
ARC
  5
253
330
18
100
AcDbEntity
  8
0
100
AcDbCircle
 10
2.414
 20
2.589
 30
0.0
 40
0.023
100
AcDbArc
 50
57.759
 51
88.175
  0
ARC
  5
254
330
18
100
AcDbEntity
  8
0
100
AcDbCircle
 10
2.414
 20
2.589
 30
0.0
 40
0.023
100
AcDbArc
 50
88.175
 51
105.09
  0
ARC
  5
255
330
18
100
AcDbEntity
  8
0
100
AcDbCircle
 10
2.399
 20
2.59
 30
0.0
 40
0.023
100
AcDbArc
 50
88.175
 51
118.591
  0
ARC
  5
256
330
18
100
AcDbEntity
  8
0
100
AcDbCircle
 10
2.405
 20
2.579
 30
0.0
 40
0.035
100
AcDbArc
 50
118.591
 51
142.97
  0
ARC
  5
257
330
18
100
AcDbEntity
  8
0
100
AcDbCircle
 10
2.415
 20
2.572
 30
0.0
 40
0.047
100
AcDbArc
 50
142.97
 51
161.884
  0
ARC
  5
258
330
18
100
AcDbEntity
  8
0
100
AcDbCircle
 10
2.43
 20
2.567
 30
0.0
 40
0.064
100
AcDbArc
 50
161.884
 51
178.175
  0
ARC
  5
259
330
18
100
AcDbEntity
  8
0
100
AcDbCircle
 10
2.43
 20
2.567
 30
0.0
 40
0.064
100
AcDbArc
 50
178.175
 51
194.466
  0
ARC
  5
25A
330
18
100
AcDbEntity
  8
0
100
AcDbCircle
 10
2.414
 20
2.563
 30
0.0
 40
0.047
100
AcDbArc
 50
194.466
 51
213.38
  0
ARC
  5
25B
330
18
100
AcDbEntity
  8
0
100
AcDbCircle
 10
2.404
 20
2.556
 30
0.0
 40
0.035
100
AcDbArc
 50
213.38
 51
237.759
  0
ARC
  5
25C
330
18
100
AcDbEntity
  8
0
100
AcDbCircle
 10
2.398
 20
2.546
 30
0.0
 40
0.023
100
AcDbArc
 50
237.759
 51
268.175
  0
ARC
  5
25D
330
18
100
AcDbEntity
  8
0
100
AcDbCircle
 10
2.398
 20
2.546
 30
0.0
 40
0.023
100
AcDbArc
 50
268.175
 51
298.591
  0
ARC
  5
25E
330
18
100
AcDbEntity
  8
0
100
AcDbCircle
 10
2.392
 20
2.556
 30
0.0
 40
0.035
100
AcDbArc
 50
298.591
 51
322.97
  0
ARC
  5
25F
330
18
100
AcDbEntity
  8
0
100
AcDbCircle
 10
2.382
 20
2.564
 30
0.0
 40
0.047
100
AcDbArc
 50
322.97
 51
341.884
  0
ARC
  5
260
330
18
100
AcDbEntity
  8
0
100
AcDbCircle
 10
2.366
 20
2.569
 30
0.0
 40
0.064
100
AcDbArc
 50
341.884
 51
358.175
  0
ARC
  5
261
330
18
100
AcDbEntity
  8
0
100
AcDbCircle
 10
2.366
 20
2.569
 30
0.0
 40
0.064
100
AcDbArc
 50
358.175
 51
14.466
  0
ARC
  5
262
330
18
100
AcDbEntity
  8
0
100
AcDbCircle
 10
2.382
 20
2.573
 30
0.0
 40
0.047
100
AcDbArc
 50
14.466
 51
33.38
  0
ARC
  5
263
330
18
100
AcDbEntity
  8
0
100
AcDbCircle
 10
2.392
 20
2.58
 30
0.0
 40
0.035
100
AcDbArc
 50
33.38
 51
57.759
  0
ARC
  5
264
330
18
100
AcDbEntity
  8
0
100
AcDbCircle
 10
2.399
 20
2.59
 30
0.0
 40
0.023
100
AcDbArc
 50
57.759
 51
88.175
  0
TEXT
  5
265
330
18
100
AcDbEntity
  8
0
100
AcDbText
 10
0.36146
 20
0.766216
 30
0.0
 40
0.15
  1
Simpson Strong-Tie
 41
0.8
100
AcDbText
  0
TEXT
  5
266
330
18
100
AcDbEntity
  8
0
100
AcDbText
 10
0.36146
 20
0.523359
 30
0.0
 40
0.15
  1
W
 41
0.8
100
AcDbText
  0
POINT
  5
267
330
18
100
AcDbEntity
  8
0
100
AcDbPoint
 10
0.26498
 20
0.470057
 30
0.0
  0
ENDSEC
  0
SECTION
  2
OBJECTS
  0
DICTIONARY
  5
C
330
0
100
AcDbDictionary
281
     1
  3
ACAD_COLOR
350
26D
  3
ACAD_GROUP
350
D
  3
ACAD_LAYOUT
350
15
  3
ACAD_MATERIAL
350
26F
  3
ACAD_MLINESTYLE
350
12
  3
ACAD_PLOTSETTINGS
350
14
  3
ACAD_PLOTSTYLENAME
350
E
  3
ACDBHEADERROUNDTRIPXREC
350
26C
  0
DICTIONARY
  5
26D
102
{ACAD_REACTORS
330
C
102
}
330
C
100
AcDbDictionary
281
     1
  0
DICTIONARY
  5
D
102
{ACAD_REACTORS
330
C
102
}
330
C
100
AcDbDictionary
281
     1
  0
DICTIONARY
  5
15
102
{ACAD_REACTORS
330
C
102
}
330
C
100
AcDbDictionary
281
     1
  3
Layout1
350
17
  3
Model
350
19
  0
DICTIONARY
  5
26F
102
{ACAD_REACTORS
330
C
102
}
330
C
100
AcDbDictionary
281
     1
  0
DICTIONARY
  5
12
102
{ACAD_REACTORS
330
C
102
}
330
C
100
AcDbDictionary
281
     1
  3
Standard
350
13
  0
DICTIONARY
  5
14
102
{ACAD_REACTORS
330
C
102
}
330
C
100
AcDbDictionary
281
     1
  0
ACDBDICTIONARYWDFLT
  5
E
102
{ACAD_REACTORS
330
C
102
}
330
C
100
AcDbDictionary
281
     1
  3
Normal
350
F
100
AcDbDictionaryWithDefault
340
F
  0
DICTIONARY
  5
26C
102
{ACAD_REACTORS
330
C
102
}
330
C
100
AcDbDictionary
281
     1
  3
COLORDICT
350
26E
  3
MATERIALDICT
350
270
  0
LAYOUT
  5
17
102
{ACAD_REACTORS
330
15
102
}
102
{ACAD_XDICTIONARY
360
271
102
}
330
15
100
AcDbPlotSettings
  1

  2

  4

  6

 40
0.0
 41
0.0
 42
0.0
 43
0.0
 44
0.0
 45
0.0
 46
0.0
 47
0.0
 48
0.0
 49
0.0
140
0.0
141
0.0
142
1.0
143
1.0
 70
   688
 72
     0
 73
     0
 74
     5
  7

 75
    16
147
1.0
148
0.0
149
0.0
100
AcDbLayout
  1
Layout1
 70
     1
 71
     1
 10
0.0
 20
0.0
 11
12.0
 21
9.0
 12
0.0
 22
0.0
 32
0.0
 14
1.000000000000000E+20
 24
1.000000000000000E+20
 34
1.000000000000000E+20
 15
-1.000000000000000E+20
 25
-1.000000000000000E+20
 35
-1.000000000000000E+20
146
0.0
 13
0.0
 23
0.0
 33
0.0
 16
1.0
 26
0.0
 36
0.0
 17
0.0
 27
1.0
 37
0.0
 76
     0
330
16
  0
LAYOUT
  5
19
102
{ACAD_REACTORS
330
15
102
}
102
{ACAD_XDICTIONARY
360
273
102
}
330
15
100
AcDbPlotSettings
  1

  2

  4

  6

 40
0.0
 41
0.0
 42
0.0
 43
0.0
 44
0.0
 45
0.0
 46
0.0
 47
0.0
 48
0.0
 49
0.0
140
0.0
141
0.0
142
1.0
143
1.0
 70
  1712
 72
     0
 73
     0
 74
     0
  7

 75
     0
147
1.0
148
0.0
149
0.0
100
AcDbLayout
  1
Model
 70
     1
 71
     0
 10
0.0
 20
0.0
 11
0.0
 21
0.0
 12
0.0
 22
0.0
 32
0.0
 14
0.0
 24
0.0
 34
0.0
 15
0.0
 25
0.0
 35
0.0
146
0.0
 13
0.0
 23
0.0
 33
0.0
 16
1.0
 26
0.0
 36
0.0
 17
0.0
 27
1.0
 37
0.0
 76
     0
330
18
  0
MLINESTYLE
  5
13
102
{ACAD_REACTORS
330
12
102
}
330
12
100
AcDbMlineStyle
  2
Standard
 70
     0
  3

 62
   256
 51
90.0
 52
90.0
 71
     2
 49
0.5
 62
   256
  6
BYLAYER
 49
-0.5
 62
   256
  6
BYLAYER
  0
ACDBPLACEHOLDER
  5
F
102
{ACAD_REACTORS
330
E
102
}
330
E
  0
XRECORD
  5
26E
102
{ACAD_REACTORS
330
26C
102
}
330
26C
100
AcDbXrecord
340
26D
  0
XRECORD
  5
270
102
{ACAD_REACTORS
330
26C
102
}
330
26C
100
AcDbXrecord
340
26F
  0
DICTIONARY
  5
271
330
17
100
AcDbDictionary
280
     1
281
     1
  3
ACAD_XREC_ROUNDTRIP
360
272
  0
DICTIONARY
  5
273
330
19
100
AcDbDictionary
280
     1
281
     1
  3
ACAD_XREC_ROUNDTRIP
360
274
  0
XRECORD
  5
272
102
{ACAD_REACTORS
330
271
102
}
330
271
100
AcDbXrecord
102
SHADEPLOT
 70
     0
102
SHADEPLOTRESLEVEL
 70
     0
102
SHADEPLOTCUSTOMDPI
 70
     0
  0
XRECORD
  5
274
102
{ACAD_REACTORS
330
273
102
}
330
273
100
AcDbXrecord
102
SHADEPLOT
 70
     0
102
SHADEPLOTRESLEVEL
 70
     0
102
SHADEPLOTCUSTOMDPI
 70
     0
  0
ENDSEC
  0
EOF
