  0
SECTION
  2
HEADER
  9
$ACADVER
  1
AC1015
  9
$ACADMAINTVER
 70
     6
  9
$DWGCODEPAGE
  3
ISO8859-1
  9
$INSBASE
 10
0.0
 20
0.0
 30
0.0
  9
$EXTMIN
 10
1.381176
 20
-3.863199666666667
 30
0.0
  9
$EXTMAX
 10
8.119228142857139
 20
2.636449000000004
 30
0.0
  9
$LIMMIN
 10
0.0
 20
0.0
  9
$LIMMAX
 10
12.0
 20
9.0
  9
$ORTHOMODE
 70
     1
  9
$REGENMODE
 70
     0
  9
$FILLMODE
 70
     1
  9
$QTEXTMODE
 70
     0
  9
$MIRRTEXT
 70
     1
  9
$LTSCALE
 40
0.25
  9
$ATTMODE
 70
     1
  9
$TEXTSIZE
 40
0.2
  9
$TRACEWID
 40
0.05
  9
$TEXTSTYLE
  7
STANDARD
  9
$CLAYER
  8
0
  9
$CELTYPE
  6
ByLayer
  9
$CECOLOR
 62
   256
  9
$CELTSCALE
 40
1.0
  9
$DISPSILH
 70
     0
  9
$DIMSCALE
 40
1.0
  9
$DIMASZ
 40
0.125
  9
$DIMEXO
 40
0.0625
  9
$DIMDLI
 40
0.38
  9
$DIMRND
 40
0.0
  9
$DIMDLE
 40
0.0
  9
$DIMEXE
 40
0.1
  9
$DIMTP
 40
0.0
  9
$DIMTM
 40
0.0
  9
$DIMTXT
 40
0.125
  9
$DIMCEN
 40
0.09
  9
$DIMTSZ
 40
0.0
  9
$DIMTOL
 70
     0
  9
$DIMLIM
 70
     0
  9
$DIMTIH
 70
     0
  9
$DIMTOH
 70
     0
  9
$DIMSE1
 70
     0
  9
$DIMSE2
 70
     0
  9
$DIMTAD
 70
     1
  9
$DIMZIN
 70
     0
  9
$DIMBLK
  1

  9
$DIMASO
 70
     1
  9
$DIMSHO
 70
     1
  9
$DIMPOST
  1

  9
$DIMAPOST
  1

  9
$DIMALT
 70
     0
  9
$DIMALTD
 70
     2
  9
$DIMALTF
 40
25.4
  9
$DIMLFAC
 40
1.0
  9
$DIMTOFL
 70
     0
  9
$DIMTVP
 40
0.0
  9
$DIMTIX
 70
     0
  9
$DIMSOXD
 70
     0
  9
$DIMSAH
 70
     0
  9
$DIMBLK1
  1

  9
$DIMBLK2
  1

  9
$DIMSTYLE
  2
Standard
  9
$DIMCLRD
 70
     0
  9
$DIMCLRE
 70
     0
  9
$DIMCLRT
 70
     0
  9
$DIMTFAC
 40
1.0
  9
$DIMGAP
 40
0.09
  9
$DIMJUST
 70
     0
  9
$DIMSD1
 70
     0
  9
$DIMSD2
 70
     0
  9
$DIMTOLJ
 70
     1
  9
$DIMTZIN
 70
     0
  9
$DIMALTZ
 70
     0
  9
$DIMALTTZ
 70
     0
  9
$DIMUPT
 70
     0
  9
$DIMDEC
 70
     4
  9
$DIMTDEC
 70
     4
  9
$DIMALTU
 70
     2
  9
$DIMALTTD
 70
     2
  9
$DIMTXSTY
  7
STANDARD
  9
$DIMAUNIT
 70
     0
  9
$DIMADEC
 70
     0
  9
$DIMALTRND
 40
0.0
  9
$DIMAZIN
 70
     0
  9
$DIMDSEP
 70
    46
  9
$DIMATFIT
 70
     3
  9
$DIMFRAC
 70
     0
  9
$DIMLDRBLK
  1

  9
$DIMLUNIT
 70
     2
  9
$DIMLWD
 70
    -2
  9
$DIMLWE
 70
    -2
  9
$DIMTMOVE
 70
     0
  9
$LUNITS
 70
     2
  9
$LUPREC
 70
     4
  9
$SKETCHINC
 40
0.1
  9
$FILLETRAD
 40
0.0
  9
$AUNITS
 70
     0
  9
$AUPREC
 70
     0
  9
$MENU
  1
acad
  9
$ELEVATION
 40
0.0
  9
$PELEVATION
 40
0.0
  9
$THICKNESS
 40
0.0
  9
$LIMCHECK
 70
     0
  9
$CHAMFERA
 40
0.0
  9
$CHAMFERB
 40
0.0
  9
$CHAMFERC
 40
1.0
  9
$CHAMFERD
 40
0.0
  9
$SKPOLY
 70
     0
  9
$TDCREATE
 40
2453955.560252778
  9
$TDUCREATE
 40
2453955.893586111
  9
$TDUPDATE
 40
2453955.601919456
  9
$TDUUPDATE
 40
2453955.893586123
  9
$TDINDWG
 40
0.0000000116
  9
$TDUSRTIMER
 40
0.0000000116
  9
$USRTIMER
 70
     1
  9
$ANGBASE
 50
0.0
  9
$ANGDIR
 70
     0
  9
$PDMODE
 70
     0
  9
$PDSIZE
 40
0.0
  9
$PLINEWID
 40
0.0
  9
$SPLFRAME
 70
     0
  9
$SPLINETYPE
 70
     6
  9
$SPLINESEGS
 70
     8
  9
$HANDSEED
  5
52B
  9
$SURFTAB1
 70
     6
  9
$SURFTAB2
 70
     6
  9
$SURFTYPE
 70
     6
  9
$SURFU
 70
     6
  9
$SURFV
 70
     6
  9
$UCSBASE
  2

  9
$UCSNAME
  2

  9
$UCSORG
 10
0.0
 20
0.0
 30
0.0
  9
$UCSXDIR
 10
1.0
 20
0.0
 30
0.0
  9
$UCSYDIR
 10
0.0
 20
1.0
 30
0.0
  9
$UCSORTHOREF
  2

  9
$UCSORTHOVIEW
 70
     0
  9
$UCSORGTOP
 10
0.0
 20
0.0
 30
0.0
  9
$UCSORGBOTTOM
 10
0.0
 20
0.0
 30
0.0
  9
$UCSORGLEFT
 10
0.0
 20
0.0
 30
0.0
  9
$UCSORGRIGHT
 10
0.0
 20
0.0
 30
0.0
  9
$UCSORGFRONT
 10
0.0
 20
0.0
 30
0.0
  9
$UCSORGBACK
 10
0.0
 20
0.0
 30
0.0
  9
$PUCSBASE
  2

  9
$PUCSNAME
  2

  9
$PUCSORG
 10
0.0
 20
0.0
 30
0.0
  9
$PUCSXDIR
 10
1.0
 20
0.0
 30
0.0
  9
$PUCSYDIR
 10
0.0
 20
1.0
 30
0.0
  9
$PUCSORTHOREF
  2

  9
$PUCSORTHOVIEW
 70
     0
  9
$PUCSORGTOP
 10
0.0
 20
0.0
 30
0.0
  9
$PUCSORGBOTTOM
 10
0.0
 20
0.0
 30
0.0
  9
$PUCSORGLEFT
 10
0.0
 20
0.0
 30
0.0
  9
$PUCSORGRIGHT
 10
0.0
 20
0.0
 30
0.0
  9
$PUCSORGFRONT
 10
0.0
 20
0.0
 30
0.0
  9
$PUCSORGBACK
 10
0.0
 20
0.0
 30
0.0
  9
$USERI1
 70
     0
  9
$USERI2
 70
     0
  9
$USERI3
 70
     0
  9
$USERI4
 70
     0
  9
$USERI5
 70
     0
  9
$USERR1
 40
0.0
  9
$USERR2
 40
0.0
  9
$USERR3
 40
0.0
  9
$USERR4
 40
0.0
  9
$USERR5
 40
0.0
  9
$WORLDVIEW
 70
     1
  9
$SHADEDGE
 70
     3
  9
$SHADEDIF
 70
    70
  9
$TILEMODE
 70
     1
  9
$MAXACTVP
 70
    16
  9
$PINSBASE
 10
0.0
 20
0.0
 30
0.0
  9
$PLIMCHECK
 70
     0
  9
$PEXTMIN
 10
1.000000000000000E+20
 20
1.000000000000000E+20
 30
1.000000000000000E+20
  9
$PEXTMAX
 10
-1.000000000000000E+20
 20
-1.000000000000000E+20
 30
-1.000000000000000E+20
  9
$PLIMMIN
 10
0.0
 20
0.0
  9
$PLIMMAX
 10
12.0
 20
9.0
  9
$UNITMODE
 70
     0
  9
$VISRETAIN
 70
     0
  9
$PLINEGEN
 70
     0
  9
$PSLTSCALE
 70
     1
  9
$TREEDEPTH
 70
  3020
  9
$CMLSTYLE
  2
Standard
  9
$CMLJUST
 70
     0
  9
$CMLSCALE
 40
1.0
  9
$PROXYGRAPHICS
 70
     1
  9
$MEASUREMENT
 70
     0
  9
$CELWEIGHT
370
    -1
  9
$ENDCAPS
280
     0
  9
$JOINSTYLE
280
     0
  9
$LWDISPLAY
290
     0
  9
$INSUNITS
 70
     1
  9
$HYPERLINKBASE
  1

  9
$STYLESHEET
  1

  9
$XEDIT
290
     1
  9
$CEPSNTYPE
380
     0
  9
$PSTYLEMODE
290
     0
  9
$FINGERPRINTGUID
  2
{FAEB1C30-E019-11D5-929B-00C0DF256EC4}
  9
$VERSIONGUID
  2
{FAEB1C32-E019-11D5-929B-00C0DF256EC4}
  9
$EXTNAMES
290
     1
  9
$PSVPSCALE
 40
0.0
  9
$OLESTARTUP
290
     0
  0
ENDSEC
  0
SECTION
  2
CLASSES
  0
CLASS
  1
ACDBDICTIONARYWDFLT
  2
AcDbDictionaryWithDefault
  3
AutoCAD 2000
 90
        0
280
     0
281
     0
  0
CLASS
  1
ACDBPLACEHOLDER
  2
AcDbPlaceHolder
  3
ObjectDBX Classes
 90
        0
280
     0
281
     0
  0
CLASS
  1
LAYOUT
  2
AcDbLayout
  3
ObjectDBX Classes
 90
        0
280
     0
281
     0
  0
ENDSEC
  0
SECTION
  2
TABLES
  0
TABLE
  2
VPORT
  5
4BF
330
0
100
AcDbSymbolTable
 70
     2
  0
VPORT
  5
4D5
330
4BF
100
AcDbSymbolTableRecord
100
AcDbViewportTableRecord
  2
*ACTIVE
 70
     0
 10
0.0
 20
0.0
 11
1.0
 21
1.0
 12
8.923261016949152
 22
2.5684
 13
0.0
 23
0.0
 14
1.0
 24
1.0
 15
0.0
 25
0.0
 16
0.0
 26
0.0
 36
1.0
 17
0.0
 27
0.0
 37
0.0
 40
12.8632
 41
0.7207678883071553
 42
50.0
 43
0.0
 44
0.0
 50
0.0
 51
0.0
 71
     0
 72
  2000
 73
     1
 74
     0
 75
     0
 76
     0
 77
     0
 78
     0
281
     0
 65
     1
110
0.0
120
0.0
130
0.0
111
1.0
121
0.0
131
0.0
112
0.0
122
1.0
132
0.0
 79
     0
146
0.0
  0
ENDTAB
  0
TABLE
  2
LTYPE
  5
4BC
330
0
100
AcDbSymbolTable
 70
     1
  0
LTYPE
  5
4C7
330
4BC
100
AcDbSymbolTableRecord
100
AcDbLinetypeTableRecord
  2
ByBlock
 70
     0
  3

 72
    65
 73
     0
 40
0.0
  0
LTYPE
  5
4C8
330
4BC
100
AcDbSymbolTableRecord
100
AcDbLinetypeTableRecord
  2
ByLayer
 70
     0
  3

 72
    65
 73
     0
 40
0.0
  0
LTYPE
  5
4D2
330
4BC
100
AcDbSymbolTableRecord
100
AcDbLinetypeTableRecord
  2
CONTINUOUS
 70
     0
  3
Solid line
 72
    65
 73
     0
 40
0.0
  0
ENDTAB
  0
TABLE
  2
LAYER
  5
4B9
330
0
100
AcDbSymbolTable
 70
     1
  0
LAYER
  5
4D3
330
4B9
100
AcDbSymbolTableRecord
100
AcDbLayerTableRecord
  2
0
 70
     0
 62
     7
  6
CONTINUOUS
370
    -3
390
4C6
  0
ENDTAB
  0
TABLE
  2
STYLE
  5
4BA
330
0
100
AcDbSymbolTable
 70
     1
  0
STYLE
  5
4D7
330
4BA
100
AcDbSymbolTableRecord
100
AcDbTextStyleTableRecord
  2
STANDARD
 70
     0
 40
0.0
 41
1.0
 50
0.0
 71
     0
 42
0.2
  3
ROMANS.SHX
  4

  0
ENDTAB
  0
TABLE
  2
VIEW
  5
4BD
330
0
100
AcDbSymbolTable
 70
     0
  0
ENDTAB
  0
TABLE
  2
UCS
  5
4BE
330
0
100
AcDbSymbolTable
 70
     0
  0
ENDTAB
  0
TABLE
  2
APPID
  5
4C0
330
0
100
AcDbSymbolTable
 70
     1
  0
APPID
  5
4D6
330
4C0
100
AcDbSymbolTableRecord
100
AcDbRegAppTableRecord
  2
ACAD
 70
     0
  0
ENDTAB
  0
TABLE
  2
DIMSTYLE
  5
4C1
330
0
100
AcDbSymbolTable
 70
     1
100
AcDbDimStyleTable
  0
DIMSTYLE
105
4D8
330
4C1
100
AcDbSymbolTableRecord
100
AcDbDimStyleTableRecord
  2
Standard
 70
     0
  3

  4

340
4D7
  0
ENDTAB
  0
TABLE
  2
BLOCK_RECORD
  5
4B8
330
0
100
AcDbSymbolTable
 70
     0
  0
BLOCK_RECORD
  5
4CF
330
4B8
100
AcDbSymbolTableRecord
100
AcDbBlockTableRecord
  2
*Model_Space
340
4D0
  0
BLOCK_RECORD
  5
4CD
330
4B8
100
AcDbSymbolTableRecord
100
AcDbBlockTableRecord
  2
*Paper_Space
340
4CE
  0
ENDTAB
  0
ENDSEC
  0
SECTION
  2
BLOCKS
  0
BLOCK
  5
520
330
4CF
100
AcDbEntity
  8
0
100
AcDbBlockBegin
  2
*Model_Space
 70
     0
 10
0.0
 20
0.0
 30
0.0
  3
*Model_Space
  1

  4

  0
ENDBLK
  5
521
330
4CF
100
AcDbEntity
  8
0
100
AcDbBlockEnd
  0
BLOCK
  5
51E
330
4CD
100
AcDbEntity
 67
     1
  8
0
100
AcDbBlockBegin
  2
*Paper_Space
 70
     0
 10
0.0
 20
0.0
 30
0.0
  3
*Paper_Space
  1

  4

  0
ENDBLK
  5
51F
330
4CD
100
AcDbEntity
 67
     1
  8
0
100
AcDbBlockEnd
  0
ENDSEC
  0
SECTION
  2
ENTITIES
  0
LINE
  5
8
330
4CF
100
AcDbEntity
  8
0
100
AcDbLine
 10
1.571869
 20
1.40469
 30
0.0
 11
1.571869
 21
-0.235161
 31
0.0
  0
LINE
  5
9
330
4CF
100
AcDbEntity
  8
0
100
AcDbLine
 10
1.571869
 20
1.40469
 30
0.0
 11
2.42768
 21
1.977102
 31
0.0
  0
LINE
  5
A
330
4CF
100
AcDbEntity
  8
0
100
AcDbLine
 10
2.42768
 20
1.977102
 30
0.0
 11
4.424268
 21
1.789003
 31
0.0
  0
LINE
  5
B
330
4CF
100
AcDbEntity
  8
0
100
AcDbLine
 10
6.849651
 20
1.560509
 30
0.0
 11
6.849651
 21
0.006385
 31
0.0
  0
LINE
  5
C
330
4CF
100
AcDbEntity
  8
0
100
AcDbLine
 10
6.849651
 20
-2.00725
 30
0.0
 11
6.280558
 21
-2.964897
 31
0.0
  0
LINE
  5
D
330
4CF
100
AcDbEntity
  8
0
100
AcDbLine
 10
6.280558
 20
-2.964897
 30
0.0
 11
6.280558
 21
-2.060659
 31
0.0
  0
LINE
  5
E
330
4CF
100
AcDbEntity
  8
0
100
AcDbLine
 10
6.280558
 20
0.9009280000000001
 30
0.0
 11
6.849651
 21
1.560509
 31
0.0
  0
LINE
  5
F
330
4CF
100
AcDbEntity
  8
0
100
AcDbLine
 10
1.571869
 20
1.40469
 30
0.0
 11
2.015477
 21
1.34868
 31
0.0
  0
LINE
  5
10
330
4CF
100
AcDbEntity
  8
0
100
AcDbLine
 10
2.015477
 20
1.34868
 30
0.0
 11
2.015477
 21
0.442442
 31
0.0
  0
LINE
  5
11
330
4CF
100
AcDbEntity
  8
0
100
AcDbLine
 10
2.015477
 20
1.34868
 30
0.0
 11
2.576283
 21
1.809567
 31
0.0
  0
LINE
  5
12
330
4CF
100
AcDbEntity
  8
0
100
AcDbLine
 10
2.576283
 20
1.809567
 30
0.0
 11
4.260722
 21
1.644399
 31
0.0
  0
LINE
  5
13
330
4CF
100
AcDbEntity
  8
0
100
AcDbLine
 10
6.030765
 20
1.470838
 30
0.0
 11
5.679722
 21
0.97893
 31
0.0
  0
LINE
  5
14
330
4CF
100
AcDbEntity
  8
0
100
AcDbLine
 10
5.679722
 20
0.97893
 30
0.0
 11
5.679722
 21
0.511941
 31
0.0
  0
LINE
  5
15
330
4CF
100
AcDbEntity
  8
0
100
AcDbLine
 10
3.089718
 20
1.490824
 30
0.0
 11
3.577537
 21
1.040343
 31
0.0
  0
LINE
  5
16
330
4CF
100
AcDbEntity
  8
0
100
AcDbLine
 10
4.976739
 20
-0.251766
 30
0.0
 11
4.976739
 21
-0.777659
 31
0.0
  0
LINE
  5
17
330
4CF
100
AcDbEntity
  8
0
100
AcDbLine
 10
4.976739
 20
-3.56359
 30
0.0
 11
3.877511
 21
-2.459124
 31
0.0
  0
LINE
  5
19
330
4CF
100
AcDbEntity
  8
0
100
AcDbLine
 10
3.014334
 20
-1.659635
 30
0.0
 11
3.014334
 21
-0.882525
 31
0.0
  0
LINE
  5
1A
330
4CF
100
AcDbEntity
  8
0
100
AcDbLine
 10
2.015477
 20
0.442442
 30
0.0
 11
2.792248
 21
0.346009
 31
0.0
  0
LINE
  5
1B
330
4CF
100
AcDbEntity
  8
0
100
AcDbLine
 10
4.976739
 20
-0.251766
 30
0.0
 11
5.446929
 21
-0.178537
 31
0.0
  0
LINE
  5
1C
330
4CF
100
AcDbEntity
  8
0
100
AcDbLine
 10
6.036453
 20
-0.086723
 30
0.0
 11
6.036453
 21
-0.380119
 31
0.0
  0
LINE
  5
1D
330
4CF
100
AcDbEntity
  8
0
100
AcDbLine
 10
6.036453
 20
-3.354411
 30
0.0
 11
4.976739
 21
-3.56359
 31
0.0
  0
LINE
  5
1E
330
4CF
100
AcDbEntity
  8
0
100
AcDbLine
 10
6.036453
 20
-0.086723
 30
0.0
 11
4.743982
 21
0.8618299999999999
 31
0.0
  0
LINE
  5
1F
330
4CF
100
AcDbEntity
  8
0
100
AcDbLine
 10
3.089718
 20
1.490824
 30
0.0
 11
3.089718
 21
1.199475
 31
0.0
  0
LINE
  5
23
330
4CF
100
AcDbEntity
  8
0
100
AcDbLine
 10
3.877511
 20
0.454284
 30
0.0
 11
3.877511
 21
-0.9101319999999999
 31
0.0
  0
LINE
  5
26
330
4CF
100
AcDbEntity
  8
0
100
AcDbLine
 10
3.877511
 20
0.454284
 30
0.0
 11
3.44882
 21
0.859793
 31
0.0
  0
LINE
  5
27
330
4CF
100
AcDbEntity
  8
0
100
AcDbLine
 10
3.04249
 20
1.170881
 30
0.0
 11
3.089718
 21
1.199475
 31
0.0
  0
LINE
  5
28
330
4CF
100
AcDbEntity
  8
0
100
AcDbLine
 10
3.821302
 20
0.434185
 30
0.0
 11
3.821302
 21
-0.9098959999999999
 31
0.0
  0
LINE
  5
29
330
4CF
100
AcDbEntity
  8
0
100
AcDbLine
 10
3.821302
 20
0.434185
 30
0.0
 11
3.408784
 21
0.8243950000000001
 31
0.0
  0
LINE
  5
2A
330
4CF
100
AcDbEntity
  8
0
100
AcDbLine
 10
3.821302
 20
0.434185
 30
0.0
 11
3.877511
 21
0.454284
 31
0.0
  0
LINE
  5
2C
330
4CF
100
AcDbEntity
  8
0
100
AcDbLine
 10
3.04249
 20
1.170881
 30
0.0
 11
3.04249
 21
1.097897
 31
0.0
  0
LINE
  5
2D
330
4CF
100
AcDbEntity
  8
0
100
AcDbLine
 10
3.821302
 20
-2.461759
 30
0.0
 11
3.014334
 21
-1.659635
 31
0.0
  0
ARC
  5
2E
330
4CF
100
AcDbEntity
  8
0
100
AcDbCircle
 10
3.920768
 20
-2.39333
 30
0.0
 40
0.120731
100
AcDbArc
 50
214.526482
 51
275.192498
  0
LWPOLYLINE
  5
41
330
4CF
100
AcDbEntity
  8
0
100
AcDbPolyline
 90
       16
 70
     1
 43
0.0
 10
3.727814
 20
-1.499759
 42
0.175804
 10
3.718479
 20
-1.503145
 42
0.104
 10
3.708292
 20
-1.516072
 42
0.06451
 10
3.702495
 20
-1.532922
 42
0.050669
 10
3.700205
 20
-1.555456
 42
0.050669
 10
3.702495
 20
-1.57799
 42
0.06451
 10
3.708292
 20
-1.59484
 42
0.104
 10
3.718479
 20
-1.607766
 42
0.175804
 10
3.727814
 20
-1.611153
 42
0.175804
 10
3.737148
 20
-1.607766
 42
0.104
 10
3.747335
 20
-1.59484
 42
0.06451
 10
3.753132
 20
-1.57799
 42
0.050669
 10
3.755422
 20
-1.555456
 42
0.050669
 10
3.753132
 20
-1.532922
 42
0.06451
 10
3.747335
 20
-1.516072
 42
0.104
 10
3.737148
 20
-1.503145
 42
0.175804
  0
LWPOLYLINE
  5
53
330
4CF
100
AcDbEntity
  8
0
100
AcDbPolyline
 90
       16
 70
     1
 43
0.0
 10
3.727814
 20
-1.190653
 42
0.175804
 10
3.718479
 20
-1.194039
 42
0.104
 10
3.708292
 20
-1.206966
 42
0.06451
 10
3.702495
 20
-1.223816
 42
0.050669
 10
3.700205
 20
-1.24635
 42
0.050669
 10
3.702495
 20
-1.268884
 42
0.06451
 10
3.708292
 20
-1.285734
 42
0.104
 10
3.718479
 20
-1.29866
 42
0.175804
 10
3.727814
 20
-1.302047
 42
0.175804
 10
3.737148
 20
-1.29866
 42
0.104
 10
3.747335
 20
-1.285734
 42
0.06451
 10
3.753132
 20
-1.268884
 42
0.050669
 10
3.755422
 20
-1.24635
 42
0.050669
 10
3.753132
 20
-1.223816
 42
0.06451
 10
3.747335
 20
-1.206966
 42
0.104
 10
3.737148
 20
-1.194039
 42
0.175804
  0
LINE
  5
65
330
4CF
100
AcDbEntity
  8
0
100
AcDbLine
 10
1.571869
 20
-2.281475
 30
0.0
 11
4.080351
 21
-2.66293
 31
0.0
  0
LINE
  5
66
330
4CF
100
AcDbEntity
  8
0
100
AcDbLine
 10
6.280558
 20
-2.964897
 30
0.0
 11
6.036453
 21
-2.937924
 31
0.0
  0
LINE
  5
67
330
4CF
100
AcDbEntity
  8
0
100
AcDbLine
 10
4.976739
 20
-1.441016
 30
0.0
 11
5.087724
 21
-1.624622
 31
0.0
  0
LINE
  5
68
330
4CF
100
AcDbEntity
  8
0
100
AcDbLine
 10
5.087724
 20
-1.624622
 30
0.0
 11
4.903144
 21
-1.810364
 31
0.0
  0
LINE
  5
69
330
4CF
100
AcDbEntity
  8
0
100
AcDbLine
 10
4.903144
 20
-1.810364
 30
0.0
 11
4.976739
 21
-1.939797
 31
0.0
  0
LINE
  5
6A
330
4CF
100
AcDbEntity
  8
0
100
AcDbLine
 10
4.976739
 20
-1.939797
 30
0.0
 11
4.976739
 21
-3.56359
 31
0.0
  0
LINE
  5
6B
330
4CF
100
AcDbEntity
  8
0
100
AcDbLine
 10
6.036453
 20
-1.295048
 30
0.0
 11
6.123362999999999
 21
-1.485682
 31
0.0
  0
LINE
  5
6C
330
4CF
100
AcDbEntity
  8
0
100
AcDbLine
 10
6.123362999999999
 20
-1.485682
 30
0.0
 11
5.9217
 21
-1.620249
 31
0.0
  0
LINE
  5
6D
330
4CF
100
AcDbEntity
  8
0
100
AcDbLine
 10
5.9217
 20
-1.620249
 30
0.0
 11
6.036453
 21
-1.776758
 31
0.0
  0
LINE
  5
6E
330
4CF
100
AcDbEntity
  8
0
100
AcDbLine
 10
6.036453
 20
-1.776758
 30
0.0
 11
6.036453
 21
-3.354411
 31
0.0
  0
LINE
  5
6F
330
4CF
100
AcDbEntity
  8
0
100
AcDbLine
 10
4.976739
 20
-1.939797
 30
0.0
 11
6.036453
 21
-1.776758
 31
0.0
  0
LINE
  5
70
330
4CF
100
AcDbEntity
  8
0
100
AcDbLine
 10
5.9217
 20
-1.620249
 30
0.0
 11
4.903144
 21
-1.810364
 31
0.0
  0
LINE
  5
71
330
4CF
100
AcDbEntity
  8
0
100
AcDbLine
 10
5.087724
 20
-1.624622
 30
0.0
 11
6.123362999999999
 21
-1.485682
 31
0.0
  0
LINE
  5
72
330
4CF
100
AcDbEntity
  8
0
100
AcDbLine
 10
6.036453
 20
-1.295048
 30
0.0
 11
4.976739
 21
-1.441016
 31
0.0
  0
LWPOLYLINE
  5
73
330
4CF
100
AcDbEntity
  8
0
100
AcDbPolyline
 90
        7
 70
     0
 43
0.0
 10
4.976739
 20
-2.291045
 10
5.037766
 20
-2.138478
 10
5.037725
 20
-2.043138
 10
5.042704000000001
 20
-1.952813
 10
5.040793
 20
-1.929942
 10
4.978422
 20
-1.830404
 10
4.930414
 20
-1.805274
  0
LWPOLYLINE
  5
7D
330
4CF
100
AcDbEntity
  8
0
100
AcDbPolyline
 90
       12
 70
     0
 43
0.0
 10
4.976739
 20
-2.684454
 10
5.025919
 20
-2.596118
 10
5.045943
 20
-2.484711
 10
5.059946
 20
-2.374311
 10
5.076958
 20
-2.260899
 10
5.090969
 20
-2.17057
 10
5.111999
 20
-2.065185
 10
5.133038
 20
-1.980875
 10
5.152853
 20
-1.912702
 10
5.1119
 20
-1.83436
 10
5.086789
 20
-1.785196
 10
5.056639
 20
-1.781714
  0
LWPOLYLINE
  5
8D
330
4CF
100
AcDbEntity
  8
0
100
AcDbPolyline
 90
       11
 70
     0
 43
0.0
 10
4.976739
 20
-3.082876
 10
5.037097
 20
-2.91726
 10
5.084196
 20
-2.756666
 10
5.13129
 20
-2.582022
 10
5.187418
 20
-2.412393
 10
5.207432
 20
-2.278907
 10
5.238501
 20
-2.18255
 10
5.256519
 20
-2.074155
 10
5.270528
 20
-1.977805
 10
5.302778
 20
-1.889636
 10
5.20925
 20
-1.753229
  0
LWPOLYLINE
  5
9A
330
4CF
100
AcDbEntity
  8
0
100
AcDbPolyline
 90
       13
 70
     0
 43
0.0
 10
4.976739
 20
-3.372915
 10
5.049254
 20
-3.181197
 10
5.108404
 20
-3.038663
 10
5.156507
 20
-2.878069
 10
5.190559
 20
-2.716477
 10
5.23265
 20
-2.578968
 10
5.271729
 20
-2.435439
 10
5.287734
 20
-2.315002
 10
5.31979
 20
-2.179504
 10
5.34282
 20
-2.056053
 10
5.361856
 20
-1.98178
 10
5.387241
 20
-1.876641
 10
5.312759
 20
-1.733909
  0
LWPOLYLINE
  5
A9
330
4CF
100
AcDbEntity
  8
0
100
AcDbPolyline
 90
       10
 70
     0
 43
0.0
 10
5.04718
 20
-3.549685
 10
5.078426
 20
-3.339751
 10
5.11751
 20
-3.210272
 10
5.177671
 20
-3.084798
 10
5.234771
 20
-2.84291
 10
5.34301
 20
-2.498634
 10
5.407111
 20
-2.200542
 10
5.436122
 20
-1.982751
 10
5.462802
 20
-1.865016
 10
5.415747000000001
 20
-1.714686
  0
LWPOLYLINE
  5
B5
330
4CF
100
AcDbEntity
  8
0
100
AcDbPolyline
 90
       12
 70
     0
 43
0.0
 10
5.257876
 20
-3.508096
 10
5.281146
 20
-3.330632
 10
5.311178
 20
-3.155995
 10
5.352273
 20
-3.035547
 10
5.386308000000001
 20
-2.833812
 10
5.435392
 20
-2.619024
 10
5.480462
 20
-2.408252
 10
5.499448999999999
 20
-2.218567
 10
5.51844
 20
-2.03992
 10
5.546487
 20
-1.915464
 10
5.576004
 20
-1.847599
 10
5.516032
 20
-1.695968
  0
LWPOLYLINE
  5
C3
330
4CF
100
AcDbEntity
  8
0
100
AcDbPolyline
 90
       13
 70
     0
 43
0.0
 10
5.4382
 20
-3.472501
 10
5.446733999999999
 20
-3.322532
 10
5.481778
 20
-3.133843
 10
5.514835
 20
-2.992323
 10
5.549891000000001
 20
-2.830731
 10
5.580928
 20
-2.658101
 10
5.60496
 20
-2.531639
 10
5.631997
 20
-2.394137
 10
5.655002
 20
-2.212478
 10
5.666985
 20
-2.072975
 10
5.703053
 20
-1.931454
 10
5.72321
 20
-1.824951
 10
5.629353
 20
-1.674816
  0
LWPOLYLINE
  5
D2
330
4CF
100
AcDbEntity
  8
0
100
AcDbPolyline
 90
       11
 70
     0
 43
0.0
 10
5.585278
 20
-3.438888
 10
5.600269
 20
-3.292358
 10
5.630304
 20
-3.12274
 10
5.669348
 20
-2.899927
 10
5.710411
 20
-2.706218
 10
5.742451
 20
-2.53158
 10
5.753385
 20
-2.286701
 10
5.778397
 20
-2.106045
 10
5.806432
 20
-1.954492
 10
5.824184
 20
-1.809416
 10
5.733291
 20
-1.655416
  0
LWPOLYLINE
  5
EC
330
4CF
100
AcDbEntity
  8
0
100
AcDbPolyline
 90
        8
 70
     0
 43
0.0
 10
5.718787
 20
-3.417116000000001
 10
5.752787000000001
 20
-3.229067
 10
5.797803
 20
-2.89084
 10
5.832769
 20
-2.521506
 10
5.872794
 20
-2.245503
 10
5.903805
 20
-2.012658
 10
5.919889
 20
-1.794692
 10
5.826198000000001
 20
-1.638074
  0
LWPOLYLINE
  5
F6
330
4CF
100
AcDbEntity
  8
0
100
AcDbPolyline
 90
        8
 70
     0
 43
0.0
 10
5.852786
 20
-3.390665
 10
5.871215
 20
-3.242063
 10
5.898262
 20
-3.125635
 10
5.910265
 20
-3.0333
 10
5.916194
 20
-2.817527
 10
5.938204
 20
-2.657948
 10
5.936138
 20
-2.521461
 10
6.036453
 20
-2.102934
  0
LWPOLYLINE
  5
179
330
4CF
100
AcDbEntity
  8
0
100
AcDbPolyline
 90
        4
 70
     0
 43
0.0
 10
6.036453
 20
-1.051166
 10
6.00783
 20
-1.205731
 10
5.984471
 20
-1.302208
 10
6.045213
 20
-1.496166
  0
LINE
  5
17F
330
4CF
100
AcDbEntity
  8
0
100
AcDbLine
 10
5.027647
 20
-1.685077
 30
0.0
 11
5.207413
 21
-1.608564
 31
0.0
  0
LINE
  5
180
330
4CF
100
AcDbEntity
  8
0
100
AcDbLine
 10
5.1156
 20
-1.770709
 30
0.0
 11
5.424517
 21
-1.579438
 31
0.0
  0
LINE
  5
181
330
4CF
100
AcDbEntity
  8
0
100
AcDbLine
 10
5.227002
 20
-1.749916
 30
0.0
 11
5.559201
 21
-1.561369
 31
0.0
  0
LINE
  5
182
330
4CF
100
AcDbEntity
  8
0
100
AcDbLine
 10
5.380744
 20
-1.721219
 30
0.0
 11
5.702889
 21
-1.542092
 31
0.0
  0
LINE
  5
183
330
4CF
100
AcDbEntity
  8
0
100
AcDbLine
 10
5.546459
 20
-1.690288
 30
0.0
 11
5.845856
 21
-1.522912
 31
0.0
  0
LINE
  5
184
330
4CF
100
AcDbEntity
  8
0
100
AcDbLine
 10
5.713779
 20
-1.659058
 30
0.0
 11
5.920257
 21
-1.51293
 31
0.0
  0
LINE
  5
185
330
4CF
100
AcDbEntity
  8
0
100
AcDbLine
 10
5.868244
 20
-1.630227
 30
0.0
 11
5.999071
 21
-1.502357
 31
0.0
  0
LINE
  5
186
330
4CF
100
AcDbEntity
  8
0
100
AcDbLine
 10
4.956173000000001
 20
-1.800466
 30
0.0
 11
5.339007
 21
-1.59091
 31
0.0
  0
LINE
  5
187
330
4CF
100
AcDbEntity
  8
0
100
AcDbLine
 10
2.143917
 20
1.393897
 30
0.0
 11
3.089718
 21
1.271865
 31
0.0
  0
LINE
  5
188
330
4CF
100
AcDbEntity
  8
0
100
AcDbLine
 10
2.087884
 20
1.354964
 30
0.0
 11
3.089718
 21
1.225703
 31
0.0
  0
ARC
  5
18A
330
4CF
100
AcDbEntity
  8
0
100
AcDbCircle
 10
3.013262
 20
0.335284
 30
0.0
 40
0.03535
100
AcDbArc
 50
20.876212
 51
155.648292
  0
ARC
  5
18B
330
4CF
100
AcDbEntity
  8
0
100
AcDbCircle
 10
3.013262
 20
0.372421
 30
0.0
 40
0.03535
100
AcDbArc
 50
20.876212
 51
155.648292
  0
ARC
  5
18C
330
4CF
100
AcDbEntity
  8
0
100
AcDbCircle
 10
3.013262
 20
0.409557
 30
0.0
 40
0.03535
100
AcDbArc
 50
20.876212
 51
155.648292
  0
ARC
  5
18D
330
4CF
100
AcDbEntity
  8
0
100
AcDbCircle
 10
3.013262
 20
0.446694
 30
0.0
 40
0.03535
100
AcDbArc
 50
20.876212
 51
155.648292
  0
ARC
  5
18E
330
4CF
100
AcDbEntity
  8
0
100
AcDbCircle
 10
3.013262
 20
0.48383
 30
0.0
 40
0.03535
100
AcDbArc
 50
20.876212
 51
30.304264
  0
ARC
  5
190
330
4CF
100
AcDbEntity
  8
0
100
AcDbCircle
 10
3.013262
 20
0.558103
 30
0.0
 40
0.03535
100
AcDbArc
 50
20.876212
 51
155.648292
  0
ARC
  5
191
330
4CF
100
AcDbEntity
  8
0
100
AcDbCircle
 10
3.013262
 20
0.59524
 30
0.0
 40
0.03535
100
AcDbArc
 50
20.876212
 51
155.648292
  0
ARC
  5
192
330
4CF
100
AcDbEntity
  8
0
100
AcDbCircle
 10
3.013262
 20
0.6323760000000001
 30
0.0
 40
0.03535
100
AcDbArc
 50
20.876212
 51
155.648292
  0
ARC
  5
193
330
4CF
100
AcDbEntity
  8
0
100
AcDbCircle
 10
3.013262
 20
0.669513
 30
0.0
 40
0.03535
100
AcDbArc
 50
20.876212
 51
155.648292
  0
ARC
  5
194
330
4CF
100
AcDbEntity
  8
0
100
AcDbCircle
 10
3.013262
 20
0.706649
 30
0.0
 40
0.03535
100
AcDbArc
 50
20.876212
 51
155.648292
  0
ARC
  5
195
330
4CF
100
AcDbEntity
  8
0
100
AcDbCircle
 10
3.013262
 20
0.743786
 30
0.0
 40
0.03535
100
AcDbArc
 50
20.876212
 51
155.648292
  0
ARC
  5
196
330
4CF
100
AcDbEntity
  8
0
100
AcDbCircle
 10
3.013262
 20
0.780922
 30
0.0
 40
0.03535
100
AcDbArc
 50
20.876212
 51
155.648292
  0
ARC
  5
197
330
4CF
100
AcDbEntity
  8
0
100
AcDbCircle
 10
3.013262
 20
0.818059
 30
0.0
 40
0.03535
100
AcDbArc
 50
20.876212
 51
155.648292
  0
ARC
  5
198
330
4CF
100
AcDbEntity
  8
0
100
AcDbCircle
 10
3.013262
 20
0.855195
 30
0.0
 40
0.03535
100
AcDbArc
 50
20.876212
 51
155.648292
  0
ARC
  5
199
330
4CF
100
AcDbEntity
  8
0
100
AcDbCircle
 10
3.013262
 20
0.892332
 30
0.0
 40
0.03535
100
AcDbArc
 50
20.876212
 51
155.648292
  0
ARC
  5
19A
330
4CF
100
AcDbEntity
  8
0
100
AcDbCircle
 10
3.013262
 20
0.9294680000000001
 30
0.0
 40
0.03535
100
AcDbArc
 50
20.876212
 51
155.648292
  0
ARC
  5
19B
330
4CF
100
AcDbEntity
  8
0
100
AcDbCircle
 10
3.013262
 20
0.9666049999999999
 30
0.0
 40
0.03535
100
AcDbArc
 50
20.876212
 51
155.648292
  0
ARC
  5
19C
330
4CF
100
AcDbEntity
  8
0
100
AcDbCircle
 10
3.013262
 20
1.003741
 30
0.0
 40
0.03535
100
AcDbArc
 50
20.876212
 51
155.648292
  0
ARC
  5
19D
330
4CF
100
AcDbEntity
  8
0
100
AcDbCircle
 10
3.013262
 20
1.040878
 30
0.0
 40
0.03535
100
AcDbArc
 50
20.876212
 51
155.648292
  0
ARC
  5
19E
330
4CF
100
AcDbEntity
  8
0
100
AcDbCircle
 10
3.013262
 20
1.078014
 30
0.0
 40
0.03535
100
AcDbArc
 50
20.876212
 51
155.648292
  0
LWPOLYLINE
  5
1A0
330
4CF
100
AcDbEntity
  8
0
100
AcDbPolyline
 90
       16
 70
     1
 43
0.0
 10
2.713819
 20
1.705253
 42
0.188293
 10
2.710436
 20
1.713906
 42
0.101299
 10
2.696762
 20
1.723751
 42
0.059671
 10
2.679243
 20
1.729226
 42
0.046063
 10
2.655599
 20
1.731398
 42
0.046063
 10
2.631958
 20
1.729206
 42
0.059671
 10
2.614444
 20
1.723716
 42
0.101299
 10
2.600778
 20
1.713859
 42
0.188293
 10
2.597403
 20
1.705203
 42
0.188293
 10
2.600785
 20
1.69655
 42
0.101299
 10
2.614459
 20
1.686705
 42
0.059671
 10
2.631979
 20
1.68123
 42
0.046063
 10
2.655622
 20
1.679058
 42
0.046063
 10
2.679263
 20
1.681251
 42
0.059671
 10
2.696778
 20
1.686741
 42
0.101299
 10
2.710443
 20
1.696597
 42
0.188293
  0
LWPOLYLINE
  5
1C4
330
4CF
100
AcDbEntity
  8
0
100
AcDbPolyline
 90
       16
 70
     1
 43
0.0
 10
5.835736
 20
1.391848
 42
0.188293
 10
5.832353
 20
1.400501
 42
0.101299
 10
5.818679
 20
1.410346
 42
0.059671
 10
5.801159999999999
 20
1.415821
 42
0.046063
 10
5.777517
 20
1.417994
 42
0.046063
 10
5.753875
 20
1.415801
 42
0.059671
 10
5.736361000000001
 20
1.410311
 42
0.101299
 10
5.722695
 20
1.400454
 42
0.188293
 10
5.71932
 20
1.391798
 42
0.188293
 10
5.722703
 20
1.383145
 42
0.101299
 10
5.736377
 20
1.3733
 42
0.059671
 10
5.753896
 20
1.367826
 42
0.046063
 10
5.777539
 20
1.365653
 42
0.046063
 10
5.80118
 20
1.367846
 42
0.059671
 10
5.818695
 20
1.373336
 42
0.101299
 10
5.83236
 20
1.383192
 42
0.188293
  0
LINE
  5
1D6
330
4CF
100
AcDbEntity
  8
0
100
AcDbLine
 10
6.030765
 20
1.470838
 30
0.0
 11
6.030765
 21
1.428632
 31
0.0
  0
LINE
  5
1D7
330
4CF
100
AcDbEntity
  8
0
100
AcDbLine
 10
6.030765
 20
1.428632
 30
0.0
 11
5.709841
 21
0.97893
 31
0.0
  0
LINE
  5
1D8
330
4CF
100
AcDbEntity
  8
0
100
AcDbLine
 10
5.709841
 20
0.97893
 30
0.0
 11
5.709841
 21
0.498926
 31
0.0
  0
LINE
  5
1D9
330
4CF
100
AcDbEntity
  8
0
100
AcDbLine
 10
6.280558
 20
0.9009280000000001
 30
0.0
 11
5.709841
 21
0.9567600000000001
 31
0.0
  0
LINE
  5
1DA
330
4CF
100
AcDbEntity
  8
0
100
AcDbLine
 10
3.089718
 20
1.490824
 30
0.0
 11
3.812751
 21
1.248314
 31
0.0
  0
LINE
  5
1DB
330
4CF
100
AcDbEntity
  8
0
100
AcDbLine
 10
5.615476999999999
 20
1.016035
 30
0.0
 11
4.873818
 21
1.085554
 31
0.0
  0
LINE
  5
1DC
330
4CF
100
AcDbEntity
  8
0
100
AcDbLine
 10
5.559296
 20
0.9698459999999999
 30
0.0
 11
4.841923
 21
1.037088
 31
0.0
  0
LINE
  5
1DE
330
4CF
100
AcDbEntity
  8
0
100
AcDbLine
 10
4.616505
 20
1.958975
 30
0.0
 11
2.397736
 21
-0.00281
 31
0.0
  0
LINE
  5
1DF
330
4CF
100
AcDbEntity
  8
0
100
AcDbLine
 10
1.571869
 20
-0.235161
 30
0.0
 11
1.460201
 21
-0.300447
 31
0.0
  0
LINE
  5
1E0
330
4CF
100
AcDbEntity
  8
0
100
AcDbLine
 10
1.460201
 20
-0.300447
 30
0.0
 11
1.677052
 21
-0.479996
 31
0.0
  0
LINE
  5
1E1
330
4CF
100
AcDbEntity
  8
0
100
AcDbLine
 10
1.677052
 20
-0.479996
 30
0.0
 11
1.571869
 21
-0.563338
 31
0.0
  0
LINE
  5
1E2
330
4CF
100
AcDbEntity
  8
0
100
AcDbLine
 10
1.571869
 20
-0.563338
 30
0.0
 11
1.571869
 21
-0.7330220000000001
 31
0.0
  0
LINE
  5
1E3
330
4CF
100
AcDbEntity
  8
0
100
AcDbLine
 10
6.280558
 20
-1.569914
 30
0.0
 11
6.372383999999999
 21
-1.792671
 31
0.0
  0
LINE
  5
1E4
330
4CF
100
AcDbEntity
  8
0
100
AcDbLine
 10
6.372383999999999
 20
-1.792671
 30
0.0
 11
6.199822
 21
-1.919197
 31
0.0
  0
LINE
  5
1E5
330
4CF
100
AcDbEntity
  8
0
100
AcDbLine
 10
6.199822
 20
-1.919197
 30
0.0
 11
6.280558
 21
-2.060659
 31
0.0
  0
LINE
  5
1E6
330
4CF
100
AcDbEntity
  8
0
100
AcDbLine
 10
6.280558
 20
-1.569914
 30
0.0
 11
6.280558
 21
-0.9167340000000001
 31
0.0
  0
LINE
  5
1E7
330
4CF
100
AcDbEntity
  8
0
100
AcDbLine
 10
6.849651
 20
-0.612267
 30
0.0
 11
6.941477000000001
 21
-0.835024
 31
0.0
  0
LINE
  5
1E8
330
4CF
100
AcDbEntity
  8
0
100
AcDbLine
 10
6.816617999999999
 20
-1.045132
 30
0.0
 11
6.849651
 21
-1.103011
 31
0.0
  0
LINE
  5
1EA
330
4CF
100
AcDbEntity
  8
0
100
AcDbLine
 10
6.849651
 20
-0.612267
 30
0.0
 11
6.560888
 21
-1.098186
 31
0.0
  0
LINE
  5
1EB
330
4CF
100
AcDbEntity
  8
0
100
AcDbLine
 10
6.372383999999999
 20
-1.792671
 30
0.0
 11
6.681783
 21
-1.272027
 31
0.0
  0
LINE
  5
1EC
330
4CF
100
AcDbEntity
  8
0
100
AcDbLine
 10
6.849651
 20
-1.103011
 30
0.0
 11
6.849651
 21
-1.353892
 31
0.0
  0
LINE
  5
1ED
330
4CF
100
AcDbEntity
  8
0
100
AcDbLine
 10
6.849651
 20
-1.103011
 30
0.0
 11
6.751967
 21
-1.267391
 31
0.0
  0
LWPOLYLINE
  5
1F8
330
4CF
100
AcDbEntity
  8
0
100
AcDbPolyline
 90
        2
 70
     0
 43
0.0
 10
6.361297
 20
-2.829033
 10
6.280558
 20
-2.639731
  0
LWPOLYLINE
  5
1FC
330
4CF
100
AcDbEntity
  8
0
100
AcDbPolyline
 90
        2
 70
     0
 43
0.0
 10
6.415062
 20
-2.73856
 10
6.280558
 20
-2.307549
  0
LWPOLYLINE
  5
200
330
4CF
100
AcDbEntity
  8
0
100
AcDbPolyline
 90
        3
 70
     0
 43
0.0
 10
6.496169
 20
-2.602076
 10
6.305846
 20
-2.018105
 10
6.232634
 20
-1.895139
  0
LWPOLYLINE
  5
205
330
4CF
100
AcDbEntity
  8
0
100
AcDbPolyline
 90
        3
 70
     0
 43
0.0
 10
6.574692999999999
 20
-2.469939
 10
6.384621
 20
-1.885546
 10
6.329133000000001
 20
-1.824384
  0
LWPOLYLINE
  5
20A
330
4CF
100
AcDbEntity
  8
0
100
AcDbPolyline
 90
        3
 70
     0
 43
0.0
 10
6.651444000000001
 20
-2.340786
 10
6.456369000000001
 20
-1.764812
 10
6.413462
 20
-1.723547
  0
LWPOLYLINE
  5
20F
330
4CF
100
AcDbEntity
  8
0
100
AcDbPolyline
 90
        3
 70
     0
 43
0.0
 10
6.739912
 20
-2.191915
 10
6.537442
 20
-1.628386
 10
6.488449
 20
-1.597361
  0
LWPOLYLINE
  5
214
330
4CF
100
AcDbEntity
  8
0
100
AcDbPolyline
 90
        3
 70
     0
 43
0.0
 10
6.814744
 20
-2.065991
 10
6.6092
 20
-1.507633
 10
6.571999000000001
 20
-1.456767
  0
LWPOLYLINE
  5
219
330
4CF
100
AcDbEntity
  8
0
100
AcDbPolyline
 90
        3
 70
     0
 43
0.0
 10
6.849651
 20
-1.888813
 10
6.674874000000001
 20
-1.39712
 10
6.633255
 20
-1.353688
  0
LINE
  5
228
330
4CF
100
AcDbEntity
  8
0
100
AcDbLine
 10
3.585002
 20
1.537026
 30
0.0
 11
3.861932
 21
1.291798
 31
0.0
  0
LINE
  5
229
330
4CF
100
AcDbEntity
  8
0
100
AcDbLine
 10
3.532857
 20
1.439656
 30
0.0
 11
3.866229
 21
1.295598
 31
0.0
  0
LWPOLYLINE
  5
22A
330
4CF
100
AcDbEntity
  8
0
100
AcDbPolyline
 90
        3
 70
     0
 43
0.0
 10
6.776758999999999
 20
1.476026
 10
6.805653
 20
1.190167
 10
6.849651
 20
0.674348
  0
LINE
  5
231
330
4CF
100
AcDbEntity
  8
0
100
AcDbLine
 10
6.699355000000001
 20
1.386315
 30
0.0
 11
6.716423
 21
0.9823870000000001
 31
0.0
  0
LINE
  5
232
330
4CF
100
AcDbEntity
  8
0
100
AcDbLine
 10
6.716423
 20
0.9823870000000001
 30
0.0
 11
6.772785000000001
 21
0.609078
 31
0.0
  0
LINE
  5
233
330
4CF
100
AcDbEntity
  8
0
100
AcDbLine
 10
6.772785000000001
 20
0.609078
 30
0.0
 11
6.806012
 21
0.356189
 31
0.0
  0
LINE
  5
234
330
4CF
100
AcDbEntity
  8
0
100
AcDbLine
 10
6.806012
 20
0.356189
 30
0.0
 11
6.849651
 21
0.063162
 31
0.0
  0
LINE
  5
235
330
4CF
100
AcDbEntity
  8
0
100
AcDbLine
 10
6.583656
 20
1.252219
 30
0.0
 11
6.589941000000001
 21
1.054591
 31
0.0
  0
LINE
  5
236
330
4CF
100
AcDbEntity
  8
0
100
AcDbLine
 10
6.589941000000001
 20
1.054591
 30
0.0
 11
6.635227
 21
0.763571
 31
0.0
  0
LINE
  5
237
330
4CF
100
AcDbEntity
  8
0
100
AcDbLine
 10
6.635227
 20
0.763571
 30
0.0
 11
6.682488
 21
0.54782
 31
0.0
  0
LINE
  5
238
330
4CF
100
AcDbEntity
  8
0
100
AcDbLine
 10
6.682488
 20
0.54782
 30
0.0
 11
6.730746000000001
 21
0.349132
 31
0.0
  0
LINE
  5
239
330
4CF
100
AcDbEntity
  8
0
100
AcDbLine
 10
6.730746000000001
 20
0.349132
 30
0.0
 11
6.742887
 21
0.12032
 31
0.0
  0
LINE
  5
23A
330
4CF
100
AcDbEntity
  8
0
100
AcDbLine
 10
6.742887
 20
0.12032
 30
0.0
 11
6.743774
 21
0.052137
 31
0.0
  0
LINE
  5
23B
330
4CF
100
AcDbEntity
  8
0
100
AcDbLine
 10
6.744963
 20
-0.039249
 30
0.0
 11
6.775194
 21
-0.325258
 31
0.0
  0
LINE
  5
23C
330
4CF
100
AcDbEntity
  8
0
100
AcDbLine
 10
6.775194
 20
-0.325258
 30
0.0
 11
6.849651
 21
-0.5299550000000001
 31
0.0
  0
LINE
  5
23D
330
4CF
100
AcDbEntity
  8
0
100
AcDbLine
 10
6.462409
 20
1.111693
 30
0.0
 11
6.506709
 21
0.901006
 31
0.0
  0
LINE
  5
23E
330
4CF
100
AcDbEntity
  8
0
100
AcDbLine
 10
6.506709
 20
0.901006
 30
0.0
 11
6.523837
 21
0.745458
 31
0.0
  0
LINE
  5
23F
330
4CF
100
AcDbEntity
  8
0
100
AcDbLine
 10
6.523837
 20
0.745458
 30
0.0
 11
6.531919
 21
0.6220210000000001
 31
0.0
  0
LINE
  5
240
330
4CF
100
AcDbEntity
  8
0
100
AcDbLine
 10
6.531919
 20
0.6220210000000001
 30
0.0
 11
6.549044
 21
0.472494
 31
0.0
  0
LINE
  5
241
330
4CF
100
AcDbEntity
  8
0
100
AcDbLine
 10
6.549044
 20
0.472494
 30
0.0
 11
6.590281
 21
0.263766
 31
0.0
  0
LINE
  5
242
330
4CF
100
AcDbEntity
  8
0
100
AcDbLine
 10
6.590281
 20
0.263766
 30
0.0
 11
6.616441
 21
0.107219
 31
0.0
  0
LINE
  5
243
330
4CF
100
AcDbEntity
  8
0
100
AcDbLine
 10
6.616441
 20
0.107219
 30
0.0
 11
6.616453999999999
 21
0.107156
 31
0.0
  0
LINE
  5
244
330
4CF
100
AcDbEntity
  8
0
100
AcDbLine
 10
6.657673
 20
-0.09047
 30
0.0
 11
6.681814
 21
-0.216911
 31
0.0
  0
LINE
  5
245
330
4CF
100
AcDbEntity
  8
0
100
AcDbLine
 10
6.681814
 20
-0.216911
 30
0.0
 11
6.686888000000001
 21
-0.348378
 31
0.0
  0
LINE
  5
246
330
4CF
100
AcDbEntity
  8
0
100
AcDbLine
 10
6.686888000000001
 20
-0.348378
 30
0.0
 11
6.694971000000001
 21
-0.4738229999999999
 31
0.0
  0
LINE
  5
247
330
4CF
100
AcDbEntity
  8
0
100
AcDbLine
 10
6.694971000000001
 20
-0.4738229999999999
 30
0.0
 11
6.718106
 21
-0.597254
 31
0.0
  0
LINE
  5
248
330
4CF
100
AcDbEntity
  8
0
100
AcDbLine
 10
6.718106
 20
-0.597254
 30
0.0
 11
6.717172
 21
-0.758831
 31
0.0
  0
LINE
  5
249
330
4CF
100
AcDbEntity
  8
0
100
AcDbLine
 10
6.717172
 20
-0.758831
 30
0.0
 11
6.749738000000001
 21
-0.780397
 31
0.0
  0
LINE
  5
24A
330
4CF
100
AcDbEntity
  8
0
100
AcDbLine
 10
6.749738000000001
 20
-0.780397
 30
0.0
 11
6.86953
 21
-0.956094
 31
0.0
  0
LWPOLYLINE
  5
280
330
4CF
100
AcDbEntity
  8
0
100
AcDbPolyline
 90
        3
 70
     0
 43
0.0
 10
6.280558
 20
-1.088192
 10
6.390248000000001
 20
-1.385332
 10
6.533314
 20
-1.521864
  0
LWPOLYLINE
  5
285
330
4CF
100
AcDbEntity
  8
0
100
AcDbPolyline
 90
        3
 70
     0
 43
0.0
 10
6.280558
 20
-1.405324
 10
6.329053
 20
-1.488309
 10
6.443736
 20
-1.672603
  0
LINE
  5
28A
330
4CF
100
AcDbEntity
  8
0
100
AcDbLine
 10
6.922816
 20
-0.866426
 30
0.0
 11
6.817792999999999
 21
-0.6658770000000001
 31
0.0
  0
LWPOLYLINE
  5
28C
330
4CF
100
AcDbEntity
  8
0
100
AcDbPolyline
 90
       16
 70
     1
 43
0.0
 10
4.101833999999999
 20
1.452474
 42
0.188293
 10
4.098452
 20
1.461127
 42
0.101299
 10
4.084778
 20
1.470972
 42
0.059671
 10
4.067258
 20
1.476446
 42
0.046063
 10
4.043615
 20
1.478619
 42
0.046063
 10
4.019974
 20
1.476426
 42
0.059671
 10
4.002459
 20
1.470936
 42
0.101299
 10
3.988794
 20
1.46108
 42
0.188293
 10
3.985419
 20
1.452424
 42
0.188293
 10
3.988801
 20
1.443771
 42
0.101299
 10
4.002475
 20
1.433926
 42
0.059671
 10
4.019994000000001
 20
1.428451
 42
0.046063
 10
4.043638
 20
1.426278
 42
0.046063
 10
4.067279
 20
1.428471
 42
0.059671
 10
4.084794000000001
 20
1.433961
 42
0.101299
 10
4.098459
 20
1.443818
 42
0.188293
  0
LINE
  5
2A1
330
4CF
100
AcDbEntity
  8
0
100
AcDbLine
 10
3.916932
 20
1.273687
 30
0.0
 11
7.801895
 21
-0.4051030000000001
 31
0.0
  0
LINE
  5
2A2
330
4CF
100
AcDbEntity
  8
0
100
AcDbLine
 10
3.899645
 20
1.258402
 30
0.0
 11
5.852407
 21
-0.470811
 31
0.0
  0
LINE
  5
2A3
330
4CF
100
AcDbEntity
  8
0
100
AcDbLine
 10
2.858439
 20
0.337792
 30
0.0
 11
3.014334
 21
0.318438
 31
0.0
  0
LINE
  5
2A4
330
4CF
100
AcDbEntity
  8
0
100
AcDbLine
 10
3.867476
 20
1.229959
 30
0.0
 11
4.557924
 21
0.9983780000000001
 31
0.0
  0
LINE
  5
2A5
330
4CF
100
AcDbEntity
  8
0
100
AcDbLine
 10
3.614459
 20
1.006247
 30
0.0
 11
4.976739
 21
-0.251766
 31
0.0
  0
LINE
  5
2A6
330
4CF
100
AcDbEntity
  8
0
100
AcDbLine
 10
3.372316000000001
 20
0.858891
 30
0.0
 11
3.04249
 21
1.170881
 31
0.0
  0
LINE
  5
2A7
330
4CF
100
AcDbEntity
  8
0
100
AcDbLine
 10
3.412351
 20
0.8942889999999999
 30
0.0
 11
3.089718
 21
1.199475
 31
0.0
  0
LINE
  5
2A8
330
4CF
100
AcDbEntity
  8
0
100
AcDbLine
 10
1.571869
 20
-0.799764
 30
0.0
 11
1.571869
 21
-2.281475
 31
0.0
  0
LINE
  5
2AA
330
4CF
100
AcDbEntity
  8
0
100
AcDbLine
 10
4.563491
 20
0.994293
 30
0.0
 11
4.557924
 21
0.9983780000000001
 31
0.0
  0
LINE
  5
2AB
330
4CF
100
AcDbEntity
  8
0
100
AcDbLine
 10
5.709841
 20
0.444457
 30
0.0
 11
5.709841
 21
0.152979
 31
0.0
  0
LINE
  5
2AC
330
4CF
100
AcDbEntity
  8
0
100
AcDbLine
 10
5.679722
 20
0.457473
 30
0.0
 11
5.679722
 21
0.175084
 31
0.0
  0
LWPOLYLINE
  5
2AD
330
4CF
100
AcDbEntity
  8
0
100
AcDbPolyline
 90
        2
 70
     0
 43
0.0
 10
6.280558
 20
0.291744
 10
6.295571
 20
0.245817
  0
LWPOLYLINE
  5
2BC
330
4CF
100
AcDbEntity
  8
0
100
AcDbPolyline
 90
        4
 70
     0
 43
0.0
 10
6.280558
 20
0.823642
 10
6.365346
 20
0.570766
 10
6.420656
 20
0.307851
 10
6.437294000000001
 20
0.184575
  0
LWPOLYLINE
  5
2CD
330
4CF
100
AcDbEntity
  8
0
100
AcDbPolyline
 90
        5
 70
     0
 43
0.0
 10
6.382457
 20
1.019029
 10
6.441563
 20
0.7002619999999999
 10
6.451669
 20
0.535678
 10
6.489881
 20
0.359064
 10
6.536333
 20
0.141778
  0
LWPOLYLINE
  5
2D4
330
4CF
100
AcDbEntity
  8
0
100
AcDbPolyline
 90
        9
 70
     0
 43
0.0
 10
6.549163
 20
0.081765
 10
6.554239999999999
 20
0.058016
 10
6.613583
 20
-0.246044
 10
6.643783999999999
 20
-0.463809
 10
6.663936
 20
-0.651471
 10
6.681063000000001
 20
-0.8040079999999999
 10
6.680064999999999
 20
-0.818059
 10
6.680338000000001
 20
-0.8971809999999999
 10
6.810382000000001
 20
-1.055625
  0
LINE
  5
2DF
330
4CF
100
AcDbEntity
  8
0
100
AcDbLine
 10
6.849651
 20
-0.048083
 30
0.0
 11
6.849651
 21
-0.612267
 31
0.0
  0
LINE
  5
2E0
330
4CF
100
AcDbEntity
  8
0
100
AcDbLine
 10
6.280558
 20
0.252305
 30
0.0
 11
6.280558
 21
0.9009280000000001
 31
0.0
  0
LINE
  5
2E1
330
4CF
100
AcDbEntity
  8
0
100
AcDbLine
 10
6.744487
 20
-0.002639
 30
0.0
 11
6.744963
 21
-0.039249
 31
0.0
  0
LINE
  5
2E2
330
4CF
100
AcDbEntity
  8
0
100
AcDbLine
 10
6.628939999999999
 20
0.047291
 30
0.0
 11
6.657673
 21
-0.09047
 31
0.0
  0
LWPOLYLINE
  5
2E9
330
4CF
100
AcDbEntity
  8
0
100
AcDbPolyline
 90
        7
 70
     0
 43
0.0
 10
5.97767
 20
-0.648519
 10
5.971483999999999
 20
-0.700944
 10
5.934428
 20
-0.8785950000000001
 10
5.896376
 20
-1.073306
 10
5.883384
 20
-1.201771
 10
5.894087
 20
-1.314658
 10
5.945042
 20
-1.509605
  0
LINE
  5
2F2
330
4CF
100
AcDbEntity
  8
0
100
AcDbLine
 10
5.511068
 20
-0.168548
 30
0.0
 11
6.036453
 21
-0.086723
 31
0.0
  0
LWPOLYLINE
  5
2F9
330
4CF
100
AcDbEntity
  8
0
100
AcDbPolyline
 90
        8
 70
     0
 43
0.0
 10
5.883986
 20
-0.565561
 10
5.882115
 20
-0.5835630000000001
 10
5.875135
 20
-0.689946
 10
5.843093
 20
-0.857559
 10
5.813071
 20
-1.057285
 10
5.803108
 20
-1.226895
 10
5.803277
 20
-1.327166
 10
5.863464
 20
-1.520549
  0
LWPOLYLINE
  5
303
330
4CF
100
AcDbEntity
  8
0
100
AcDbPolyline
 90
        4
 70
     0
 43
0.0
 10
5.831401000000001
 20
-0.118658
 10
5.816728
 20
-0.225312
 10
5.801732
 20
-0.360802
 10
5.798309
 20
-0.4229060000000001
  0
LWPOLYLINE
  5
314
330
4CF
100
AcDbEntity
  8
0
100
AcDbPolyline
 90
        3
 70
     0
 43
0.0
 10
5.734575
 20
-0.133738
 10
5.718405000000001
 20
-0.290587
 10
5.712124
 20
-0.346587
  0
LWPOLYLINE
  5
324
330
4CF
100
AcDbEntity
  8
0
100
AcDbPolyline
 90
        2
 70
     0
 43
0.0
 10
5.655052
 20
-0.146123
 10
5.637221
 20
-0.280259
  0
LWPOLYLINE
  5
333
330
4CF
100
AcDbEntity
  8
0
100
AcDbPolyline
 90
        2
 70
     0
 43
0.0
 10
5.588097
 20
-0.156551
 10
5.58499
 20
-0.234007
  0
LINE
  5
354
330
4CF
100
AcDbEntity
  8
0
100
AcDbLine
 10
6.036453
 20
-0.700574
 30
0.0
 11
6.036453
 21
-1.295048
 31
0.0
  0
LINE
  5
356
330
4CF
100
AcDbEntity
  8
0
100
AcDbLine
 10
4.32867
 20
1.637737
 30
0.0
 11
6.030765
 21
1.470838
 31
0.0
  0
LINE
  5
357
330
4CF
100
AcDbEntity
  8
0
100
AcDbLine
 10
4.492483999999999
 20
1.782577
 30
0.0
 11
6.849651
 21
1.560509
 31
0.0
  0
TEXT
  5
358
330
4CF
100
AcDbEntity
  8
0
100
AcDbText
 10
4.076371
 20
2.436449
 30
0.0
 40
0.2
  1
SPECIFY LOW SIDE, HIGH SIDE, OR
 41
0.75
100
AcDbText
  0
TEXT
  5
359
330
4CF
100
AcDbEntity
  8
0
100
AcDbText
 10
4.076371
 20
2.112639
 30
0.0
 40
0.2
  1
CENTER FLUSH (LOW SIDE SHOWN)
 41
0.75
100
AcDbText
  0
TEXT
  5
35A
330
4CF
100
AcDbEntity
  8
0
100
AcDbText
 10
4.106833
 20
-0.719811
 30
0.0
 40
0.2
  1
SKEW
 41
0.75
100
AcDbText
  0
TEXT
  5
35B
330
4CF
100
AcDbEntity
  8
0
100
AcDbText
 10
4.106833
 20
-1.04362
 30
0.0
 40
0.2
  1
ANGLE
 41
0.75
100
AcDbText
  0
TEXT
  5
35C
330
4CF
100
AcDbEntity
  8
0
100
AcDbText
 10
7.137757000000001
 20
-0.952342
 30
0.0
 40
0.2
  1
SLOPE
 41
0.75
100
AcDbText
  0
TEXT
  5
35D
330
4CF
100
AcDbEntity
  8
0
100
AcDbText
 10
1.709768
 20
-3.148914
 30
0.0
 40
0.2
  1
Simpson Strong-Tie
 41
0.75
100
AcDbText
  0
TEXT
  5
35E
330
4CF
100
AcDbEntity
  8
0
100
AcDbText
 10
1.709768
 20
-3.472724
 30
0.0
 40
0.2
  1
WP
 41
0.75
100
AcDbText
  0
TEXT
  5
35F
330
4CF
100
AcDbEntity
  8
0
100
AcDbText
 10
1.709768
 20
-3.796533
 30
0.0
 40
0.2
  1
Type A Hanger
 41
0.75
100
AcDbText
  0
TEXT
  5
360
330
4CF
100
AcDbEntity
  8
0
100
AcDbText
 10
2.223925
 20
-0.293094
 30
0.0
 40
0.2
  1
C
 50
41.0
 41
0.8
 51
41.0
100
AcDbText
  0
ARC
  5
361
330
4CF
100
AcDbEntity
  8
0
100
AcDbCircle
 10
3.869154
 20
3.786005
 30
0.0
 40
4.696144
100
AcDbArc
 50
244.865232
 51
272.70156
  0
ARC
  5
362
330
4CF
100
AcDbEntity
  8
0
100
AcDbCircle
 10
6.28067
 20
-0.5441189999999999
 30
0.0
 40
1.358095
100
AcDbArc
 50
308.765368
 51
325.11147
  0
SOLID
  5
363
330
4CF
100
AcDbEntity
  8
0
100
AcDbTrace
 10
7.600656
 20
-0.579673
 30
0.0
 11
7.683699000000001
 21
-0.572716
 31
0.0
 12
7.621308
 22
-0.327067
 32
0.0
 13
7.621308
 23
-0.327067
 33
0.0
  0
SOLID
  5
365
330
4CF
100
AcDbEntity
  8
0
100
AcDbTrace
 10
7.343601
 20
-1.465048
 30
0.0
 11
7.287354
 21
-1.403561
 31
0.0
 12
7.131017
 22
-1.603048
 32
0.0
 13
7.131017
 23
-1.603048
 33
0.0
  0
SOLID
  5
367
330
4CF
100
AcDbEntity
  8
0
100
AcDbTrace
 10
6.521597
 20
-0.030505
 30
0.0
 11
6.57344
 21
-0.09575
 31
0.0
 12
6.743251
 22
0.0924
 32
0.0
 13
6.743251
 23
0.0924
 33
0.0
  0
SOLID
  5
369
330
4CF
100
AcDbEntity
  8
0
100
AcDbTrace
 10
2.080503
 20
-0.6130720000000001
 30
0.0
 11
2.117239
 21
-0.538273
 31
0.0
 12
1.874472
 22
-0.465467
 32
0.0
 13
1.874472
 23
-0.465467
 33
0.0
  0
ARC
  5
36B
330
4CF
100
AcDbEntity
  8
0
100
AcDbCircle
 10
3.869154
 20
3.786005
 30
0.0
 40
4.696144
100
AcDbArc
 50
282.32452
 51
307.739166
  0
TEXT
  5
36C
330
4CF
100
AcDbEntity
  8
0
100
AcDbText
 10
7.137757000000001
 20
-1.276152
 30
0.0
 40
0.2
  1
ANGLE
 41
0.75
100
AcDbText
  0
ARC
  5
36D
330
4CF
100
AcDbEntity
  8
0
100
AcDbCircle
 10
6.28067
 20
-0.5441189999999999
 30
0.0
 40
1.358095
100
AcDbArc
 50
353.160844
 51
9.196484
  0
LWPOLYLINE
  5
370
330
4CF
100
AcDbEntity
  8
0
100
AcDbPolyline
 90
        2
 70
     0
 43
0.0
 10
6.036453
 20
-0.301497
 10
6.01668
 20
-0.390345
  0
LWPOLYLINE
  5
374
330
4CF
100
AcDbEntity
  8
0
100
AcDbPolyline
 90
        3
 70
     0
 43
0.0
 10
6.002602
 20
-0.453604
 10
5.998483
 20
-0.472115
 10
5.984804000000001
 20
-0.588051
  0
LINE
  5
379
330
4CF
100
AcDbEntity
  8
0
100
AcDbLine
 10
5.893183000000001
 20
-0.506919
 30
0.0
 11
7.275583
 21
-1.731064
 31
0.0
  0
LWPOLYLINE
  5
37A
330
4CF
100
AcDbEntity
  8
0
100
AcDbPolyline
 90
        5
 70
     0
 43
0.0
 10
5.490235
 20
-0.216886
 10
5.483592
 20
-0.350903
 10
5.477615
 20
-0.455278
 10
5.466627
 20
-0.5747100000000001
 10
5.447504
 20
-0.6369560000000001
  0
LWPOLYLINE
  5
381
330
4CF
100
AcDbEntity
  8
0
100
AcDbPolyline
 90
       10
 70
     0
 43
0.0
 10
5.428104
 20
-0.696802
 10
5.407494
 20
-0.757387
 10
5.385462
 20
-0.865784
 10
5.366436
 20
-0.96314
 10
5.343393
 20
-1.05548
 10
5.324367
 20
-1.152835
 10
5.317367
 20
-1.21205
 10
5.287293
 20
-1.290342
 10
5.279837000000001
 20
-1.399266
 10
5.302793
 20
-1.595768
  0
LWPOLYLINE
  5
38D
330
4CF
100
AcDbEntity
  8
0
100
AcDbPolyline
 90
        4
 70
     0
 43
0.0
 10
5.582403
 20
-0.298502
 10
5.579940000000001
 20
-0.359894
 10
5.568958
 20
-0.493375
 10
5.547519
 20
-0.5999800000000001
  0
LWPOLYLINE
  5
393
330
4CF
100
AcDbEntity
  8
0
100
AcDbPolyline
 90
        8
 70
     0
 43
0.0
 10
5.539909
 20
-0.6563439999999999
 10
5.528937
 20
-0.7784100000000001
 10
5.492876
 20
-0.935989
 10
5.472852
 20
-1.047395
 10
5.463874
 20
-1.172847
 10
5.440834
 20
-1.272212
 10
5.428026999999999
 20
-1.378854
 10
5.469942
 20
-1.573344
  0
LWPOLYLINE
  5
39D
330
4CF
100
AcDbEntity
  8
0
100
AcDbPolyline
 90
        3
 70
     0
 43
0.0
 10
5.633677
 20
-0.343906
 10
5.632179
 20
-0.483312
 10
5.615618
 20
-0.573311
  0
LWPOLYLINE
  5
3A2
330
4CF
100
AcDbEntity
  8
0
100
AcDbPolyline
 90
        7
 70
     0
 43
0.0
 10
5.606954
 20
-0.630548
 10
5.593145
 20
-0.728204
 10
5.567116
 20
-0.8787520000000001
 10
5.519061
 20
-1.149741
 10
5.460926000000001
 20
-1.319372
 10
5.46866
 20
-1.373257
 10
5.529096
 20
-1.565408
  0
LWPOLYLINE
  5
3AB
330
4CF
100
AcDbEntity
  8
0
100
AcDbPolyline
 90
        4
 70
     0
 43
0.0
 10
5.705311
 20
-0.40734
 10
5.701409
 20
-0.442136
 10
5.697433
 20
-0.531456
 10
5.696352
 20
-0.5400930000000001
  0
LWPOLYLINE
  5
3B1
330
4CF
100
AcDbEntity
  8
0
100
AcDbPolyline
 90
        7
 70
     0
 43
0.0
 10
5.68919
 20
-0.597299
 10
5.672429
 20
-0.7311800000000001
 10
5.640369000000001
 20
-0.8576459999999999
 10
5.622367
 20
-1.00217
 10
5.603373
 20
-1.174794
 10
5.566115
 20
-1.359834
 10
5.637092
 20
-1.550919
  0
LWPOLYLINE
  5
3BA
330
4CF
100
AcDbEntity
  8
0
100
AcDbPolyline
 90
        4
 70
     0
 43
0.0
 10
5.944763
 20
-0.101003
 10
5.913094
 20
-0.276453
 10
5.901104
 20
-0.400903
 10
5.895975
 20
-0.45024
  0
LWPOLYLINE
  5
3C0
330
4CF
100
AcDbEntity
  8
0
100
AcDbPolyline
 90
        6
 70
     0
 43
0.0
 10
5.366521
 20
-0.19106
 10
5.323017
 20
-0.346958
 10
5.320040000000001
 20
-0.426242
 10
5.327105
 20
-0.519573
 10
5.299074
 20
-0.680158
 10
5.297401
 20
-0.687683
  0
LWPOLYLINE
  5
3C8
330
4CF
100
AcDbEntity
  8
0
100
AcDbPolyline
 90
        6
 70
     0
 43
0.0
 10
5.284863
 20
-0.744078
 10
5.254
 20
-0.8829020000000001
 10
5.181868
 20
-1.175979
 10
5.160854000000001
 20
-1.318497
 10
5.153589
 20
-1.416656
 10
5.181717
 20
-1.612012
  0
LWPOLYLINE
  5
3D0
330
4CF
100
AcDbEntity
  8
0
100
AcDbPolyline
 90
        5
 70
     0
 43
0.0
 10
5.241345
 20
-0.210556
 10
5.202571
 20
-0.310881
 10
5.178569
 20
-0.505586
 10
5.156565000000001
 20
-0.6812229999999999
 10
5.150932
 20
-0.7318279999999999
  0
LWPOLYLINE
  5
3D7
330
4CF
100
AcDbEntity
  8
0
100
AcDbPolyline
 90
        8
 70
     0
 43
0.0
 10
5.144962000000001
 20
-0.78545
 10
5.137571
 20
-0.8518399999999999
 10
5.116542
 20
-0.959233
 10
5.099526999999999
 20
-1.067627
 10
5.077511
 20
-1.212153
 10
5.062511
 20
-1.337608
 10
5.032593
 20
-1.433322
 10
5.069116
 20
-1.593839
  0
LWPOLYLINE
  5
3E1
330
4CF
100
AcDbEntity
  8
0
100
AcDbPolyline
 90
        5
 70
     0
 43
0.0
 10
5.081301
 20
-0.235481
 10
5.079139
 20
-0.332009
 10
5.050084
 20
-0.445426
 10
5.02809
 20
-0.643142
 10
5.021517
 20
-0.766558
  0
LWPOLYLINE
  5
3E8
330
4CF
100
AcDbEntity
  8
0
100
AcDbPolyline
 90
        2
 70
     0
 43
0.0
 10
5.013081
 20
-0.8202209999999999
 10
4.976739
 20
-0.962297
  0
LINE
  5
3EC
330
4CF
100
AcDbEntity
  8
0
100
AcDbLine
 10
4.976739
 20
-0.829094
 30
0.0
 11
4.976739
 21
-1.441016
 31
0.0
  0
LWPOLYLINE
  5
3ED
330
4CF
100
AcDbEntity
  8
0
100
AcDbPolyline
 90
        2
 70
     0
 43
0.0
 10
5.794798999999999
 20
-0.486583
 10
5.7942
 20
-0.497448
  0
LWPOLYLINE
  5
3F1
330
4CF
100
AcDbEntity
  8
0
100
AcDbPolyline
 90
        8
 70
     0
 43
0.0
 10
5.790488
 20
-0.553852
 10
5.781794000000001
 20
-0.6699149999999999
 10
5.767792
 20
-0.7823220000000001
 10
5.731722
 20
-0.920832
 10
5.706691999999999
 20
-1.058334
 10
5.688676
 20
-1.170743
 10
5.672993
 20
-1.345112
 10
5.736742
 20
-1.53755
  0
LINE
  5
3FB
330
4CF
100
AcDbEntity
  8
0
100
AcDbLine
 10
6.036453
 20
-0.4364
 30
0.0
 11
6.036453
 21
-0.633788
 31
0.0
  0
LINE
  5
3FC
330
4CF
100
AcDbEntity
  8
0
100
AcDbLine
 10
6.280558
 20
-0.243747
 30
0.0
 11
6.280558
 21
0.197836
 31
0.0
  0
LWPOLYLINE
  5
3FD
330
4CF
100
AcDbEntity
  8
0
100
AcDbPolyline
 90
        3
 70
     0
 43
0.0
 10
6.445101
 20
0.126733
 10
6.45086
 20
0.084065
 10
6.501048
 20
-0.103327
  0
LWPOLYLINE
  5
402
330
4CF
100
AcDbEntity
  8
0
100
AcDbPolyline
 90
        8
 70
     0
 43
0.0
 10
6.514727
 20
-0.154405
 10
6.52826
 20
-0.204934
 10
6.559462
 20
-0.41467
 10
6.586647
 20
-0.621396
 10
6.615813
 20
-0.764896
 10
6.654007000000001
 20
-0.8993600000000001
 10
6.648072999999999
 20
-0.951475
 10
6.782121000000001
 20
-1.103182
  0
LWPOLYLINE
  5
40C
330
4CF
100
AcDbEntity
  8
0
100
AcDbPolyline
 90
        3
 70
     0
 43
0.0
 10
6.316304
 20
0.182389
 10
6.362563
 20
0.040873
 10
6.405087
 20
-0.166566
  0
LWPOLYLINE
  5
411
330
4CF
100
AcDbEntity
  8
0
100
AcDbPolyline
 90
        8
 70
     0
 43
0.0
 10
6.415841
 20
-0.219026
 10
6.416871
 20
-0.22405
 10
6.469155000000001
 20
-0.451841
 10
6.497343
 20
-0.655557
 10
6.543589
 20
-0.844211
 10
6.563725999999999
 20
-0.9967469999999999
 10
6.588578999999999
 20
-1.051588
 10
6.725047
 20
-1.199223
  0
LINE
  5
423
330
4CF
100
AcDbEntity
  8
0
100
AcDbLine
 10
3.014334
 20
-0.831684
 30
0.0
 11
3.014334
 21
0.347533
 31
0.0
  0
LINE
  5
424
330
4CF
100
AcDbEntity
  8
0
100
AcDbLine
 10
3.821302
 20
-0.9598979999999999
 30
0.0
 11
3.821302
 21
-2.461759
 31
0.0
  0
LINE
  5
425
330
4CF
100
AcDbEntity
  8
0
100
AcDbLine
 10
3.877511
 20
-0.960132
 30
0.0
 11
3.877511
 21
-2.459124
 31
0.0
  0
ARC
  5
426
330
4CF
100
AcDbEntity
  8
0
100
AcDbCircle
 10
4.180469
 20
1.905918
 30
0.0
 40
1.025137
100
AcDbArc
 50
294.708526
 51
5.681108
  0
SOLID
  5
427
330
4CF
100
AcDbEntity
  8
0
100
AcDbTrace
 10
4.846855000000001
 20
1.062104
 30
0.0
 11
4.805629
 21
1.134525
 31
0.0
 12
4.608978
 22
0.9746370000000001
 32
0.0
 13
4.608978
 23
0.9746370000000001
 33
0.0
  0
LINE
  5
429
330
4CF
100
AcDbEntity
  8
0
100
AcDbLine
 10
4.698845
 20
1.050499
 30
0.0
 11
4.471468
 21
1.071812
 31
0.0
  0
LINE
  5
42A
330
4CF
100
AcDbEntity
  8
0
100
AcDbLine
 10
4.748401
 20
1.097309
 30
0.0
 11
4.207843
 21
1.147978
 31
0.0
  0
TEXT
  5
42B
330
4CF
100
AcDbEntity
  8
0
100
AcDbText
 10
2.267141
 20
-0.435584
 30
0.0
 40
0.2
  1
L
 50
41.0
 41
0.8
 51
41.0
100
AcDbText
  0
LINE
  5
42C
330
4CF
100
AcDbEntity
  8
0
100
AcDbLine
 10
2.163973
 20
-0.209498
 30
0.0
 11
1.381176
 21
-0.9016280000000001
 31
0.0
  0
LWPOLYLINE
  5
435
330
4CF
100
AcDbEntity
  8
0
100
AcDbPolyline
 90
        5
 70
     0
 43
0.0
 10
6.294976999999999
 20
-0.293366
 10
6.401975
 20
-0.591368
 10
6.442216999999999
 20
-0.8211719999999999
 10
6.495489
 20
-1.01183
 10
6.500565
 20
-1.044769
  0
LWPOLYLINE
  5
43C
330
4CF
100
AcDbEntity
  8
0
100
AcDbPolyline
 90
        3
 70
     0
 43
0.0
 10
6.512485
 20
-1.12211
 10
6.519525
 20
-1.16779
 10
6.659195
 20
-1.310037
  0
LINE
  5
441
330
4CF
100
AcDbEntity
  8
0
100
AcDbLine
 10
6.280558
 20
-0.8499479999999999
 30
0.0
 11
6.280558
 21
-0.301906
 31
0.0
  0
LINE
  5
442
330
4CF
100
AcDbEntity
  8
0
100
AcDbLine
 10
6.707787
 20
-1.228268
 30
0.0
 11
6.941477000000001
 21
-0.835024
 31
0.0
  0
LWPOLYLINE
  5
443
330
4CF
100
AcDbEntity
  8
0
100
AcDbPolyline
 90
        2
 70
     0
 43
0.0
 10
6.849651
 20
-1.649958
 10
6.757178
 20
-1.338791
  0
LINE
  5
447
330
4CF
100
AcDbEntity
  8
0
100
AcDbLine
 10
6.725963
 20
-1.31115
 30
0.0
 11
6.280558
 21
-2.060659
 31
0.0
  0
LINE
  5
448
330
4CF
100
AcDbEntity
  8
0
100
AcDbLine
 10
6.849651
 20
-1.420678
 30
0.0
 11
6.849651
 21
-2.00725
 31
0.0
  0
LWPOLYLINE
  5
449
330
4CF
100
AcDbEntity
  8
0
100
AcDbPolyline
 90
        3
 70
     0
 43
0.0
 10
6.280558
 20
-0.5934229999999999
 10
6.36096
 20
-0.899486
 10
6.367451
 20
-0.9268930000000001
  0
LWPOLYLINE
  5
44E
330
4CF
100
AcDbEntity
  8
0
100
AcDbPolyline
 90
        4
 70
     0
 43
0.0
 10
6.387464
 20
-1.011401
 10
6.413241999999999
 20
-1.120252
 10
6.454087
 20
-1.277907
 10
6.601989
 20
-1.406302
  0
LINE
  5
454
330
4CF
100
AcDbEntity
  8
0
100
AcDbLine
 10
6.534884
 20
-1.141945
 30
0.0
 11
6.280558
 21
-1.569914
 31
0.0
  0
LWPOLYLINE
  5
455
330
4CF
100
AcDbEntity
  8
0
100
AcDbPolyline
 90
        3
 70
     0
 43
0.0
 10
6.831780999999999
 20
-1.338068
 10
6.791107000000001
 20
-1.201528
 10
6.757764999999999
 20
-1.144168
  0
LINE
  5
45A
330
4CF
100
AcDbEntity
  8
0
100
AcDbLine
 10
5.562561
 20
0.287611
 30
0.0
 11
4.795846
 21
0.850308
 31
0.0
  0
LINE
  5
45B
330
4CF
100
AcDbEntity
  8
0
100
AcDbLine
 10
4.795846
 20
0.850308
 30
0.0
 11
4.766503
 21
0.845301
 31
0.0
  0
LINE
  5
45C
330
4CF
100
AcDbEntity
  8
0
100
AcDbLine
 10
5.562561
 20
0.287611
 30
0.0
 11
5.533219
 21
0.282604
 31
0.0
  0
LINE
  5
45D
330
4CF
100
AcDbEntity
  8
0
100
AcDbLine
 10
5.562561
 20
0.287611
 30
0.0
 11
5.562561
 21
0.261069
 31
0.0
  0
LWPOLYLINE
  5
494
330
4CF
100
AcDbEntity
  8
0
100
AcDbPolyline
 90
        9
 70
     0
 43
0.0
 10
2.710577
 20
1.696745
 42
0.004117
 10
2.710436
 20
1.696901
 42
0.101299
 10
2.696762
 20
1.706746
 42
0.059671
 10
2.679243
 20
1.712221
 42
0.046063
 10
2.655599
 20
1.714393
 42
0.046063
 10
2.631958
 20
1.7122
 42
0.059671
 10
2.614444
 20
1.70671
 42
0.101299
 10
2.600778
 20
1.696854
 42
0.003902
 10
2.600644
 20
1.696706
 42
0.188293
  0
LWPOLYLINE
  5
49F
330
4CF
100
AcDbEntity
  8
0
100
AcDbPolyline
 90
        9
 70
     0
 43
0.0
 10
4.098593
 20
1.443966
 42
0.004117
 10
4.098452
 20
1.444121
 42
0.101299
 10
4.084778
 20
1.453966
 42
0.059671
 10
4.067258
 20
1.459441
 42
0.046063
 10
4.043615
 20
1.461614
 42
0.046063
 10
4.019974
 20
1.459421
 42
0.059671
 10
4.002459
 20
1.453931
 42
0.101299
 10
3.988794
 20
1.444074
 42
0.003902
 10
3.98866
 20
1.443926
 42
0.188293
  0
LWPOLYLINE
  5
4AA
330
4CF
100
AcDbEntity
  8
0
100
AcDbPolyline
 90
        9
 70
     0
 43
0.0
 10
5.832494000000001
 20
1.38334
 42
0.004117
 10
5.832353
 20
1.383496
 42
0.101299
 10
5.818679
 20
1.393341
 42
0.059671
 10
5.801159999999999
 20
1.398816
 42
0.046063
 10
5.777517
 20
1.400988
 42
0.046063
 10
5.753875
 20
1.398795
 42
0.059671
 10
5.736361000000001
 20
1.393305
 42
0.101299
 10
5.722695
 20
1.383449
 42
0.003902
 10
5.722561
 20
1.383301
 42
0.188293
  0
ARC
  5
4B6
330
4CF
100
AcDbEntity
  8
0
100
AcDbCircle
 10
3.013262
 20
0.48383
 30
0.0
 40
0.03535
100
AcDbArc
 50
20.876212
 51
155.648292
  0
ARC
  5
4B7
330
4CF
100
AcDbEntity
  8
0
100
AcDbCircle
 10
3.013262
 20
0.520967
 30
0.0
 40
0.03535
100
AcDbArc
 50
20.876212
 51
155.648292
  0
ENDSEC
  0
SECTION
  2
OBJECTS
  0
DICTIONARY
  5
4C3
330
0
100
AcDbDictionary
281
     1
  3
ACAD_COLOR
350
523
  3
ACAD_GROUP
350
4C4
  3
ACAD_LAYOUT
350
4CC
  3
ACAD_MATERIAL
350
525
  3
ACAD_MLINESTYLE
350
4C9
  3
ACAD_PLOTSETTINGS
350
4CB
  3
ACAD_PLOTSTYLENAME
350
4C5
  3
ACDBHEADERROUNDTRIPXREC
350
522
  0
DICTIONARY
  5
523
102
{ACAD_REACTORS
330
4C3
102
}
330
4C3
100
AcDbDictionary
281
     1
  0
DICTIONARY
  5
4C4
102
{ACAD_REACTORS
330
4C3
102
}
330
4C3
100
AcDbDictionary
281
     1
  0
DICTIONARY
  5
4CC
102
{ACAD_REACTORS
330
4C3
102
}
330
4C3
100
AcDbDictionary
281
     1
  3
Layout1
350
4CE
  3
Model
350
4D0
  0
DICTIONARY
  5
525
102
{ACAD_REACTORS
330
4C3
102
}
330
4C3
100
AcDbDictionary
281
     1
  0
DICTIONARY
  5
4C9
102
{ACAD_REACTORS
330
4C3
102
}
330
4C3
100
AcDbDictionary
281
     1
  3
Standard
350
4CA
  0
DICTIONARY
  5
4CB
102
{ACAD_REACTORS
330
4C3
102
}
330
4C3
100
AcDbDictionary
281
     1
  0
ACDBDICTIONARYWDFLT
  5
4C5
102
{ACAD_REACTORS
330
4C3
102
}
330
4C3
100
AcDbDictionary
281
     1
  3
Normal
350
4C6
100
AcDbDictionaryWithDefault
340
4C6
  0
DICTIONARY
  5
522
102
{ACAD_REACTORS
330
4C3
102
}
330
4C3
100
AcDbDictionary
281
     1
  3
COLORDICT
350
524
  3
MATERIALDICT
350
526
  0
LAYOUT
  5
4CE
102
{ACAD_REACTORS
330
4CC
102
}
102
{ACAD_XDICTIONARY
360
527
102
}
330
4CC
100
AcDbPlotSettings
  1

  2

  4

  6

 40
0.0
 41
0.0
 42
0.0
 43
0.0
 44
0.0
 45
0.0
 46
0.0
 47
0.0
 48
0.0
 49
0.0
140
0.0
141
0.0
142
1.0
143
1.0
 70
   688
 72
     0
 73
     0
 74
     5
  7

 75
    16
147
1.0
148
0.0
149
0.0
100
AcDbLayout
  1
Layout1
 70
     1
 71
     1
 10
0.0
 20
0.0
 11
12.0
 21
9.0
 12
0.0
 22
0.0
 32
0.0
 14
1.000000000000000E+20
 24
1.000000000000000E+20
 34
1.000000000000000E+20
 15
-1.000000000000000E+20
 25
-1.000000000000000E+20
 35
-1.000000000000000E+20
146
0.0
 13
0.0
 23
0.0
 33
0.0
 16
1.0
 26
0.0
 36
0.0
 17
0.0
 27
1.0
 37
0.0
 76
     0
330
4CD
  0
LAYOUT
  5
4D0
102
{ACAD_REACTORS
330
4CC
102
}
102
{ACAD_XDICTIONARY
360
529
102
}
330
4CC
100
AcDbPlotSettings
  1

  2

  4

  6

 40
0.0
 41
0.0
 42
0.0
 43
0.0
 44
0.0
 45
0.0
 46
0.0
 47
0.0
 48
0.0
 49
0.0
140
0.0
141
0.0
142
1.0
143
1.0
 70
  1712
 72
     0
 73
     0
 74
     0
  7

 75
     0
147
1.0
148
0.0
149
0.0
100
AcDbLayout
  1
Model
 70
     1
 71
     0
 10
0.0
 20
0.0
 11
0.0
 21
0.0
 12
0.0
 22
0.0
 32
0.0
 14
0.0
 24
0.0
 34
0.0
 15
0.0
 25
0.0
 35
0.0
146
0.0
 13
0.0
 23
0.0
 33
0.0
 16
1.0
 26
0.0
 36
0.0
 17
0.0
 27
1.0
 37
0.0
 76
     0
330
4CF
  0
MLINESTYLE
  5
4CA
102
{ACAD_REACTORS
330
4C9
102
}
330
4C9
100
AcDbMlineStyle
  2
Standard
 70
     0
  3

 62
   256
 51
90.0
 52
90.0
 71
     2
 49
0.5
 62
   256
  6
BYLAYER
 49
-0.5
 62
   256
  6
BYLAYER
  0
ACDBPLACEHOLDER
  5
4C6
102
{ACAD_REACTORS
330
4C5
102
}
330
4C5
  0
XRECORD
  5
524
102
{ACAD_REACTORS
330
522
102
}
330
522
100
AcDbXrecord
340
523
  0
XRECORD
  5
526
102
{ACAD_REACTORS
330
522
102
}
330
522
100
AcDbXrecord
340
525
  0
DICTIONARY
  5
527
330
4CE
100
AcDbDictionary
280
     1
281
     1
  3
ACAD_XREC_ROUNDTRIP
360
528
  0
DICTIONARY
  5
529
330
4D0
100
AcDbDictionary
280
     1
281
     1
  3
ACAD_XREC_ROUNDTRIP
360
52A
  0
XRECORD
  5
528
102
{ACAD_REACTORS
330
527
102
}
330
527
100
AcDbXrecord
102
SHADEPLOT
 70
    59
102
SHADEPLOTRESLEVEL
 70
    95
102
SHADEPLOTCUSTOMDPI
 70
    96
  0
XRECORD
  5
52A
102
{ACAD_REACTORS
330
529
102
}
330
529
100
AcDbXrecord
102
SHADEPLOT
 70
     0
102
SHADEPLOTRESLEVEL
 70
     0
102
SHADEPLOTCUSTOMDPI
 70
     0
  0
ENDSEC
  0
EOF
