  0
SECTION
  2
HEADER
  9
$ACADVER
  1
AC1015
  9
$ACADMAINTVER
 70
     6
  9
$DWGCODEPAGE
  3
ISO8859-1
  9
$INSBASE
 10
0.0
 20
0.0
 30
0.0
  9
$EXTMIN
 10
1.844631
 20
-4.979167333333333
 30
0.0
  9
$EXTMAX
 10
9.689227428571424
 20
3.194066
 30
0.0
  9
$LIMMIN
 10
0.0
 20
0.0
  9
$LIMMAX
 10
12.0
 20
9.0
  9
$ORTHOMODE
 70
     0
  9
$REGENMODE
 70
     0
  9
$FILLMODE
 70
     1
  9
$QTEXTMODE
 70
     0
  9
$MIRRTEXT
 70
     1
  9
$LTSCALE
 40
0.25
  9
$ATTMODE
 70
     1
  9
$TEXTSIZE
 40
0.25
  9
$TRACEWID
 40
0.05
  9
$TEXTSTYLE
  7
STANDARD
  9
$CLAYER
  8
0
  9
$CELTYPE
  6
ByLayer
  9
$CECOLOR
 62
   256
  9
$CELTSCALE
 40
1.0
  9
$DISPSILH
 70
     0
  9
$DIMSCALE
 40
1.0
  9
$DIMASZ
 40
0.125
  9
$DIMEXO
 40
0.0625
  9
$DIMDLI
 40
0.38
  9
$DIMRND
 40
0.0
  9
$DIMDLE
 40
0.0
  9
$DIMEXE
 40
0.03125
  9
$DIMTP
 40
0.0
  9
$DIMTM
 40
0.0
  9
$DIMTXT
 40
0.1
  9
$DIMCEN
 40
0.09
  9
$DIMTSZ
 40
0.0
  9
$DIMTOL
 70
     0
  9
$DIMLIM
 70
     0
  9
$DIMTIH
 70
     0
  9
$DIMTOH
 70
     0
  9
$DIMSE1
 70
     0
  9
$DIMSE2
 70
     0
  9
$DIMTAD
 70
     0
  9
$DIMZIN
 70
     0
  9
$DIMBLK
  1

  9
$DIMASO
 70
     1
  9
$DIMSHO
 70
     1
  9
$DIMPOST
  1

  9
$DIMAPOST
  1

  9
$DIMALT
 70
     0
  9
$DIMALTD
 70
     2
  9
$DIMALTF
 40
25.4
  9
$DIMLFAC
 40
1.0
  9
$DIMTOFL
 70
     0
  9
$DIMTVP
 40
0.0
  9
$DIMTIX
 70
     0
  9
$DIMSOXD
 70
     0
  9
$DIMSAH
 70
     0
  9
$DIMBLK1
  1

  9
$DIMBLK2
  1

  9
$DIMSTYLE
  2
Standard
  9
$DIMCLRD
 70
     0
  9
$DIMCLRE
 70
     0
  9
$DIMCLRT
 70
     0
  9
$DIMTFAC
 40
1.0
  9
$DIMGAP
 40
0.09
  9
$DIMJUST
 70
     0
  9
$DIMSD1
 70
     0
  9
$DIMSD2
 70
     0
  9
$DIMTOLJ
 70
     1
  9
$DIMTZIN
 70
     0
  9
$DIMALTZ
 70
     0
  9
$DIMALTTZ
 70
     0
  9
$DIMUPT
 70
     0
  9
$DIMDEC
 70
     4
  9
$DIMTDEC
 70
     4
  9
$DIMALTU
 70
     2
  9
$DIMALTTD
 70
     2
  9
$DIMTXSTY
  7
STANDARD
  9
$DIMAUNIT
 70
     0
  9
$DIMADEC
 70
     0
  9
$DIMALTRND
 40
0.0
  9
$DIMAZIN
 70
     0
  9
$DIMDSEP
 70
    46
  9
$DIMATFIT
 70
     3
  9
$DIMFRAC
 70
     0
  9
$DIMLDRBLK
  1

  9
$DIMLUNIT
 70
     2
  9
$DIMLWD
 70
    -2
  9
$DIMLWE
 70
    -2
  9
$DIMTMOVE
 70
     0
  9
$LUNITS
 70
     4
  9
$LUPREC
 70
     4
  9
$SKETCHINC
 40
0.1
  9
$FILLETRAD
 40
0.05
  9
$AUNITS
 70
     0
  9
$AUPREC
 70
     3
  9
$MENU
  1
acad
  9
$ELEVATION
 40
0.0
  9
$PELEVATION
 40
0.0
  9
$THICKNESS
 40
0.0
  9
$LIMCHECK
 70
     0
  9
$CHAMFERA
 40
0.0
  9
$CHAMFERB
 40
0.0
  9
$CHAMFERC
 40
1.0
  9
$CHAMFERD
 40
0.0
  9
$SKPOLY
 70
     0
  9
$TDCREATE
 40
2453955.560289132
  9
$TDUCREATE
 40
2453955.893622465
  9
$TDUPDATE
 40
2453955.60195581
  9
$TDUUPDATE
 40
2453955.893622477
  9
$TDINDWG
 40
0.0000000116
  9
$TDUSRTIMER
 40
0.0000000116
  9
$USRTIMER
 70
     1
  9
$ANGBASE
 50
0.0
  9
$ANGDIR
 70
     0
  9
$PDMODE
 70
     0
  9
$PDSIZE
 40
0.0
  9
$PLINEWID
 40
0.0
  9
$SPLFRAME
 70
     0
  9
$SPLINETYPE
 70
     6
  9
$SPLINESEGS
 70
     8
  9
$HANDSEED
  5
281
  9
$SURFTAB1
 70
     6
  9
$SURFTAB2
 70
     6
  9
$SURFTYPE
 70
     6
  9
$SURFU
 70
     6
  9
$SURFV
 70
     6
  9
$UCSBASE
  2

  9
$UCSNAME
  2

  9
$UCSORG
 10
0.0
 20
0.0
 30
0.0
  9
$UCSXDIR
 10
1.0
 20
0.0
 30
0.0
  9
$UCSYDIR
 10
0.0
 20
1.0
 30
0.0
  9
$UCSORTHOREF
  2

  9
$UCSORTHOVIEW
 70
     0
  9
$UCSORGTOP
 10
0.0
 20
0.0
 30
0.0
  9
$UCSORGBOTTOM
 10
0.0
 20
0.0
 30
0.0
  9
$UCSORGLEFT
 10
0.0
 20
0.0
 30
0.0
  9
$UCSORGRIGHT
 10
0.0
 20
0.0
 30
0.0
  9
$UCSORGFRONT
 10
0.0
 20
0.0
 30
0.0
  9
$UCSORGBACK
 10
0.0
 20
0.0
 30
0.0
  9
$PUCSBASE
  2

  9
$PUCSNAME
  2

  9
$PUCSORG
 10
0.0
 20
0.0
 30
0.0
  9
$PUCSXDIR
 10
1.0
 20
0.0
 30
0.0
  9
$PUCSYDIR
 10
0.0
 20
1.0
 30
0.0
  9
$PUCSORTHOREF
  2

  9
$PUCSORTHOVIEW
 70
     0
  9
$PUCSORGTOP
 10
0.0
 20
0.0
 30
0.0
  9
$PUCSORGBOTTOM
 10
0.0
 20
0.0
 30
0.0
  9
$PUCSORGLEFT
 10
0.0
 20
0.0
 30
0.0
  9
$PUCSORGRIGHT
 10
0.0
 20
0.0
 30
0.0
  9
$PUCSORGFRONT
 10
0.0
 20
0.0
 30
0.0
  9
$PUCSORGBACK
 10
0.0
 20
0.0
 30
0.0
  9
$USERI1
 70
     0
  9
$USERI2
 70
     0
  9
$USERI3
 70
     0
  9
$USERI4
 70
     0
  9
$USERI5
 70
     0
  9
$USERR1
 40
0.0
  9
$USERR2
 40
0.0
  9
$USERR3
 40
0.0
  9
$USERR4
 40
0.0
  9
$USERR5
 40
0.0
  9
$WORLDVIEW
 70
     1
  9
$SHADEDGE
 70
     3
  9
$SHADEDIF
 70
    70
  9
$TILEMODE
 70
     1
  9
$MAXACTVP
 70
    16
  9
$PINSBASE
 10
0.0
 20
0.0
 30
0.0
  9
$PLIMCHECK
 70
     0
  9
$PEXTMIN
 10
1.000000000000000E+20
 20
1.000000000000000E+20
 30
1.000000000000000E+20
  9
$PEXTMAX
 10
-1.000000000000000E+20
 20
-1.000000000000000E+20
 30
-1.000000000000000E+20
  9
$PLIMMIN
 10
0.0
 20
0.0
  9
$PLIMMAX
 10
12.0
 20
9.0
  9
$UNITMODE
 70
     0
  9
$VISRETAIN
 70
     0
  9
$PLINEGEN
 70
     0
  9
$PSLTSCALE
 70
     1
  9
$TREEDEPTH
 70
  3020
  9
$CMLSTYLE
  2
Standard
  9
$CMLJUST
 70
     0
  9
$CMLSCALE
 40
1.0
  9
$PROXYGRAPHICS
 70
     1
  9
$MEASUREMENT
 70
     0
  9
$CELWEIGHT
370
    -1
  9
$ENDCAPS
280
     0
  9
$JOINSTYLE
280
     0
  9
$LWDISPLAY
290
     0
  9
$INSUNITS
 70
     1
  9
$HYPERLINKBASE
  1

  9
$STYLESHEET
  1

  9
$XEDIT
290
     1
  9
$CEPSNTYPE
380
     0
  9
$PSTYLEMODE
290
     0
  9
$FINGERPRINTGUID
  2
{FAEB1C30-E019-11D5-929B-00C0DF256EC4}
  9
$VERSIONGUID
  2
{FAEB1C32-E019-11D5-929B-00C0DF256EC4}
  9
$EXTNAMES
290
     1
  9
$PSVPSCALE
 40
0.0
  9
$OLESTARTUP
290
     0
  0
ENDSEC
  0
SECTION
  2
CLASSES
  0
CLASS
  1
ACDBDICTIONARYWDFLT
  2
AcDbDictionaryWithDefault
  3
AutoCAD 2000
 90
        0
280
     0
281
     0
  0
CLASS
  1
ACDBPLACEHOLDER
  2
AcDbPlaceHolder
  3
ObjectDBX Classes
 90
        0
280
     0
281
     0
  0
CLASS
  1
LAYOUT
  2
AcDbLayout
  3
ObjectDBX Classes
 90
        0
280
     0
281
     0
  0
ENDSEC
  0
SECTION
  2
TABLES
  0
TABLE
  2
VPORT
  5
259
330
0
100
AcDbSymbolTable
 70
     2
  0
VPORT
  5
26F
330
259
100
AcDbSymbolTableRecord
100
AcDbViewportTableRecord
  2
*ACTIVE
 70
     0
 10
0.0
 20
0.0
 11
1.0
 21
1.0
 12
9.697412458837773
 22
2.010416500000001
 13
0.0
 23
0.0
 14
1.0
 24
1.0
 15
0.0
 25
0.0
 16
0.0
 26
0.0
 36
1.0
 17
0.0
 27
0.0
 37
0.0
 40
13.979167
 41
0.7207678883071553
 42
50.0
 43
0.0
 44
0.0
 50
0.0
 51
0.0
 71
     0
 72
  2000
 73
     1
 74
     0
 75
     0
 76
     0
 77
     0
 78
     0
281
     0
 65
     1
110
0.0
120
0.0
130
0.0
111
1.0
121
0.0
131
0.0
112
0.0
122
1.0
132
0.0
 79
     0
146
0.0
  0
ENDTAB
  0
TABLE
  2
LTYPE
  5
256
330
0
100
AcDbSymbolTable
 70
     1
  0
LTYPE
  5
261
330
256
100
AcDbSymbolTableRecord
100
AcDbLinetypeTableRecord
  2
ByBlock
 70
     0
  3

 72
    65
 73
     0
 40
0.0
  0
LTYPE
  5
262
330
256
100
AcDbSymbolTableRecord
100
AcDbLinetypeTableRecord
  2
ByLayer
 70
     0
  3

 72
    65
 73
     0
 40
0.0
  0
LTYPE
  5
26C
330
256
100
AcDbSymbolTableRecord
100
AcDbLinetypeTableRecord
  2
CONTINUOUS
 70
     0
  3
Solid line
 72
    65
 73
     0
 40
0.0
  0
ENDTAB
  0
TABLE
  2
LAYER
  5
253
330
0
100
AcDbSymbolTable
 70
     1
  0
LAYER
  5
26D
330
253
100
AcDbSymbolTableRecord
100
AcDbLayerTableRecord
  2
0
 70
     0
 62
     7
  6
CONTINUOUS
370
    -3
390
260
  0
ENDTAB
  0
TABLE
  2
STYLE
  5
254
330
0
100
AcDbSymbolTable
 70
     1
  0
STYLE
  5
272
330
254
100
AcDbSymbolTableRecord
100
AcDbTextStyleTableRecord
  2
STANDARD
 70
     0
 40
0.0
 41
1.0
 50
0.0
 71
     0
 42
0.25
  3
ROMANS.SHX
  4

  0
ENDTAB
  0
TABLE
  2
VIEW
  5
257
330
0
100
AcDbSymbolTable
 70
     1
  0
VIEW
  5
271
330
257
100
AcDbSymbolTableRecord
100
AcDbViewTableRecord
  2
1
 70
     0
 40
9.538729
 10
6.363719000000001
 20
-0.297615
 41
12.360225
 11
0.0
 21
0.0
 31
1.0
 12
0.0
 22
0.0
 32
0.0
 42
50.0
 43
0.0
 44
0.0
 50
0.0
 71
     0
281
     0
 72
     0
  0
ENDTAB
  0
TABLE
  2
UCS
  5
258
330
0
100
AcDbSymbolTable
 70
     0
  0
ENDTAB
  0
TABLE
  2
APPID
  5
25A
330
0
100
AcDbSymbolTable
 70
     1
  0
APPID
  5
270
330
25A
100
AcDbSymbolTableRecord
100
AcDbRegAppTableRecord
  2
ACAD
 70
     0
  0
ENDTAB
  0
TABLE
  2
DIMSTYLE
  5
25B
330
0
100
AcDbSymbolTable
 70
     1
100
AcDbDimStyleTable
  0
DIMSTYLE
105
273
330
25B
100
AcDbSymbolTableRecord
100
AcDbDimStyleTableRecord
  2
Standard
 70
     0
  3

  4

340
272
  0
ENDTAB
  0
TABLE
  2
BLOCK_RECORD
  5
252
330
0
100
AcDbSymbolTable
 70
     0
  0
BLOCK_RECORD
  5
269
330
252
100
AcDbSymbolTableRecord
100
AcDbBlockTableRecord
  2
*Model_Space
340
26A
  0
BLOCK_RECORD
  5
267
330
252
100
AcDbSymbolTableRecord
100
AcDbBlockTableRecord
  2
*Paper_Space
340
268
  0
ENDTAB
  0
ENDSEC
  0
SECTION
  2
BLOCKS
  0
BLOCK
  5
276
330
269
100
AcDbEntity
  8
0
100
AcDbBlockBegin
  2
*Model_Space
 70
     0
 10
0.0
 20
0.0
 30
0.0
  3
*Model_Space
  1

  4

  0
ENDBLK
  5
277
330
269
100
AcDbEntity
  8
0
100
AcDbBlockEnd
  0
BLOCK
  5
274
330
267
100
AcDbEntity
 67
     1
  8
0
100
AcDbBlockBegin
  2
*Paper_Space
 70
     0
 10
0.0
 20
0.0
 30
0.0
  3
*Paper_Space
  1

  4

  0
ENDBLK
  5
275
330
267
100
AcDbEntity
 67
     1
  8
0
100
AcDbBlockEnd
  0
ENDSEC
  0
SECTION
  2
ENTITIES
  0
LINE
  5
3
330
269
100
AcDbEntity
  8
0
100
AcDbLine
 10
1.908315
 20
2.760832
 30
0.0
 11
1.908315
 21
1.166326
 31
0.0
  0
LINE
  5
4
330
269
100
AcDbEntity
  8
0
100
AcDbLine
 10
6.274055000000001
 20
-3.754482
 30
0.0
 11
6.274055000000001
 21
1.765844
 31
0.0
  0
LINE
  5
5
330
269
100
AcDbEntity
  8
0
100
AcDbLine
 10
7.386146000000001
 20
2.423564
 30
0.0
 11
7.386146000000001
 21
-2.614907
 31
0.0
  0
LINE
  5
6
330
269
100
AcDbEntity
  8
0
100
AcDbLine
 10
3.546568
 20
0.385728
 30
0.0
 11
3.546568
 21
-4.749367
 31
0.0
  0
LINE
  5
7
330
269
100
AcDbEntity
  8
0
100
AcDbLine
 10
2.230249
 20
0.785612
 30
0.0
 11
2.230249
 21
-4.067667
 31
0.0
  0
LINE
  5
8
330
269
100
AcDbEntity
  8
0
100
AcDbLine
 10
2.230249
 20
-4.067667
 30
0.0
 11
2.766281
 21
-4.345269
 31
0.0
  0
LINE
  5
9
330
269
100
AcDbEntity
  8
0
100
AcDbLine
 10
1.908315
 20
-1.885481
 30
0.0
 11
2.230249
 21
-2.023303
 31
0.0
  0
LINE
  5
A
330
269
100
AcDbEntity
  8
0
100
AcDbLine
 10
6.274055000000001
 20
-3.754482
 30
0.0
 11
7.386146000000001
 21
-2.614907
 31
0.0
  0
LINE
  5
B
330
269
100
AcDbEntity
  8
0
100
AcDbLine
 10
6.299453
 20
1.809373
 30
0.0
 11
7.386146000000001
 21
2.423564
 31
0.0
  0
LINE
  5
C
330
269
100
AcDbEntity
  8
0
100
AcDbLine
 10
1.908315
 20
2.760832
 30
0.0
 11
3.266655
 21
2.460332
 31
0.0
  0
LINE
  5
D
330
269
100
AcDbEntity
  8
0
100
AcDbLine
 10
1.908315
 20
2.760832
 30
0.0
 11
3.247926
 21
3.194066
 31
0.0
  0
LINE
  5
E
330
269
100
AcDbEntity
  8
0
100
AcDbLine
 10
3.247926
 20
3.194066
 30
0.0
 11
7.386146000000001
 21
2.423564
 31
0.0
  0
LINE
  5
F
330
269
100
AcDbEntity
  8
0
100
AcDbLine
 10
2.230249
 20
0.785612
 30
0.0
 11
3.546568
 21
0.385728
 31
0.0
  0
LINE
  5
15
330
269
100
AcDbEntity
  8
0
100
AcDbLine
 10
5.143401
 20
-3.270442
 30
0.0
 11
6.274055000000001
 21
-3.754482
 31
0.0
  0
LINE
  5
16
330
269
100
AcDbEntity
  8
0
100
AcDbLine
 10
6.225607
 20
1.78108
 30
0.0
 11
6.225607
 21
-2.370981
 31
0.0
  0
LINE
  5
21
330
269
100
AcDbEntity
  8
0
100
AcDbLine
 10
4.205358
 20
1.732009
 30
0.0
 11
4.308094000000001
 21
1.709281
 31
0.0
  0
LINE
  5
22
330
269
100
AcDbEntity
  8
0
100
AcDbLine
 10
2.230249
 20
0.785612
 30
0.0
 11
4.993998
 21
2.014189
 31
0.0
  0
LINE
  5
25
330
269
100
AcDbEntity
  8
0
100
AcDbLine
 10
5.532903
 20
1.372804
 30
0.0
 11
5.532903
 21
-3.00728
 31
0.0
  0
LINE
  5
27
330
269
100
AcDbEntity
  8
0
100
AcDbLine
 10
5.393587
 20
-3.038729
 30
0.0
 11
5.472103
 21
-3.056099
 31
0.0
  0
LINE
  5
29
330
269
100
AcDbEntity
  8
0
100
AcDbLine
 10
6.131669000000001
 20
1.762507
 30
0.0
 11
3.546568
 21
0.385728
 31
0.0
  0
LINE
  5
2B
330
269
100
AcDbEntity
  8
0
100
AcDbLine
 10
4.205358
 20
1.732009
 30
0.0
 11
4.891263
 21
2.036916
 31
0.0
  0
LINE
  5
2C
330
269
100
AcDbEntity
  8
0
100
AcDbLine
 10
6.225607
 20
1.741725
 30
0.0
 11
5.532903
 21
1.372804
 31
0.0
  0
LINE
  5
2E
330
269
100
AcDbEntity
  8
0
100
AcDbLine
 10
5.532903
 20
1.372804
 30
0.0
 11
5.438615
 21
1.393399
 31
0.0
  0
LINE
  5
2F
330
269
100
AcDbEntity
  8
0
100
AcDbLine
 10
5.438615
 20
1.393399
 30
0.0
 11
5.438615
 21
-2.975184
 31
0.0
  0
LINE
  5
30
330
269
100
AcDbEntity
  8
0
100
AcDbLine
 10
6.210568
 20
-2.406726
 30
0.0
 11
5.514208
 21
-3.046267
 31
0.0
  0
LINE
  5
31
330
269
100
AcDbEntity
  8
0
100
AcDbLine
 10
5.422590000000001
 20
-3.011868
 30
0.0
 11
3.546568
 21
-4.749367
 31
0.0
  0
LINE
  5
34
330
269
100
AcDbEntity
  8
0
100
AcDbLine
 10
2.839306
 20
-4.352704
 30
0.0
 11
2.836333
 21
0.60149
 31
0.0
  0
LINE
  5
35
330
269
100
AcDbEntity
  8
0
100
AcDbLine
 10
2.836333
 20
0.60149
 30
0.0
 11
5.51905
 21
1.898034
 31
0.0
  0
LINE
  5
44
330
269
100
AcDbEntity
  8
0
100
AcDbLine
 10
3.266649
 20
1.58351
 30
0.0
 11
3.765513
 21
1.468087
 31
0.0
  0
LINE
  5
45
330
269
100
AcDbEntity
  8
0
100
AcDbLine
 10
3.266649
 20
1.58351
 30
0.0
 11
3.266649
 21
2.459217
 31
0.0
  0
LINE
  5
46
330
269
100
AcDbEntity
  8
0
100
AcDbLine
 10
4.142332
 20
2.834364
 30
0.0
 11
3.333852
 21
2.553686
 31
0.0
  0
LINE
  5
47
330
269
100
AcDbEntity
  8
0
100
AcDbLine
 10
4.142332
 20
2.834364
 30
0.0
 11
6.987157000000001
 21
2.26985
 31
0.0
  0
LINE
  5
48
330
269
100
AcDbEntity
  8
0
100
AcDbLine
 10
6.276403
 20
1.868137
 30
0.0
 11
6.987157000000001
 21
2.26985
 31
0.0
  0
ARC
  5
4B
330
269
100
AcDbEntity
  8
0
100
AcDbCircle
 10
6.325607
 20
1.78108
 30
0.0
 40
0.1
100
AcDbArc
 50
119.474813
 51
180.0
  0
ARC
  5
4D
330
269
100
AcDbEntity
  8
0
100
AcDbCircle
 10
6.324055
 20
1.765844
 30
0.0
 40
0.05
100
AcDbArc
 50
119.474813
 51
180.0
  0
LINE
  5
4F
330
269
100
AcDbEntity
  8
0
100
AcDbLine
 10
6.987157000000001
 20
2.26985
 30
0.0
 11
6.987157000000001
 21
2.198058
 31
0.0
  0
ARC
  5
50
330
269
100
AcDbEntity
  8
0
100
AcDbCircle
 10
3.366649
 20
2.459217
 30
0.0
 40
0.1
100
AcDbArc
 50
109.145289
 51
180.0
  0
LINE
  5
51
330
269
100
AcDbEntity
  8
0
100
AcDbLine
 10
4.891263
 20
2.036916
 30
0.0
 11
6.225607
 21
1.741725
 31
0.0
  0
LINE
  5
53
330
269
100
AcDbEntity
  8
0
100
AcDbLine
 10
4.205358
 20
1.732009
 30
0.0
 11
4.205358
 21
1.663612
 31
0.0
  0
LINE
  5
54
330
269
100
AcDbEntity
  8
0
100
AcDbLine
 10
3.417499
 20
2.38972
 30
0.0
 11
6.075201
 21
1.801768
 31
0.0
  0
LINE
  5
55
330
269
100
AcDbEntity
  8
0
100
AcDbLine
 10
3.417499
 20
2.427355
 30
0.0
 11
6.075201
 21
1.846336
 31
0.0
  0
LINE
  5
65
330
269
100
AcDbEntity
  8
0
100
AcDbLine
 10
1.908315
 20
1.166326
 30
0.0
 11
1.844631
 21
1.075678
 31
0.0
  0
LINE
  5
66
330
269
100
AcDbEntity
  8
0
100
AcDbLine
 10
1.844631
 20
1.075678
 30
0.0
 11
2.013702
 21
0.885754
 31
0.0
  0
LINE
  5
67
330
269
100
AcDbEntity
  8
0
100
AcDbLine
 10
2.013702
 20
0.885754
 30
0.0
 11
1.908315
 21
0.752332
 31
0.0
  0
LINE
  5
68
330
269
100
AcDbEntity
  8
0
100
AcDbLine
 10
1.908315
 20
0.752332
 30
0.0
 11
1.908315
 21
-1.885481
 31
0.0
  0
LINE
  5
69
330
269
100
AcDbEntity
  8
0
100
AcDbLine
 10
6.401224
 20
-3.62417
 30
0.0
 11
6.362411
 21
-3.495863
 31
0.0
  0
LINE
  5
6A
330
269
100
AcDbEntity
  8
0
100
AcDbLine
 10
6.362411
 20
-3.495863
 30
0.0
 11
6.373727
 21
-3.434903
 31
0.0
  0
LINE
  5
6B
330
269
100
AcDbEntity
  8
0
100
AcDbLine
 10
6.373727
 20
-3.434903
 30
0.0
 11
6.335205999999999
 21
-3.339678
 31
0.0
  0
LINE
  5
6C
330
269
100
AcDbEntity
  8
0
100
AcDbLine
 10
6.335205999999999
 20
-3.339678
 30
0.0
 11
6.338618
 21
-3.259673
 31
0.0
  0
LINE
  5
6D
330
269
100
AcDbEntity
  8
0
100
AcDbLine
 10
6.338618
 20
-3.259673
 30
0.0
 11
6.274055000000001
 21
-3.109361
 31
0.0
  0
LINE
  5
6E
330
269
100
AcDbEntity
  8
0
100
AcDbLine
 10
6.473439
 20
-3.55017
 30
0.0
 11
6.274055000000001
 21
-1.601898
 31
0.0
  0
LINE
  5
6F
330
269
100
AcDbEntity
  8
0
100
AcDbLine
 10
6.585516
 20
-3.435323
 30
0.0
 11
6.274055000000001
 21
-0.2136
 31
0.0
  0
LINE
  5
70
330
269
100
AcDbEntity
  8
0
100
AcDbLine
 10
6.704628
 20
-3.313268
 30
0.0
 11
6.585272
 21
-1.979576
 31
0.0
  0
LINE
  5
71
330
269
100
AcDbEntity
  8
0
100
AcDbLine
 10
6.585272
 20
-1.979576
 30
0.0
 11
6.570021000000001
 21
-1.444344
 31
0.0
  0
LINE
  5
72
330
269
100
AcDbEntity
  8
0
100
AcDbLine
 10
6.570021000000001
 20
-1.444344
 30
0.0
 11
6.433573
 21
-0.940499
 31
0.0
  0
LINE
  5
73
330
269
100
AcDbEntity
  8
0
100
AcDbLine
 10
6.433573
 20
-0.940499
 30
0.0
 11
6.408753
 21
-0.515249
 31
0.0
  0
LINE
  5
74
330
269
100
AcDbEntity
  8
0
100
AcDbLine
 10
6.408753
 20
-0.515249
 30
0.0
 11
6.410416000000001
 21
0.196946
 31
0.0
  0
LINE
  5
75
330
269
100
AcDbEntity
  8
0
100
AcDbLine
 10
6.410416000000001
 20
0.196946
 30
0.0
 11
6.311153
 21
0.73461
 31
0.0
  0
LINE
  5
76
330
269
100
AcDbEntity
  8
0
100
AcDbLine
 10
6.311153
 20
0.73461
 30
0.0
 11
6.334221
 21
1.135606
 31
0.0
  0
LINE
  5
77
330
269
100
AcDbEntity
  8
0
100
AcDbLine
 10
6.334221
 20
1.135606
 30
0.0
 11
6.274055000000001
 21
1.368032
 31
0.0
  0
LINE
  5
78
330
269
100
AcDbEntity
  8
0
100
AcDbLine
 10
6.845176
 20
-3.169247
 30
0.0
 11
6.705425
 21
-1.762131
 31
0.0
  0
LINE
  5
79
330
269
100
AcDbEntity
  8
0
100
AcDbLine
 10
6.705425
 20
-1.762131
 30
0.0
 11
6.622354
 21
-0.9934850000000001
 31
0.0
  0
LINE
  5
7A
330
269
100
AcDbEntity
  8
0
100
AcDbLine
 10
6.622354
 20
-0.9934850000000001
 30
0.0
 11
6.594747
 21
-0.332154
 31
0.0
  0
LINE
  5
7B
330
269
100
AcDbEntity
  8
0
100
AcDbLine
 10
6.594747
 20
-0.332154
 30
0.0
 11
6.517291999999999
 21
0.361443
 31
0.0
  0
LINE
  5
7C
330
269
100
AcDbEntity
  8
0
100
AcDbLine
 10
6.517291999999999
 20
0.361443
 30
0.0
 11
6.488197
 21
0.9277540000000001
 31
0.0
  0
LINE
  5
7D
330
269
100
AcDbEntity
  8
0
100
AcDbLine
 10
6.488197
 20
0.9277540000000001
 30
0.0
 11
6.483281
 21
1.13884
 31
0.0
  0
LINE
  5
7E
330
269
100
AcDbEntity
  8
0
100
AcDbLine
 10
6.483281
 20
1.13884
 30
0.0
 11
6.385027
 21
1.289388
 31
0.0
  0
LINE
  5
7F
330
269
100
AcDbEntity
  8
0
100
AcDbLine
 10
6.385027
 20
1.289388
 30
0.0
 11
6.394935
 21
1.863338
 31
0.0
  0
LINE
  5
80
330
269
100
AcDbEntity
  8
0
100
AcDbLine
 10
6.972539
 20
-3.038736
 30
0.0
 11
6.811785
 21
-1.503604
 31
0.0
  0
LINE
  5
81
330
269
100
AcDbEntity
  8
0
100
AcDbLine
 10
6.811785
 20
-1.503604
 30
0.0
 11
6.747462
 21
-0.785068
 31
0.0
  0
LINE
  5
82
330
269
100
AcDbEntity
  8
0
100
AcDbLine
 10
6.747462
 20
-0.785068
 30
0.0
 11
6.656418
 21
0.183677
 31
0.0
  0
LINE
  5
83
330
269
100
AcDbEntity
  8
0
100
AcDbLine
 10
6.656418
 20
0.183677
 30
0.0
 11
6.592853
 21
0.855195
 31
0.0
  0
LINE
  5
84
330
269
100
AcDbEntity
  8
0
100
AcDbLine
 10
6.592853
 20
0.855195
 30
0.0
 11
6.649458
 21
1.163993
 31
0.0
  0
LINE
  5
85
330
269
100
AcDbEntity
  8
0
100
AcDbLine
 10
6.649458
 20
1.163993
 30
0.0
 11
6.496131
 21
1.497876
 31
0.0
  0
LINE
  5
86
330
269
100
AcDbEntity
  8
0
100
AcDbLine
 10
6.496131
 20
1.497876
 30
0.0
 11
6.468159
 21
1.904724
 31
0.0
  0
LINE
  5
87
330
269
100
AcDbEntity
  8
0
100
AcDbLine
 10
7.100022
 20
-2.908103
 30
0.0
 11
6.987939
 21
-1.483505
 31
0.0
  0
LINE
  5
88
330
269
100
AcDbEntity
  8
0
100
AcDbLine
 10
6.987939
 20
-1.483505
 30
0.0
 11
6.875064999999999
 21
-1.063804
 31
0.0
  0
LINE
  5
89
330
269
100
AcDbEntity
  8
0
100
AcDbLine
 10
6.875064999999999
 20
-1.063804
 30
0.0
 11
6.820386999999999
 21
-0.220282
 31
0.0
  0
LINE
  5
8A
330
269
100
AcDbEntity
  8
0
100
AcDbLine
 10
6.820386999999999
 20
-0.220282
 30
0.0
 11
6.794807000000001
 21
0.4460399999999999
 31
0.0
  0
LINE
  5
8B
330
269
100
AcDbEntity
  8
0
100
AcDbLine
 10
6.794807000000001
 20
0.4460399999999999
 30
0.0
 11
6.729532000000001
 21
0.9795280000000001
 31
0.0
  0
LINE
  5
8C
330
269
100
AcDbEntity
  8
0
100
AcDbLine
 10
6.729532000000001
 20
0.9795280000000001
 30
0.0
 11
6.771824000000001
 21
1.228382
 31
0.0
  0
LINE
  5
8D
330
269
100
AcDbEntity
  8
0
100
AcDbLine
 10
6.771824000000001
 20
1.228382
 30
0.0
 11
6.661524000000001
 21
1.565045
 31
0.0
  0
LINE
  5
8E
330
269
100
AcDbEntity
  8
0
100
AcDbLine
 10
6.661524000000001
 20
1.565045
 30
0.0
 11
6.571839999999999
 21
1.963324
 31
0.0
  0
LINE
  5
8F
330
269
100
AcDbEntity
  8
0
100
AcDbLine
 10
7.232912
 20
-2.771928
 30
0.0
 11
7.068735
 21
-1.721988
 31
0.0
  0
LINE
  5
90
330
269
100
AcDbEntity
  8
0
100
AcDbLine
 10
7.068735
 20
-1.721988
 30
0.0
 11
6.946091
 21
-0.8681139999999999
 31
0.0
  0
LINE
  5
91
330
269
100
AcDbEntity
  8
0
100
AcDbLine
 10
6.946091
 20
-0.8681139999999999
 30
0.0
 11
6.883311999999999
 21
0.1505
 31
0.0
  0
LINE
  5
92
330
269
100
AcDbEntity
  8
0
100
AcDbLine
 10
6.883311999999999
 20
0.1505
 30
0.0
 11
6.83312
 21
0.5048600000000001
 31
0.0
  0
LINE
  5
93
330
269
100
AcDbEntity
  8
0
100
AcDbLine
 10
6.83312
 20
0.5048600000000001
 30
0.0
 11
6.847221
 21
1.106959
 31
0.0
  0
LINE
  5
94
330
269
100
AcDbEntity
  8
0
100
AcDbLine
 10
6.847221
 20
1.106959
 30
0.0
 11
6.750613
 21
1.57759
 31
0.0
  0
LINE
  5
95
330
269
100
AcDbEntity
  8
0
100
AcDbLine
 10
6.750613
 20
1.57759
 30
0.0
 11
6.693244
 21
2.031941
 31
0.0
  0
LINE
  5
96
330
269
100
AcDbEntity
  8
0
100
AcDbLine
 10
7.309981
 20
-2.692955
 30
0.0
 11
7.16465
 21
-1.549432
 31
0.0
  0
LINE
  5
97
330
269
100
AcDbEntity
  8
0
100
AcDbLine
 10
7.16465
 20
-1.549432
 30
0.0
 11
7.092824
 21
-0.73383
 31
0.0
  0
LINE
  5
98
330
269
100
AcDbEntity
  8
0
100
AcDbLine
 10
7.092824
 20
-0.73383
 30
0.0
 11
6.968874000000001
 21
0.25509
 31
0.0
  0
LINE
  5
99
330
269
100
AcDbEntity
  8
0
100
AcDbLine
 10
6.968874000000001
 20
0.25509
 30
0.0
 11
6.847124000000001
 21
1.477065
 31
0.0
  0
LINE
  5
9A
330
269
100
AcDbEntity
  8
0
100
AcDbLine
 10
6.847124000000001
 20
1.477065
 30
0.0
 11
6.839919999999999
 21
2.114841
 31
0.0
  0
LINE
  5
9B
330
269
100
AcDbEntity
  8
0
100
AcDbLine
 10
7.386146000000001
 20
-2.588751
 30
0.0
 11
7.205696000000001
 21
-0.959475
 31
0.0
  0
LINE
  5
9C
330
269
100
AcDbEntity
  8
0
100
AcDbLine
 10
7.205696000000001
 20
-0.959475
 30
0.0
 11
7.107664999999999
 21
0.012307
 31
0.0
  0
LINE
  5
9D
330
269
100
AcDbEntity
  8
0
100
AcDbLine
 10
7.107664999999999
 20
0.012307
 30
0.0
 11
7.016755
 21
1.007059
 31
0.0
  0
LINE
  5
9E
330
269
100
AcDbEntity
  8
0
100
AcDbLine
 10
7.016755
 20
1.007059
 30
0.0
 11
7.015231
 21
1.877315
 31
0.0
  0
LINE
  5
9F
330
269
100
AcDbEntity
  8
0
100
AcDbLine
 10
7.015231
 20
1.877315
 30
0.0
 11
6.923744999999999
 21
2.162218
 31
0.0
  0
LINE
  5
A0
330
269
100
AcDbEntity
  8
0
100
AcDbLine
 10
7.386146000000001
 20
-1.532374
 30
0.0
 11
7.263138000000001
 21
-0.8767469999999999
 31
0.0
  0
LINE
  5
A1
330
269
100
AcDbEntity
  8
0
100
AcDbLine
 10
7.263138000000001
 20
-0.8767469999999999
 30
0.0
 11
7.190414
 21
-0.041134
 31
0.0
  0
LINE
  5
A2
330
269
100
AcDbEntity
  8
0
100
AcDbLine
 10
7.190414
 20
-0.041134
 30
0.0
 11
7.105223
 21
0.898573
 31
0.0
  0
LINE
  5
A3
330
269
100
AcDbEntity
  8
0
100
AcDbLine
 10
7.105223
 20
0.898573
 30
0.0
 11
7.096968
 21
1.432768
 31
0.0
  0
LINE
  5
A4
330
269
100
AcDbEntity
  8
0
100
AcDbLine
 10
7.096968
 20
1.432768
 30
0.0
 11
7.058006
 21
2.238101
 31
0.0
  0
LINE
  5
A5
330
269
100
AcDbEntity
  8
0
100
AcDbLine
 10
7.173251
 20
2.303237
 30
0.0
 11
7.182669000000001
 21
1.564365
 31
0.0
  0
LINE
  5
A6
330
269
100
AcDbEntity
  8
0
100
AcDbLine
 10
7.182669000000001
 20
1.564365
 30
0.0
 11
7.184253999999999
 21
0.9001670000000001
 31
0.0
  0
LINE
  5
A7
330
269
100
AcDbEntity
  8
0
100
AcDbLine
 10
7.184253999999999
 20
0.9001670000000001
 30
0.0
 11
7.254422
 21
0.345647
 31
0.0
  0
LINE
  5
A8
330
269
100
AcDbEntity
  8
0
100
AcDbLine
 10
7.254422
 20
0.345647
 30
0.0
 11
7.280005
 21
-0.125619
 31
0.0
  0
LINE
  5
A9
330
269
100
AcDbEntity
  8
0
100
AcDbLine
 10
7.280005
 20
-0.125619
 30
0.0
 11
7.386146000000001
 21
-0.484195
 31
0.0
  0
LINE
  5
AA
330
269
100
AcDbEntity
  8
0
100
AcDbLine
 10
7.252961
 20
2.348289
 30
0.0
 11
7.262808000000001
 21
1.586959
 31
0.0
  0
LINE
  5
AB
330
269
100
AcDbEntity
  8
0
100
AcDbLine
 10
7.262808000000001
 20
1.586959
 30
0.0
 11
7.296419
 21
1.120653
 31
0.0
  0
LINE
  5
AC
330
269
100
AcDbEntity
  8
0
100
AcDbLine
 10
7.296419
 20
1.120653
 30
0.0
 11
7.386146000000001
 21
0.6160180000000001
 31
0.0
  0
LINE
  5
13B
330
269
100
AcDbEntity
  8
0
100
AcDbLine
 10
3.546568
 20
-0.4404399999999999
 30
0.0
 11
3.606216
 21
-0.463822
 31
0.0
  0
LINE
  5
13C
330
269
100
AcDbEntity
  8
0
100
AcDbLine
 10
3.606216
 20
-0.463822
 30
0.0
 11
3.662066
 21
-0.496118
 31
0.0
  0
LINE
  5
13D
330
269
100
AcDbEntity
  8
0
100
AcDbLine
 10
3.662066
 20
-0.496118
 30
0.0
 11
3.706862
 21
-0.538361
 31
0.0
  0
LINE
  5
13E
330
269
100
AcDbEntity
  8
0
100
AcDbLine
 10
3.706862
 20
-0.538361
 30
0.0
 11
3.768641
 21
-0.584691
 31
0.0
  0
LINE
  5
13F
330
269
100
AcDbEntity
  8
0
100
AcDbLine
 10
3.768641
 20
-0.584691
 30
0.0
 11
3.835293
 21
-0.6560550000000001
 31
0.0
  0
LINE
  5
140
330
269
100
AcDbEntity
  8
0
100
AcDbLine
 10
3.835293
 20
-0.6560550000000001
 30
0.0
 11
3.879032
 21
-0.709295
 31
0.0
  0
LINE
  5
141
330
269
100
AcDbEntity
  8
0
100
AcDbLine
 10
3.879032
 20
-0.709295
 30
0.0
 11
3.894624
 21
-0.7893979999999999
 31
0.0
  0
LINE
  5
142
330
269
100
AcDbEntity
  8
0
100
AcDbLine
 10
3.894624
 20
-0.7893979999999999
 30
0.0
 11
3.906247
 21
-0.8634790000000001
 31
0.0
  0
LINE
  5
143
330
269
100
AcDbEntity
  8
0
100
AcDbLine
 10
3.906247
 20
-0.8634790000000001
 30
0.0
 11
3.9187
 21
-0.9705729999999999
 31
0.0
  0
LINE
  5
144
330
269
100
AcDbEntity
  8
0
100
AcDbLine
 10
3.9187
 20
-0.9705729999999999
 30
0.0
 11
3.928275
 21
-1.053646
 31
0.0
  0
LINE
  5
145
330
269
100
AcDbEntity
  8
0
100
AcDbLine
 10
3.928275
 20
-1.053646
 30
0.0
 11
3.933741
 21
-1.157704
 31
0.0
  0
LINE
  5
146
330
269
100
AcDbEntity
  8
0
100
AcDbLine
 10
3.933741
 20
-1.157704
 30
0.0
 11
3.95037
 21
-1.230811
 31
0.0
  0
LINE
  5
147
330
269
100
AcDbEntity
  8
0
100
AcDbLine
 10
3.95037
 20
-1.230811
 30
0.0
 11
3.963772
 21
-1.347913
 31
0.0
  0
LINE
  5
148
330
269
100
AcDbEntity
  8
0
100
AcDbLine
 10
3.963772
 20
-1.347913
 30
0.0
 11
3.988269
 21
-1.447067
 31
0.0
  0
LINE
  5
149
330
269
100
AcDbEntity
  8
0
100
AcDbLine
 10
3.988269
 20
-1.447067
 30
0.0
 11
4.017726000000001
 21
-1.55425
 31
0.0
  0
LINE
  5
14A
330
269
100
AcDbEntity
  8
0
100
AcDbLine
 10
4.017726000000001
 20
-1.55425
 30
0.0
 11
4.03121
 21
-1.655348
 31
0.0
  0
LINE
  5
14B
330
269
100
AcDbEntity
  8
0
100
AcDbLine
 10
4.03121
 20
-1.655348
 30
0.0
 11
4.02851
 21
-1.791373
 31
0.0
  0
LINE
  5
14C
330
269
100
AcDbEntity
  8
0
100
AcDbLine
 10
4.02851
 20
-1.791373
 30
0.0
 11
4.018101000000001
 21
-1.870342
 31
0.0
  0
LINE
  5
14D
330
269
100
AcDbEntity
  8
0
100
AcDbLine
 10
4.018101000000001
 20
-1.870342
 30
0.0
 11
3.980432
 21
-1.998185
 31
0.0
  0
LINE
  5
14E
330
269
100
AcDbEntity
  8
0
100
AcDbLine
 10
3.980432
 20
-1.998185
 30
0.0
 11
3.946714
 21
-2.136051
 31
0.0
  0
LINE
  5
14F
330
269
100
AcDbEntity
  8
0
100
AcDbLine
 10
3.946714
 20
-2.136051
 30
0.0
 11
3.931324
 21
-2.210993
 31
0.0
  0
LINE
  5
150
330
269
100
AcDbEntity
  8
0
100
AcDbLine
 10
3.931324
 20
-2.210993
 30
0.0
 11
3.905787
 21
-2.313891
 31
0.0
  0
LINE
  5
151
330
269
100
AcDbEntity
  8
0
100
AcDbLine
 10
3.905787
 20
-2.313891
 30
0.0
 11
3.86948
 21
-2.371721
 31
0.0
  0
LINE
  5
152
330
269
100
AcDbEntity
  8
0
100
AcDbLine
 10
3.86948
 20
-2.371721
 30
0.0
 11
3.832172
 21
-2.429545
 31
0.0
  0
LINE
  5
153
330
269
100
AcDbEntity
  8
0
100
AcDbLine
 10
3.832172
 20
-2.429545
 30
0.0
 11
3.777921
 21
-2.475279
 31
0.0
  0
LINE
  5
154
330
269
100
AcDbEntity
  8
0
100
AcDbLine
 10
3.777921
 20
-2.475279
 30
0.0
 11
3.714642
 21
-2.525968
 31
0.0
  0
LINE
  5
155
330
269
100
AcDbEntity
  8
0
100
AcDbLine
 10
3.714642
 20
-2.525968
 30
0.0
 11
3.659386
 21
-2.572698
 31
0.0
  0
LINE
  5
156
330
269
100
AcDbEntity
  8
0
100
AcDbLine
 10
3.659386
 20
-2.572698
 30
0.0
 11
3.605053
 21
-2.634436
 31
0.0
  0
LINE
  5
157
330
269
100
AcDbEntity
  8
0
100
AcDbLine
 10
3.605053
 20
-2.634436
 30
0.0
 11
3.548838
 21
-2.673158
 31
0.0
  0
LINE
  5
158
330
269
100
AcDbEntity
  8
0
100
AcDbLine
 10
3.548838
 20
-2.673158
 30
0.0
 11
3.546568
 21
-2.708982
 31
0.0
  0
LINE
  5
159
330
269
100
AcDbEntity
  8
0
100
AcDbLine
 10
3.800458
 20
0.520945
 30
0.0
 11
3.903036
 21
0.456915
 31
0.0
  0
LINE
  5
15A
330
269
100
AcDbEntity
  8
0
100
AcDbLine
 10
3.903036
 20
0.456915
 30
0.0
 11
3.948796
 21
0.407666
 31
0.0
  0
LINE
  5
15B
330
269
100
AcDbEntity
  8
0
100
AcDbLine
 10
3.948796
 20
0.407666
 30
0.0
 11
3.996448
 21
0.3374
 31
0.0
  0
LINE
  5
15C
330
269
100
AcDbEntity
  8
0
100
AcDbLine
 10
3.996448
 20
0.3374
 30
0.0
 11
4.073119
 21
0.268987
 31
0.0
  0
LINE
  5
15D
330
269
100
AcDbEntity
  8
0
100
AcDbLine
 10
4.073119
 20
0.268987
 30
0.0
 11
4.141751
 21
0.193612
 31
0.0
  0
LINE
  5
15E
330
269
100
AcDbEntity
  8
0
100
AcDbLine
 10
4.141751
 20
0.193612
 30
0.0
 11
4.236415
 21
0.123105
 31
0.0
  0
LINE
  5
15F
330
269
100
AcDbEntity
  8
0
100
AcDbLine
 10
4.236415
 20
0.123105
 30
0.0
 11
4.3101
 21
0.057707
 31
0.0
  0
LINE
  5
160
330
269
100
AcDbEntity
  8
0
100
AcDbLine
 10
4.3101
 20
0.057707
 30
0.0
 11
4.412555
 21
-0.053851
 31
0.0
  0
LINE
  5
161
330
269
100
AcDbEntity
  8
0
100
AcDbLine
 10
4.412555
 20
-0.053851
 30
0.0
 11
4.482259
 21
-0.115227
 31
0.0
  0
LINE
  5
162
330
269
100
AcDbEntity
  8
0
100
AcDbLine
 10
4.482259
 20
-0.115227
 30
0.0
 11
4.542699
 21
-0.22757
 31
0.0
  0
LINE
  5
163
330
269
100
AcDbEntity
  8
0
100
AcDbLine
 10
4.542699
 20
-0.22757
 30
0.0
 11
4.608238
 21
-0.320934
 31
0.0
  0
LINE
  5
164
330
269
100
AcDbEntity
  8
0
100
AcDbLine
 10
4.608238
 20
-0.320934
 30
0.0
 11
4.649816
 21
-0.405172
 31
0.0
  0
LINE
  5
165
330
269
100
AcDbEntity
  8
0
100
AcDbLine
 10
4.649816
 20
-0.405172
 30
0.0
 11
4.681114
 21
-0.5433720000000001
 31
0.0
  0
LINE
  5
166
330
269
100
AcDbEntity
  8
0
100
AcDbLine
 10
4.681114
 20
-0.5433720000000001
 30
0.0
 11
4.697433999999999
 21
-0.6764939999999999
 31
0.0
  0
LINE
  5
167
330
269
100
AcDbEntity
  8
0
100
AcDbLine
 10
4.697433999999999
 20
-0.6764939999999999
 30
0.0
 11
4.696585
 21
-0.8415370000000001
 31
0.0
  0
LINE
  5
168
330
269
100
AcDbEntity
  8
0
100
AcDbLine
 10
4.696585
 20
-0.8415370000000001
 30
0.0
 11
4.694813
 21
-0.9915709999999999
 31
0.0
  0
LINE
  5
169
330
269
100
AcDbEntity
  8
0
100
AcDbLine
 10
4.694813
 20
-0.9915709999999999
 30
0.0
 11
4.715908
 21
-1.16873
 31
0.0
  0
LINE
  5
16A
330
269
100
AcDbEntity
  8
0
100
AcDbLine
 10
4.715908
 20
-1.16873
 30
0.0
 11
4.706381
 21
-1.27071
 31
0.0
  0
LINE
  5
16B
330
269
100
AcDbEntity
  8
0
100
AcDbLine
 10
4.706381
 20
-1.27071
 30
0.0
 11
4.696679000000001
 21
-1.406699
 31
0.0
  0
LINE
  5
16C
330
269
100
AcDbEntity
  8
0
100
AcDbLine
 10
4.696679000000001
 20
-1.406699
 30
0.0
 11
4.701991000000001
 21
-1.540765
 31
0.0
  0
LINE
  5
16D
330
269
100
AcDbEntity
  8
0
100
AcDbLine
 10
4.701991000000001
 20
-1.540765
 30
0.0
 11
4.702271
 21
-1.680806
 31
0.0
  0
LINE
  5
16E
330
269
100
AcDbEntity
  8
0
100
AcDbLine
 10
4.702271
 20
-1.680806
 30
0.0
 11
4.701679
 21
-1.795836
 31
0.0
  0
LINE
  5
16F
330
269
100
AcDbEntity
  8
0
100
AcDbLine
 10
4.701679
 20
-1.795836
 30
0.0
 11
4.682077
 21
-1.911768
 31
0.0
  0
LINE
  5
170
330
269
100
AcDbEntity
  8
0
100
AcDbLine
 10
4.682077
 20
-1.911768
 30
0.0
 11
4.654566
 21
-2.009655
 31
0.0
  0
LINE
  5
171
330
269
100
AcDbEntity
  8
0
100
AcDbLine
 10
4.654566
 20
-2.009655
 30
0.0
 11
4.590978
 21
-2.120359
 31
0.0
  0
LINE
  5
172
330
269
100
AcDbEntity
  8
0
100
AcDbLine
 10
4.590978
 20
-2.120359
 30
0.0
 11
4.544478
 21
-2.215147
 31
0.0
  0
LINE
  5
173
330
269
100
AcDbEntity
  8
0
100
AcDbLine
 10
4.544478
 20
-2.215147
 30
0.0
 11
4.499152
 21
-2.275932
 31
0.0
  0
LINE
  5
174
330
269
100
AcDbEntity
  8
0
100
AcDbLine
 10
4.499152
 20
-2.275932
 30
0.0
 11
4.435503
 21
-2.398639
 31
0.0
  0
LINE
  5
175
330
269
100
AcDbEntity
  8
0
100
AcDbLine
 10
4.435503
 20
-2.398639
 30
0.0
 11
4.397092
 21
-2.476464
 31
0.0
  0
LINE
  5
176
330
269
100
AcDbEntity
  8
0
100
AcDbLine
 10
4.397092
 20
-2.476464
 30
0.0
 11
4.364553
 21
-2.579326
 31
0.0
  0
LINE
  5
177
330
269
100
AcDbEntity
  8
0
100
AcDbLine
 10
4.364553
 20
-2.579326
 30
0.0
 11
4.332118
 21
-2.662183
 31
0.0
  0
LINE
  5
178
330
269
100
AcDbEntity
  8
0
100
AcDbLine
 10
4.332118
 20
-2.662183
 30
0.0
 11
4.289541000000001
 21
-2.771995
 31
0.0
  0
LINE
  5
179
330
269
100
AcDbEntity
  8
0
100
AcDbLine
 10
4.289541000000001
 20
-2.771995
 30
0.0
 11
4.255033
 21
-2.868846
 31
0.0
  0
LINE
  5
17A
330
269
100
AcDbEntity
  8
0
100
AcDbLine
 10
4.255033
 20
-2.868846
 30
0.0
 11
4.203582
 21
-2.953605
 31
0.0
  0
LINE
  5
17B
330
269
100
AcDbEntity
  8
0
100
AcDbLine
 10
4.203582
 20
-2.953605
 30
0.0
 11
4.145218
 21
-3.021324
 31
0.0
  0
LINE
  5
17C
330
269
100
AcDbEntity
  8
0
100
AcDbLine
 10
4.145218
 20
-3.021324
 30
0.0
 11
4.079666000000001
 21
-3.125017
 31
0.0
  0
LINE
  5
17D
330
269
100
AcDbEntity
  8
0
100
AcDbLine
 10
4.079666000000001
 20
-3.125017
 30
0.0
 11
3.999053
 21
-3.239635
 31
0.0
  0
LINE
  5
17E
330
269
100
AcDbEntity
  8
0
100
AcDbLine
 10
3.999053
 20
-3.239635
 30
0.0
 11
3.939662
 21
-3.31235
 31
0.0
  0
LINE
  5
17F
330
269
100
AcDbEntity
  8
0
100
AcDbLine
 10
3.939662
 20
-3.31235
 30
0.0
 11
3.868206
 21
-3.397007
 31
0.0
  0
LINE
  5
180
330
269
100
AcDbEntity
  8
0
100
AcDbLine
 10
3.868206
 20
-3.397007
 30
0.0
 11
3.784681
 21
-3.494605
 31
0.0
  0
LINE
  5
181
330
269
100
AcDbEntity
  8
0
100
AcDbLine
 10
3.784681
 20
-3.494605
 30
0.0
 11
3.710337
 21
-3.557241
 31
0.0
  0
LINE
  5
182
330
269
100
AcDbEntity
  8
0
100
AcDbLine
 10
3.710337
 20
-3.557241
 30
0.0
 11
3.638742
 21
-3.668905
 31
0.0
  0
LINE
  5
183
330
269
100
AcDbEntity
  8
0
100
AcDbLine
 10
3.638742
 20
-3.668905
 30
0.0
 11
3.544435
 21
-3.723435
 31
0.0
  0
LINE
  5
184
330
269
100
AcDbEntity
  8
0
100
AcDbLine
 10
3.544435
 20
-3.723435
 30
0.0
 11
3.546568
 21
-3.78028
 31
0.0
  0
LINE
  5
185
330
269
100
AcDbEntity
  8
0
100
AcDbLine
 10
4.497322000000001
 20
0.8920819999999999
 30
0.0
 11
4.596351
 21
0.868467
 31
0.0
  0
LINE
  5
186
330
269
100
AcDbEntity
  8
0
100
AcDbLine
 10
4.596351
 20
0.868467
 30
0.0
 11
4.690892
 21
0.773954
 31
0.0
  0
LINE
  5
187
330
269
100
AcDbEntity
  8
0
100
AcDbLine
 10
4.690892
 20
0.773954
 30
0.0
 11
4.785392
 21
0.671438
 31
0.0
  0
LINE
  5
188
330
269
100
AcDbEntity
  8
0
100
AcDbLine
 10
4.785392
 20
0.671438
 30
0.0
 11
4.856994
 21
0.590047
 31
0.0
  0
LINE
  5
189
330
269
100
AcDbEntity
  8
0
100
AcDbLine
 10
4.856994
 20
0.590047
 30
0.0
 11
4.929328
 21
0.456637
 31
0.0
  0
LINE
  5
18A
330
269
100
AcDbEntity
  8
0
100
AcDbLine
 10
4.929328
 20
0.456637
 30
0.0
 11
4.988479
 21
0.288284
 31
0.0
  0
LINE
  5
18B
330
269
100
AcDbEntity
  8
0
100
AcDbLine
 10
4.988479
 20
0.288284
 30
0.0
 11
5.051729
 21
0.138917
 31
0.0
  0
LINE
  5
18C
330
269
100
AcDbEntity
  8
0
100
AcDbLine
 10
5.051729
 20
0.138917
 30
0.0
 11
5.111762000000001
 21
-0.052447
 31
0.0
  0
LINE
  5
18D
330
269
100
AcDbEntity
  8
0
100
AcDbLine
 10
5.111762000000001
 20
-0.052447
 30
0.0
 11
5.160623
 21
-0.276762
 31
0.0
  0
LINE
  5
18E
330
269
100
AcDbEntity
  8
0
100
AcDbLine
 10
5.160623
 20
-0.276762
 30
0.0
 11
5.179702
 21
-0.456912
 31
0.0
  0
LINE
  5
18F
330
269
100
AcDbEntity
  8
0
100
AcDbLine
 10
5.179702
 20
-0.456912
 30
0.0
 11
5.211974
 21
-0.600119
 31
0.0
  0
LINE
  5
190
330
269
100
AcDbEntity
  8
0
100
AcDbLine
 10
5.211974
 20
-0.600119
 30
0.0
 11
5.237219000000001
 21
-0.748291
 31
0.0
  0
LINE
  5
191
330
269
100
AcDbEntity
  8
0
100
AcDbLine
 10
5.237219000000001
 20
-0.748291
 30
0.0
 11
5.235447
 21
-0.898325
 31
0.0
  0
LINE
  5
192
330
269
100
AcDbEntity
  8
0
100
AcDbLine
 10
5.235447
 20
-0.898325
 30
0.0
 11
5.254753
 21
-1.034463
 31
0.0
  0
LINE
  5
193
330
269
100
AcDbEntity
  8
0
100
AcDbLine
 10
5.254753
 20
-1.034463
 30
0.0
 11
5.271047
 21
-1.172586
 31
0.0
  0
LINE
  5
194
330
269
100
AcDbEntity
  8
0
100
AcDbLine
 10
5.271047
 20
-1.172586
 30
0.0
 11
5.27621
 21
-1.335659
 31
0.0
  0
LINE
  5
195
330
269
100
AcDbEntity
  8
0
100
AcDbLine
 10
5.27621
 20
-1.335659
 30
0.0
 11
5.292329000000001
 21
-1.507791
 31
0.0
  0
LINE
  5
196
330
269
100
AcDbEntity
  8
0
100
AcDbLine
 10
5.292329000000001
 20
-1.507791
 30
0.0
 11
5.250706
 21
-1.626611
 31
0.0
  0
LINE
  5
197
330
269
100
AcDbEntity
  8
0
100
AcDbLine
 10
5.250706
 20
-1.626611
 30
0.0
 11
5.239813
 21
-1.799605
 31
0.0
  0
LINE
  5
198
330
269
100
AcDbEntity
  8
0
100
AcDbLine
 10
5.239813
 20
-1.799605
 30
0.0
 11
5.19701
 21
-1.953428
 31
0.0
  0
LINE
  5
199
330
269
100
AcDbEntity
  8
0
100
AcDbLine
 10
5.19701
 20
-1.953428
 30
0.0
 11
5.152304
 21
-2.088237
 31
0.0
  0
LINE
  5
19A
330
269
100
AcDbEntity
  8
0
100
AcDbLine
 10
5.152304
 20
-2.088237
 30
0.0
 11
5.119730000000001
 21
-2.198101
 31
0.0
  0
LINE
  5
19B
330
269
100
AcDbEntity
  8
0
100
AcDbLine
 10
5.119730000000001
 20
-2.198101
 30
0.0
 11
5.068971
 21
-2.342881
 31
0.0
  0
LINE
  5
19C
330
269
100
AcDbEntity
  8
0
100
AcDbLine
 10
5.068971
 20
-2.342881
 30
0.0
 11
5.020464
 21
-2.438659
 31
0.0
  0
LINE
  5
19D
330
269
100
AcDbEntity
  8
0
100
AcDbLine
 10
5.020464
 20
-2.438659
 30
0.0
 11
4.946787000000001
 21
-2.566317
 31
0.0
  0
LINE
  5
19E
330
269
100
AcDbEntity
  8
0
100
AcDbLine
 10
4.946787000000001
 20
-2.566317
 30
0.0
 11
4.887267
 21
-2.664039
 31
0.0
  0
LINE
  5
19F
330
269
100
AcDbEntity
  8
0
100
AcDbLine
 10
4.887267
 20
-2.664039
 30
0.0
 11
4.817652
 21
-2.779714
 31
0.0
  0
LINE
  5
1A0
330
269
100
AcDbEntity
  8
0
100
AcDbLine
 10
4.817652
 20
-2.779714
 30
0.0
 11
4.722630000000001
 21
-2.97328
 31
0.0
  0
LINE
  5
1A1
330
269
100
AcDbEntity
  8
0
100
AcDbLine
 10
4.722630000000001
 20
-2.97328
 30
0.0
 11
4.636918
 21
-3.106878
 31
0.0
  0
LINE
  5
1A2
330
269
100
AcDbEntity
  8
0
100
AcDbLine
 10
4.636918
 20
-3.106878
 30
0.0
 11
4.541024
 21
-3.275433
 31
0.0
  0
LINE
  5
1A3
330
269
100
AcDbEntity
  8
0
100
AcDbLine
 10
4.541024
 20
-3.275433
 30
0.0
 11
4.507537
 21
-3.368287000000001
 31
0.0
  0
LINE
  5
1A4
330
269
100
AcDbEntity
  8
0
100
AcDbLine
 10
4.507537
 20
-3.368287000000001
 30
0.0
 11
4.373236
 21
-3.613666
 31
0.0
  0
LINE
  5
1A5
330
269
100
AcDbEntity
  8
0
100
AcDbLine
 10
4.373236
 20
-3.613666
 30
0.0
 11
4.296507
 21
-3.751311
 31
0.0
  0
LINE
  5
1A6
330
269
100
AcDbEntity
  8
0
100
AcDbLine
 10
4.296507
 20
-3.751311
 30
0.0
 11
4.241788
 21
-3.888069
 31
0.0
  0
LINE
  5
1A7
330
269
100
AcDbEntity
  8
0
100
AcDbLine
 10
4.241788
 20
-3.888069
 30
0.0
 11
4.203248
 21
-3.9909
 31
0.0
  0
LINE
  5
1A8
330
269
100
AcDbEntity
  8
0
100
AcDbLine
 10
4.203248
 20
-3.9909
 30
0.0
 11
4.161341
 21
-4.179988
 31
0.0
  0
LINE
  5
1A9
330
269
100
AcDbEntity
  8
0
100
AcDbLine
 10
5.148969999999999
 20
1.239139
 30
0.0
 11
5.210126
 21
1.179399
 31
0.0
  0
LINE
  5
1AA
330
269
100
AcDbEntity
  8
0
100
AcDbLine
 10
5.210126
 20
1.179399
 30
0.0
 11
5.245996
 21
1.152207
 31
0.0
  0
LINE
  5
1AB
330
269
100
AcDbEntity
  8
0
100
AcDbLine
 10
5.245996
 20
1.152207
 30
0.0
 11
5.312633
 21
1.077843
 31
0.0
  0
LINE
  5
1AC
330
269
100
AcDbEntity
  8
0
100
AcDbLine
 10
5.312633
 20
1.077843
 30
0.0
 11
5.373293
 21
1.008511
 31
0.0
  0
LINE
  5
1AD
330
269
100
AcDbEntity
  8
0
100
AcDbLine
 10
5.373293
 20
1.008511
 30
0.0
 11
5.424075
 21
0.9632370000000001
 31
0.0
  0
LINE
  5
1AE
330
269
100
AcDbEntity
  8
0
100
AcDbLine
 10
5.424075
 20
0.9632370000000001
 30
0.0
 11
5.438615
 21
0.902067
 31
0.0
  0
LINE
  5
1AF
330
269
100
AcDbEntity
  8
0
100
AcDbLine
 10
5.033968
 20
-3.371795
 30
0.0
 11
5.151923
 21
-3.134534
 31
0.0
  0
LINE
  5
1B0
330
269
100
AcDbEntity
  8
0
100
AcDbLine
 10
5.151923
 20
-3.134534
 30
0.0
 11
5.254726
 21
-2.98402
 31
0.0
  0
LINE
  5
1B1
330
269
100
AcDbEntity
  8
0
100
AcDbLine
 10
5.254726
 20
-2.98402
 30
0.0
 11
5.341942
 21
-2.752402
 31
0.0
  0
LINE
  5
1B2
330
269
100
AcDbEntity
  8
0
100
AcDbLine
 10
5.341942
 20
-2.752402
 30
0.0
 11
5.410138
 21
-2.523687
 31
0.0
  0
LINE
  5
1B3
330
269
100
AcDbEntity
  8
0
100
AcDbLine
 10
5.410138
 20
-2.523687
 30
0.0
 11
5.438615
 21
-2.444394
 31
0.0
  0
LINE
  5
1B7
330
269
100
AcDbEntity
  8
0
100
AcDbLine
 10
2.866312
 20
-4.397074
 30
0.0
 11
3.546568
 21
-4.749367
 31
0.0
  0
ARC
  5
1B9
330
269
100
AcDbEntity
  8
0
100
AcDbCircle
 10
5.388615
 20
-2.975184
 30
0.0
 40
0.05
100
AcDbArc
 50
312.804665
 51
0.0
  0
ARC
  5
1BA
330
269
100
AcDbEntity
  8
0
100
AcDbCircle
 10
5.482903
 20
-3.00728
 30
0.0
 40
0.05
100
AcDbArc
 50
257.525619
 51
0.0
  0
ARC
  5
1BB
330
269
100
AcDbEntity
  8
0
100
AcDbCircle
 10
6.175607
 20
-2.370981
 30
0.0
 40
0.05
100
AcDbArc
 50
314.365689
 51
0.0
  0
ARC
  5
1BC
330
269
100
AcDbEntity
  8
0
100
AcDbCircle
 10
2.789275
 20
-4.30087
 30
0.0
 40
0.05
100
AcDbArc
 50
242.621121
 51
0.034382
  0
ARC
  5
1BD
330
269
100
AcDbEntity
  8
0
100
AcDbCircle
 10
2.889306
 20
-4.352674
 30
0.0
 40
0.05
100
AcDbArc
 50
180.034382
 51
242.621121
  0
POINT
  5
1BE
330
269
100
AcDbEntity
  8
0
100
AcDbPoint
 10
2.297253
 20
-4.102367
 30
0.0
  0
POINT
  5
1BF
330
269
100
AcDbEntity
  8
0
100
AcDbPoint
 10
2.364257
 20
-4.137068
 30
0.0
  0
POINT
  5
1C0
330
269
100
AcDbEntity
  8
0
100
AcDbPoint
 10
2.431261
 20
-4.171768
 30
0.0
  0
POINT
  5
1C1
330
269
100
AcDbEntity
  8
0
100
AcDbPoint
 10
2.498265
 20
-4.206468
 30
0.0
  0
POINT
  5
1C2
330
269
100
AcDbEntity
  8
0
100
AcDbPoint
 10
2.565269
 20
-4.241168
 30
0.0
  0
POINT
  5
1C3
330
269
100
AcDbEntity
  8
0
100
AcDbPoint
 10
2.632273
 20
-4.275869
 30
0.0
  0
POINT
  5
1C4
330
269
100
AcDbEntity
  8
0
100
AcDbPoint
 10
2.699277
 20
-4.310569
 30
0.0
  0
LINE
  5
1CF
330
269
100
AcDbEntity
  8
0
100
AcDbLine
 10
2.764301
 20
-4.344244000000001
 30
0.0
 11
2.761319
 21
0.624278
 31
0.0
  0
LINE
  5
1D0
330
269
100
AcDbEntity
  8
0
100
AcDbLine
 10
2.689278
 20
-4.30539
 30
0.0
 11
2.686306
 21
0.6470670000000001
 31
0.0
  0
LINE
  5
1D1
330
269
100
AcDbEntity
  8
0
100
AcDbLine
 10
2.614254
 20
-4.266537000000001
 30
0.0
 11
2.611292
 21
0.669855
 31
0.0
  0
LINE
  5
1D2
330
269
100
AcDbEntity
  8
0
100
AcDbLine
 10
2.539231
 20
-4.227684
 30
0.0
 11
2.536278
 21
0.692643
 31
0.0
  0
LINE
  5
1D3
330
269
100
AcDbEntity
  8
0
100
AcDbLine
 10
2.464208
 20
-4.18883
 30
0.0
 11
2.461265
 21
0.715432
 31
0.0
  0
LINE
  5
1D4
330
269
100
AcDbEntity
  8
0
100
AcDbLine
 10
2.389184
 20
-4.149977
 30
0.0
 11
2.386251
 21
0.73822
 31
0.0
  0
LINE
  5
1D5
330
269
100
AcDbEntity
  8
0
100
AcDbLine
 10
2.314161
 20
-4.111124
 30
0.0
 11
2.311237
 21
0.761008
 31
0.0
  0
LINE
  5
1D6
330
269
100
AcDbEntity
  8
0
100
AcDbLine
 10
2.927416
 20
-4.428718
 30
0.0
 11
2.924414
 21
0.574732
 31
0.0
  0
LINE
  5
1D7
330
269
100
AcDbEntity
  8
0
100
AcDbLine
 10
3.011147
 20
-4.472081
 30
0.0
 11
3.008133
 21
0.549299
 31
0.0
  0
LINE
  5
1D8
330
269
100
AcDbEntity
  8
0
100
AcDbLine
 10
3.103589
 20
-4.519955
 30
0.0
 11
3.100564
 21
0.521219
 31
0.0
  0
LINE
  5
1D9
330
269
100
AcDbEntity
  8
0
100
AcDbLine
 10
3.187328
 20
-4.563322
 30
0.0
 11
3.184292
 21
0.495784
 31
0.0
  0
LINE
  5
1DA
330
269
100
AcDbEntity
  8
0
100
AcDbLine
 10
3.285108
 20
-4.613961
 30
0.0
 11
3.28206
 21
0.466083
 31
0.0
  0
LINE
  5
1DB
330
269
100
AcDbEntity
  8
0
100
AcDbLine
 10
3.379009
 20
-4.662591
 30
0.0
 11
3.375949
 21
0.4375600000000001
 31
0.0
  0
LINE
  5
1DC
330
269
100
AcDbEntity
  8
0
100
AcDbLine
 10
3.462977
 20
-4.706076
 30
0.0
 11
3.459906
 21
0.412055
 31
0.0
  0
LINE
  5
1DD
330
269
100
AcDbEntity
  8
0
100
AcDbLine
 10
2.311237
 20
0.761008
 30
0.0
 11
5.054491000000001
 21
2.000806
 31
0.0
  0
LINE
  5
1DE
330
269
100
AcDbEntity
  8
0
100
AcDbLine
 10
2.386251
 20
0.73822
 30
0.0
 11
5.112927
 21
1.987878
 31
0.0
  0
LINE
  5
1DF
330
269
100
AcDbEntity
  8
0
100
AcDbLine
 10
2.461265
 20
0.715432
 30
0.0
 11
5.177552
 21
1.973582
 31
0.0
  0
LINE
  5
1E0
330
269
100
AcDbEntity
  8
0
100
AcDbLine
 10
2.536278
 20
0.692643
 30
0.0
 11
5.237356
 21
1.960352
 31
0.0
  0
LINE
  5
1E1
330
269
100
AcDbEntity
  8
0
100
AcDbLine
 10
2.611292
 20
0.669855
 30
0.0
 11
5.323998000000001
 21
1.941184
 31
0.0
  0
LINE
  5
1E2
330
269
100
AcDbEntity
  8
0
100
AcDbLine
 10
2.686306
 20
0.6470670000000001
 30
0.0
 11
5.401
 21
1.924149
 31
0.0
  0
LINE
  5
1E3
330
269
100
AcDbEntity
  8
0
100
AcDbLine
 10
2.761319
 20
0.624278
 30
0.0
 11
5.455985
 21
1.911985
 31
0.0
  0
LINE
  5
1E4
330
269
100
AcDbEntity
  8
0
100
AcDbLine
 10
2.924414
 20
0.574732
 30
0.0
 11
5.569405000000001
 21
1.886894
 31
0.0
  0
LINE
  5
1E5
330
269
100
AcDbEntity
  8
0
100
AcDbLine
 10
3.008133
 20
0.549299
 30
0.0
 11
5.626472
 21
1.874269
 31
0.0
  0
LINE
  5
1E6
330
269
100
AcDbEntity
  8
0
100
AcDbLine
 10
3.100564
 20
0.521219
 30
0.0
 11
5.680088
 21
1.862408
 31
0.0
  0
LINE
  5
1E7
330
269
100
AcDbEntity
  8
0
100
AcDbLine
 10
3.184292
 20
0.495784
 30
0.0
 11
5.759173000000001
 21
1.844912
 31
0.0
  0
LINE
  5
1E8
330
269
100
AcDbEntity
  8
0
100
AcDbLine
 10
3.28206
 20
0.466083
 30
0.0
 11
5.85611
 21
1.823467
 31
0.0
  0
LINE
  5
1E9
330
269
100
AcDbEntity
  8
0
100
AcDbLine
 10
3.375949
 20
0.4375600000000001
 30
0.0
 11
5.932398
 21
1.806591
 31
0.0
  0
LINE
  5
1EA
330
269
100
AcDbEntity
  8
0
100
AcDbLine
 10
3.459906
 20
0.412055
 30
0.0
 11
6.034155
 21
1.784079
 31
0.0
  0
ARC
  5
1EB
330
269
100
AcDbEntity
  8
0
100
AcDbCircle
 10
5.739547
 20
-1.424885
 30
0.0
 40
0.014212
100
AcDbArc
 50
85.491607
 51
122.696923
  0
ARC
  5
1EC
330
269
100
AcDbEntity
  8
0
100
AcDbCircle
 10
5.749682
 20
-1.440674
 30
0.0
 40
0.032974
100
AcDbArc
 50
122.696923
 51
146.874676
  0
ARC
  5
1ED
330
269
100
AcDbEntity
  8
0
100
AcDbCircle
 10
5.76705
 20
-1.452007
 30
0.0
 40
0.053712
100
AcDbArc
 50
146.874676
 51
162.756952
  0
ARC
  5
1EE
330
269
100
AcDbEntity
  8
0
100
AcDbCircle
 10
5.79536
 20
-1.460794
 30
0.0
 40
0.083355
100
AcDbArc
 50
162.756952
 51
175.491607
  0
ARC
  5
1EF
330
269
100
AcDbEntity
  8
0
100
AcDbCircle
 10
5.79536
 20
-1.460794
 30
0.0
 40
0.083355
100
AcDbArc
 50
175.491607
 51
188.226262
  0
ARC
  5
1F0
330
269
100
AcDbEntity
  8
0
100
AcDbCircle
 10
5.766023000000001
 20
-1.465035
 30
0.0
 40
0.053712
100
AcDbArc
 50
188.226262
 51
204.108538
  0
ARC
  5
1F1
330
269
100
AcDbEntity
  8
0
100
AcDbCircle
 10
5.747094000000001
 20
-1.473506
 30
0.0
 40
0.032974
100
AcDbArc
 50
204.108538
 51
228.286292
  0
ARC
  5
1F2
330
269
100
AcDbEntity
  8
0
100
AcDbCircle
 10
5.734609
 20
-1.487512
 30
0.0
 40
0.014212
100
AcDbArc
 50
228.286292
 51
265.491607
  0
ARC
  5
1F3
330
269
100
AcDbEntity
  8
0
100
AcDbCircle
 10
5.734609
 20
-1.487512
 30
0.0
 40
0.014212
100
AcDbArc
 50
265.491607
 51
302.696923
  0
ARC
  5
1F4
330
269
100
AcDbEntity
  8
0
100
AcDbCircle
 10
5.724474
 20
-1.471723
 30
0.0
 40
0.032974
100
AcDbArc
 50
302.696923
 51
326.874676
  0
ARC
  5
1F5
330
269
100
AcDbEntity
  8
0
100
AcDbCircle
 10
5.707106
 20
-1.46039
 30
0.0
 40
0.053712
100
AcDbArc
 50
326.874676
 51
342.756952
  0
ARC
  5
1F6
330
269
100
AcDbEntity
  8
0
100
AcDbCircle
 10
5.678796
 20
-1.451603
 30
0.0
 40
0.083355
100
AcDbArc
 50
342.756952
 51
355.491607
  0
ARC
  5
1F7
330
269
100
AcDbEntity
  8
0
100
AcDbCircle
 10
5.678796
 20
-1.451603
 30
0.0
 40
0.083355
100
AcDbArc
 50
355.491607
 51
8.226262
  0
ARC
  5
1F8
330
269
100
AcDbEntity
  8
0
100
AcDbCircle
 10
5.708133
 20
-1.447362
 30
0.0
 40
0.053712
100
AcDbArc
 50
8.226262
 51
24.108538
  0
ARC
  5
1F9
330
269
100
AcDbEntity
  8
0
100
AcDbCircle
 10
5.727062999999999
 20
-1.438891
 30
0.0
 40
0.032974
100
AcDbArc
 50
24.108538
 51
48.286292
  0
ARC
  5
1FA
330
269
100
AcDbEntity
  8
0
100
AcDbCircle
 10
5.739547
 20
-1.424885
 30
0.0
 40
0.014212
100
AcDbArc
 50
48.286292
 51
85.491607
  0
ARC
  5
1FB
330
269
100
AcDbEntity
  8
0
100
AcDbCircle
 10
5.727549
 20
-1.423823
 30
0.0
 40
0.014212
100
AcDbArc
 50
85.491607
 51
122.696923
  0
ARC
  5
1FC
330
269
100
AcDbEntity
  8
0
100
AcDbCircle
 10
5.737684
 20
-1.439612
 30
0.0
 40
0.032974
100
AcDbArc
 50
122.696923
 51
146.874676
  0
ARC
  5
1FD
330
269
100
AcDbEntity
  8
0
100
AcDbCircle
 10
5.755052
 20
-1.450945
 30
0.0
 40
0.053712
100
AcDbArc
 50
146.874676
 51
162.756952
  0
ARC
  5
1FE
330
269
100
AcDbEntity
  8
0
100
AcDbCircle
 10
5.783362
 20
-1.459732
 30
0.0
 40
0.083355
100
AcDbArc
 50
162.756952
 51
175.491607
  0
ARC
  5
1FF
330
269
100
AcDbEntity
  8
0
100
AcDbCircle
 10
5.783362
 20
-1.459732
 30
0.0
 40
0.083355
100
AcDbArc
 50
175.491607
 51
188.226262
  0
ARC
  5
200
330
269
100
AcDbEntity
  8
0
100
AcDbCircle
 10
5.754025
 20
-1.463973
 30
0.0
 40
0.053712
100
AcDbArc
 50
188.226262
 51
204.108538
  0
ARC
  5
201
330
269
100
AcDbEntity
  8
0
100
AcDbCircle
 10
5.735096
 20
-1.472444
 30
0.0
 40
0.032974
100
AcDbArc
 50
204.108538
 51
228.286292
  0
ARC
  5
202
330
269
100
AcDbEntity
  8
0
100
AcDbCircle
 10
5.722611
 20
-1.48645
 30
0.0
 40
0.014212
100
AcDbArc
 50
228.286292
 51
265.491607
  0
ARC
  5
203
330
269
100
AcDbEntity
  8
0
100
AcDbCircle
 10
5.722611
 20
-1.48645
 30
0.0
 40
0.014212
100
AcDbArc
 50
265.491607
 51
290.0138490000001
  0
ARC
  5
204
330
269
100
AcDbEntity
  8
0
100
AcDbCircle
 10
4.112523
 20
2.714146
 30
0.0
 40
0.014212
100
AcDbArc
 50
175.491607
 51
212.696923
  0
ARC
  5
205
330
269
100
AcDbEntity
  8
0
100
AcDbCircle
 10
4.128312
 20
2.724281
 30
0.0
 40
0.032974
100
AcDbArc
 50
212.696923
 51
236.874676
  0
ARC
  5
206
330
269
100
AcDbEntity
  8
0
100
AcDbCircle
 10
4.139644000000001
 20
2.741649
 30
0.0
 40
0.053712
100
AcDbArc
 50
236.874676
 51
252.756952
  0
ARC
  5
207
330
269
100
AcDbEntity
  8
0
100
AcDbCircle
 10
4.148431
 20
2.76996
 30
0.0
 40
0.083355
100
AcDbArc
 50
252.756952
 51
265.491607
  0
ARC
  5
208
330
269
100
AcDbEntity
  8
0
100
AcDbCircle
 10
4.148431
 20
2.76996
 30
0.0
 40
0.083355
100
AcDbArc
 50
265.491607
 51
278.226262
  0
ARC
  5
209
330
269
100
AcDbEntity
  8
0
100
AcDbCircle
 10
4.152673
 20
2.740622
 30
0.0
 40
0.053712
100
AcDbArc
 50
278.226262
 51
294.108538
  0
ARC
  5
20A
330
269
100
AcDbEntity
  8
0
100
AcDbCircle
 10
4.161143
 20
2.721693
 30
0.0
 40
0.032974
100
AcDbArc
 50
294.108538
 51
318.286292
  0
ARC
  5
20B
330
269
100
AcDbEntity
  8
0
100
AcDbCircle
 10
4.175149
 20
2.709208
 30
0.0
 40
0.014212
100
AcDbArc
 50
318.286292
 51
355.491607
  0
ARC
  5
20C
330
269
100
AcDbEntity
  8
0
100
AcDbCircle
 10
4.175149
 20
2.709208
 30
0.0
 40
0.014212
100
AcDbArc
 50
355.491607
 51
32.696923
  0
ARC
  5
20D
330
269
100
AcDbEntity
  8
0
100
AcDbCircle
 10
4.15936
 20
2.699073
 30
0.0
 40
0.032974
100
AcDbArc
 50
32.696923
 51
56.87467599999999
  0
ARC
  5
20E
330
269
100
AcDbEntity
  8
0
100
AcDbCircle
 10
4.148027
 20
2.681705
 30
0.0
 40
0.053712
100
AcDbArc
 50
56.87467599999999
 51
72.756952
  0
ARC
  5
20F
330
269
100
AcDbEntity
  8
0
100
AcDbCircle
 10
4.13924
 20
2.653395
 30
0.0
 40
0.083355
100
AcDbArc
 50
72.756952
 51
85.491607
  0
ARC
  5
210
330
269
100
AcDbEntity
  8
0
100
AcDbCircle
 10
4.13924
 20
2.653395
 30
0.0
 40
0.083355
100
AcDbArc
 50
85.491607
 51
98.22626200000001
  0
ARC
  5
211
330
269
100
AcDbEntity
  8
0
100
AcDbCircle
 10
4.134999
 20
2.682733
 30
0.0
 40
0.053712
100
AcDbArc
 50
98.22626200000001
 51
114.108538
  0
ARC
  5
212
330
269
100
AcDbEntity
  8
0
100
AcDbCircle
 10
4.126528
 20
2.701662
 30
0.0
 40
0.032974
100
AcDbArc
 50
114.108538
 51
138.286292
  0
ARC
  5
213
330
269
100
AcDbEntity
  8
0
100
AcDbCircle
 10
4.112523
 20
2.714146
 30
0.0
 40
0.014212
100
AcDbArc
 50
138.286292
 51
175.491607
  0
ARC
  5
214
330
269
100
AcDbEntity
  8
0
100
AcDbCircle
 10
4.111461
 20
2.702148
 30
0.0
 40
0.014212
100
AcDbArc
 50
175.491607
 51
212.696923
  0
ARC
  5
215
330
269
100
AcDbEntity
  8
0
100
AcDbCircle
 10
4.12725
 20
2.712284
 30
0.0
 40
0.032974
100
AcDbArc
 50
212.696923
 51
236.874676
  0
ARC
  5
216
330
269
100
AcDbEntity
  8
0
100
AcDbCircle
 10
4.138582
 20
2.729651
 30
0.0
 40
0.053712
100
AcDbArc
 50
236.874676
 51
252.756952
  0
ARC
  5
217
330
269
100
AcDbEntity
  8
0
100
AcDbCircle
 10
4.147369
 20
2.757962
 30
0.0
 40
0.083355
100
AcDbArc
 50
252.756952
 51
265.491607
  0
ARC
  5
218
330
269
100
AcDbEntity
  8
0
100
AcDbCircle
 10
4.147369
 20
2.757962
 30
0.0
 40
0.083355
100
AcDbArc
 50
265.491607
 51
278.226262
  0
ARC
  5
219
330
269
100
AcDbEntity
  8
0
100
AcDbCircle
 10
4.151611
 20
2.728624
 30
0.0
 40
0.053712
100
AcDbArc
 50
278.226262
 51
294.108538
  0
ARC
  5
21A
330
269
100
AcDbEntity
  8
0
100
AcDbCircle
 10
4.160081
 20
2.709695
 30
0.0
 40
0.032974
100
AcDbArc
 50
294.108538
 51
318.286292
  0
ARC
  5
21B
330
269
100
AcDbEntity
  8
0
100
AcDbCircle
 10
4.174087
 20
2.69721
 30
0.0
 40
0.014212
100
AcDbArc
 50
318.286292
 51
355.491607
  0
ARC
  5
21C
330
269
100
AcDbEntity
  8
0
100
AcDbCircle
 10
4.174087
 20
2.69721
 30
0.0
 40
0.014212
100
AcDbArc
 50
355.491607
 51
20.013849
  0
ARC
  5
21D
330
269
100
AcDbEntity
  8
0
100
AcDbCircle
 10
5.308372
 20
2.423913
 30
0.0
 40
0.014212
100
AcDbArc
 50
175.491607
 51
212.696923
  0
ARC
  5
21E
330
269
100
AcDbEntity
  8
0
100
AcDbCircle
 10
5.324161
 20
2.434048
 30
0.0
 40
0.032974
100
AcDbArc
 50
212.696923
 51
236.874676
  0
ARC
  5
21F
330
269
100
AcDbEntity
  8
0
100
AcDbCircle
 10
5.335494000000001
 20
2.451416
 30
0.0
 40
0.053712
100
AcDbArc
 50
236.874676
 51
252.756952
  0
ARC
  5
220
330
269
100
AcDbEntity
  8
0
100
AcDbCircle
 10
5.34428
 20
2.479726
 30
0.0
 40
0.083355
100
AcDbArc
 50
252.756952
 51
265.491607
  0
ARC
  5
221
330
269
100
AcDbEntity
  8
0
100
AcDbCircle
 10
5.34428
 20
2.479726
 30
0.0
 40
0.083355
100
AcDbArc
 50
265.491607
 51
278.226262
  0
ARC
  5
222
330
269
100
AcDbEntity
  8
0
100
AcDbCircle
 10
5.348522
 20
2.450389
 30
0.0
 40
0.053712
100
AcDbArc
 50
278.226262
 51
294.108538
  0
ARC
  5
223
330
269
100
AcDbEntity
  8
0
100
AcDbCircle
 10
5.356993
 20
2.43146
 30
0.0
 40
0.032974
100
AcDbArc
 50
294.108538
 51
318.286292
  0
ARC
  5
224
330
269
100
AcDbEntity
  8
0
100
AcDbCircle
 10
5.370998
 20
2.418975
 30
0.0
 40
0.014212
100
AcDbArc
 50
318.286292
 51
355.491607
  0
ARC
  5
225
330
269
100
AcDbEntity
  8
0
100
AcDbCircle
 10
5.370998
 20
2.418975
 30
0.0
 40
0.014212
100
AcDbArc
 50
355.491607
 51
32.696923
  0
ARC
  5
226
330
269
100
AcDbEntity
  8
0
100
AcDbCircle
 10
5.355208999999999
 20
2.40884
 30
0.0
 40
0.032974
100
AcDbArc
 50
32.696923
 51
56.87467599999999
  0
ARC
  5
227
330
269
100
AcDbEntity
  8
0
100
AcDbCircle
 10
5.343876
 20
2.391472
 30
0.0
 40
0.053712
100
AcDbArc
 50
56.87467599999999
 51
72.756952
  0
ARC
  5
228
330
269
100
AcDbEntity
  8
0
100
AcDbCircle
 10
5.335089
 20
2.363162
 30
0.0
 40
0.083355
100
AcDbArc
 50
72.756952
 51
85.491607
  0
ARC
  5
229
330
269
100
AcDbEntity
  8
0
100
AcDbCircle
 10
5.335089
 20
2.363162
 30
0.0
 40
0.083355
100
AcDbArc
 50
85.491607
 51
98.22626200000001
  0
ARC
  5
22A
330
269
100
AcDbEntity
  8
0
100
AcDbCircle
 10
5.330848000000001
 20
2.3925
 30
0.0
 40
0.053712
100
AcDbArc
 50
98.22626200000001
 51
114.108538
  0
ARC
  5
22B
330
269
100
AcDbEntity
  8
0
100
AcDbCircle
 10
5.322377
 20
2.411429
 30
0.0
 40
0.032974
100
AcDbArc
 50
114.108538
 51
138.286292
  0
ARC
  5
22C
330
269
100
AcDbEntity
  8
0
100
AcDbCircle
 10
5.308372
 20
2.423913
 30
0.0
 40
0.014212
100
AcDbArc
 50
138.286292
 51
175.491607
  0
ARC
  5
22D
330
269
100
AcDbEntity
  8
0
100
AcDbCircle
 10
5.30731
 20
2.411915
 30
0.0
 40
0.014212
100
AcDbArc
 50
175.491607
 51
212.696923
  0
ARC
  5
22E
330
269
100
AcDbEntity
  8
0
100
AcDbCircle
 10
5.323099
 20
2.42205
 30
0.0
 40
0.032974
100
AcDbArc
 50
212.696923
 51
236.874676
  0
ARC
  5
22F
330
269
100
AcDbEntity
  8
0
100
AcDbCircle
 10
5.334432
 20
2.439418
 30
0.0
 40
0.053712
100
AcDbArc
 50
236.874676
 51
252.756952
  0
ARC
  5
230
330
269
100
AcDbEntity
  8
0
100
AcDbCircle
 10
5.343218
 20
2.467729
 30
0.0
 40
0.083355
100
AcDbArc
 50
252.756952
 51
265.491607
  0
ARC
  5
231
330
269
100
AcDbEntity
  8
0
100
AcDbCircle
 10
5.343218
 20
2.467729
 30
0.0
 40
0.083355
100
AcDbArc
 50
265.491607
 51
278.226262
  0
ARC
  5
232
330
269
100
AcDbEntity
  8
0
100
AcDbCircle
 10
5.34746
 20
2.438391
 30
0.0
 40
0.053712
100
AcDbArc
 50
278.226262
 51
294.108538
  0
ARC
  5
233
330
269
100
AcDbEntity
  8
0
100
AcDbCircle
 10
5.35593
 20
2.419462
 30
0.0
 40
0.032974
100
AcDbArc
 50
294.108538
 51
318.286292
  0
ARC
  5
234
330
269
100
AcDbEntity
  8
0
100
AcDbCircle
 10
5.369936
 20
2.406977
 30
0.0
 40
0.014212
100
AcDbArc
 50
318.286292
 51
355.491607
  0
ARC
  5
235
330
269
100
AcDbEntity
  8
0
100
AcDbCircle
 10
5.369936
 20
2.406977
 30
0.0
 40
0.014212
100
AcDbArc
 50
355.491607
 51
20.013849
  0
ARC
  5
236
330
269
100
AcDbEntity
  8
0
100
AcDbCircle
 10
6.418836
 20
2.258155
 30
0.0
 40
0.014212
100
AcDbArc
 50
149.869377
 51
175.491607
  0
ARC
  5
237
330
269
100
AcDbEntity
  8
0
100
AcDbCircle
 10
6.418836
 20
2.258155
 30
0.0
 40
0.014212
100
AcDbArc
 50
175.491607
 51
212.696923
  0
ARC
  5
238
330
269
100
AcDbEntity
  8
0
100
AcDbCircle
 10
6.434625
 20
2.26829
 30
0.0
 40
0.032974
100
AcDbArc
 50
212.696923
 51
236.874676
  0
ARC
  5
239
330
269
100
AcDbEntity
  8
0
100
AcDbCircle
 10
6.445958
 20
2.285658
 30
0.0
 40
0.053712
100
AcDbArc
 50
236.874676
 51
252.756952
  0
ARC
  5
23A
330
269
100
AcDbEntity
  8
0
100
AcDbCircle
 10
6.454745
 20
2.313968
 30
0.0
 40
0.083355
100
AcDbArc
 50
252.756952
 51
265.491607
  0
ARC
  5
23B
330
269
100
AcDbEntity
  8
0
100
AcDbCircle
 10
6.454745
 20
2.313968
 30
0.0
 40
0.083355
100
AcDbArc
 50
265.491607
 51
278.226262
  0
ARC
  5
23C
330
269
100
AcDbEntity
  8
0
100
AcDbCircle
 10
6.458986
 20
2.284631
 30
0.0
 40
0.053712
100
AcDbArc
 50
278.226262
 51
294.108538
  0
ARC
  5
23D
330
269
100
AcDbEntity
  8
0
100
AcDbCircle
 10
6.467457
 20
2.265701
 30
0.0
 40
0.032974
100
AcDbArc
 50
294.108538
 51
318.286292
  0
ARC
  5
23E
330
269
100
AcDbEntity
  8
0
100
AcDbCircle
 10
6.481463
 20
2.253217
 30
0.0
 40
0.014212
100
AcDbArc
 50
318.286292
 51
355.491607
  0
ARC
  5
23F
330
269
100
AcDbEntity
  8
0
100
AcDbCircle
 10
6.481463
 20
2.253217
 30
0.0
 40
0.014212
100
AcDbArc
 50
355.491607
 51
20.013849
  0
ARC
  5
240
330
269
100
AcDbEntity
  8
0
100
AcDbCircle
 10
6.419898
 20
2.270153
 30
0.0
 40
0.014212
100
AcDbArc
 50
175.491607
 51
212.696923
  0
ARC
  5
241
330
269
100
AcDbEntity
  8
0
100
AcDbCircle
 10
6.435687000000001
 20
2.280288
 30
0.0
 40
0.032974
100
AcDbArc
 50
212.696923
 51
236.874676
  0
ARC
  5
242
330
269
100
AcDbEntity
  8
0
100
AcDbCircle
 10
6.447019999999999
 20
2.297656
 30
0.0
 40
0.053712
100
AcDbArc
 50
236.874676
 51
252.756952
  0
ARC
  5
243
330
269
100
AcDbEntity
  8
0
100
AcDbCircle
 10
6.455807
 20
2.325966
 30
0.0
 40
0.083355
100
AcDbArc
 50
252.756952
 51
265.491607
  0
ARC
  5
244
330
269
100
AcDbEntity
  8
0
100
AcDbCircle
 10
6.455807
 20
2.325966
 30
0.0
 40
0.083355
100
AcDbArc
 50
265.491607
 51
278.226262
  0
ARC
  5
245
330
269
100
AcDbEntity
  8
0
100
AcDbCircle
 10
6.460048000000001
 20
2.296629
 30
0.0
 40
0.053712
100
AcDbArc
 50
278.226262
 51
294.108538
  0
ARC
  5
246
330
269
100
AcDbEntity
  8
0
100
AcDbCircle
 10
6.468519000000001
 20
2.277699
 30
0.0
 40
0.032974
100
AcDbArc
 50
294.108538
 51
318.286292
  0
ARC
  5
247
330
269
100
AcDbEntity
  8
0
100
AcDbCircle
 10
6.482525
 20
2.265215
 30
0.0
 40
0.014212
100
AcDbArc
 50
318.286292
 51
355.491607
  0
ARC
  5
248
330
269
100
AcDbEntity
  8
0
100
AcDbCircle
 10
6.482525
 20
2.265215
 30
0.0
 40
0.014212
100
AcDbArc
 50
355.491607
 51
32.696923
  0
ARC
  5
249
330
269
100
AcDbEntity
  8
0
100
AcDbCircle
 10
6.466736
 20
2.25508
 30
0.0
 40
0.032974
100
AcDbArc
 50
32.696923
 51
56.87467599999999
  0
ARC
  5
24A
330
269
100
AcDbEntity
  8
0
100
AcDbCircle
 10
6.455403
 20
2.237712
 30
0.0
 40
0.053712
100
AcDbArc
 50
56.87467599999999
 51
72.756952
  0
ARC
  5
24B
330
269
100
AcDbEntity
  8
0
100
AcDbCircle
 10
6.446616000000001
 20
2.209402
 30
0.0
 40
0.083355
100
AcDbArc
 50
72.756952
 51
85.491607
  0
ARC
  5
24C
330
269
100
AcDbEntity
  8
0
100
AcDbCircle
 10
6.446616000000001
 20
2.209402
 30
0.0
 40
0.083355
100
AcDbArc
 50
85.491607
 51
98.22626200000001
  0
ARC
  5
24D
330
269
100
AcDbEntity
  8
0
100
AcDbCircle
 10
6.442375
 20
2.238739
 30
0.0
 40
0.053712
100
AcDbArc
 50
98.22626200000001
 51
114.108538
  0
ARC
  5
24E
330
269
100
AcDbEntity
  8
0
100
AcDbCircle
 10
6.433904
 20
2.257669
 30
0.0
 40
0.032974
100
AcDbArc
 50
114.108538
 51
138.286292
  0
ARC
  5
24F
330
269
100
AcDbEntity
  8
0
100
AcDbCircle
 10
6.419898
 20
2.270153
 30
0.0
 40
0.014212
100
AcDbArc
 50
138.286292
 51
175.491607
  0
TEXT
  5
250
330
269
100
AcDbEntity
  8
0
100
AcDbText
 10
4.760656
 20
-4.491072
 30
0.0
 40
0.25
  1
Simpson Strong-Tie
100
AcDbText
  0
TEXT
  5
251
330
269
100
AcDbEntity
  8
0
100
AcDbText
 10
4.760656
 20
-4.895834
 30
0.0
 40
0.25
  1
W with Offset Top Flange
100
AcDbText
  0
ENDSEC
  0
SECTION
  2
OBJECTS
  0
DICTIONARY
  5
25D
330
0
100
AcDbDictionary
281
     1
  3
ACAD_COLOR
350
279
  3
ACAD_GROUP
350
25E
  3
ACAD_LAYOUT
350
266
  3
ACAD_MATERIAL
350
27B
  3
ACAD_MLINESTYLE
350
263
  3
ACAD_PLOTSETTINGS
350
265
  3
ACAD_PLOTSTYLENAME
350
25F
  3
ACDBHEADERROUNDTRIPXREC
350
278
  0
DICTIONARY
  5
279
102
{ACAD_REACTORS
330
25D
102
}
330
25D
100
AcDbDictionary
281
     1
  0
DICTIONARY
  5
25E
102
{ACAD_REACTORS
330
25D
102
}
330
25D
100
AcDbDictionary
281
     1
  0
DICTIONARY
  5
266
102
{ACAD_REACTORS
330
25D
102
}
330
25D
100
AcDbDictionary
281
     1
  3
Layout1
350
268
  3
Model
350
26A
  0
DICTIONARY
  5
27B
102
{ACAD_REACTORS
330
25D
102
}
330
25D
100
AcDbDictionary
281
     1
  0
DICTIONARY
  5
263
102
{ACAD_REACTORS
330
25D
102
}
330
25D
100
AcDbDictionary
281
     1
  3
Standard
350
264
  0
DICTIONARY
  5
265
102
{ACAD_REACTORS
330
25D
102
}
330
25D
100
AcDbDictionary
281
     1
  0
ACDBDICTIONARYWDFLT
  5
25F
102
{ACAD_REACTORS
330
25D
102
}
330
25D
100
AcDbDictionary
281
     1
  3
Normal
350
260
100
AcDbDictionaryWithDefault
340
260
  0
DICTIONARY
  5
278
102
{ACAD_REACTORS
330
25D
102
}
330
25D
100
AcDbDictionary
281
     1
  3
COLORDICT
350
27A
  3
MATERIALDICT
350
27C
  0
LAYOUT
  5
268
102
{ACAD_REACTORS
330
266
102
}
102
{ACAD_XDICTIONARY
360
27D
102
}
330
266
100
AcDbPlotSettings
  1

  2

  4

  6

 40
0.0
 41
0.0
 42
0.0
 43
0.0
 44
0.0
 45
0.0
 46
0.0
 47
0.0
 48
0.0
 49
0.0
140
0.0
141
0.0
142
1.0
143
1.0
 70
   688
 72
     0
 73
     0
 74
     5
  7

 75
    16
147
1.0
148
0.0
149
0.0
100
AcDbLayout
  1
Layout1
 70
     1
 71
     1
 10
0.0
 20
0.0
 11
12.0
 21
9.0
 12
0.0
 22
0.0
 32
0.0
 14
1.000000000000000E+20
 24
1.000000000000000E+20
 34
1.000000000000000E+20
 15
-1.000000000000000E+20
 25
-1.000000000000000E+20
 35
-1.000000000000000E+20
146
0.0
 13
0.0
 23
0.0
 33
0.0
 16
1.0
 26
0.0
 36
0.0
 17
0.0
 27
1.0
 37
0.0
 76
     0
330
267
  0
LAYOUT
  5
26A
102
{ACAD_REACTORS
330
266
102
}
102
{ACAD_XDICTIONARY
360
27F
102
}
330
266
100
AcDbPlotSettings
  1

  2

  4

  6

 40
0.0
 41
0.0
 42
0.0
 43
0.0
 44
0.0
 45
0.0
 46
0.0
 47
0.0
 48
0.0
 49
0.0
140
0.0
141
0.0
142
1.0
143
1.0
 70
  1712
 72
     0
 73
     0
 74
     0
  7

 75
     0
147
1.0
148
0.0
149
0.0
100
AcDbLayout
  1
Model
 70
     1
 71
     0
 10
0.0
 20
0.0
 11
0.0
 21
0.0
 12
0.0
 22
0.0
 32
0.0
 14
0.0
 24
0.0
 34
0.0
 15
0.0
 25
0.0
 35
0.0
146
0.0
 13
0.0
 23
0.0
 33
0.0
 16
1.0
 26
0.0
 36
0.0
 17
0.0
 27
1.0
 37
0.0
 76
     0
330
269
  0
MLINESTYLE
  5
264
102
{ACAD_REACTORS
330
263
102
}
330
263
100
AcDbMlineStyle
  2
Standard
 70
     0
  3

 62
   256
 51
90.0
 52
90.0
 71
     2
 49
0.5
 62
   256
  6
BYLAYER
 49
-0.5
 62
   256
  6
BYLAYER
  0
ACDBPLACEHOLDER
  5
260
102
{ACAD_REACTORS
330
25F
102
}
330
25F
  0
XRECORD
  5
27A
102
{ACAD_REACTORS
330
278
102
}
330
278
100
AcDbXrecord
340
279
  0
XRECORD
  5
27C
102
{ACAD_REACTORS
330
278
102
}
330
278
100
AcDbXrecord
340
27B
  0
DICTIONARY
  5
27D
330
268
100
AcDbDictionary
280
     1
281
     1
  3
ACAD_XREC_ROUNDTRIP
360
27E
  0
DICTIONARY
  5
27F
330
26A
100
AcDbDictionary
280
     1
281
     1
  3
ACAD_XREC_ROUNDTRIP
360
280
  0
XRECORD
  5
27E
102
{ACAD_REACTORS
330
27D
102
}
330
27D
100
AcDbXrecord
102
SHADEPLOT
 70
     0
102
SHADEPLOTRESLEVEL
 70
     0
102
SHADEPLOTCUSTOMDPI
 70
     0
  0
XRECORD
  5
280
102
{ACAD_REACTORS
330
27F
102
}
330
27F
100
AcDbXrecord
102
SHADEPLOT
 70
     0
102
SHADEPLOTRESLEVEL
 70
     0
102
SHADEPLOTCUSTOMDPI
 70
     0
  0
ENDSEC
  0
EOF
