  0
SECTION
  2
HEADER
  9
$ACADVER
  1
AC1015
  9
$ACADMAINTVER
 70
     6
  9
$DWGCODEPAGE
  3
ANSI_1252
  9
$INSBASE
 10
0.0
 20
0.0
 30
0.0
  9
$EXTMIN
 10
0.254
 20
0.384637
 30
0.0
  9
$EXTMAX
 10
5.536000000000001
 20
5.377000000000001
 30
0.0
  9
$LIMMIN
 10
0.0
 20
0.0
  9
$LIMMAX
 10
9.0
 20
12.0
  9
$ORTHOMODE
 70
     0
  9
$REGENMODE
 70
     0
  9
$FILLMODE
 70
     1
  9
$QTEXTMODE
 70
     0
  9
$MIRRTEXT
 70
     1
  9
$LTSCALE
 40
0.25
  9
$ATTMODE
 70
     1
  9
$TEXTSIZE
 40
0.15
  9
$TRACEWID
 40
0.05
  9
$TEXTSTYLE
  7
STANDARD
  9
$CLAYER
  8
0
  9
$CELTYPE
  6
ByLayer
  9
$CECOLOR
 62
   256
  9
$CELTSCALE
 40
1.0
  9
$DISPSILH
 70
     0
  9
$DIMSCALE
 40
1.0
  9
$DIMASZ
 40
0.125
  9
$DIMEXO
 40
0.063
  9
$DIMDLI
 40
0.38
  9
$DIMRND
 40
0.0
  9
$DIMDLE
 40
0.0
  9
$DIMEXE
 40
0.18
  9
$DIMTP
 40
0.0
  9
$DIMTM
 40
0.0
  9
$DIMTXT
 40
0.1
  9
$DIMCEN
 40
0.09
  9
$DIMTSZ
 40
0.0
  9
$DIMTOL
 70
     0
  9
$DIMLIM
 70
     0
  9
$DIMTIH
 70
     1
  9
$DIMTOH
 70
     1
  9
$DIMSE1
 70
     0
  9
$DIMSE2
 70
     0
  9
$DIMTAD
 70
     0
  9
$DIMZIN
 70
     0
  9
$DIMBLK
  1

  9
$DIMASO
 70
     0
  9
$DIMSHO
 70
     0
  9
$DIMPOST
  1

  9
$DIMAPOST
  1

  9
$DIMALT
 70
     0
  9
$DIMALTD
 70
     2
  9
$DIMALTF
 40
25.4
  9
$DIMLFAC
 40
1.0
  9
$DIMTOFL
 70
     0
  9
$DIMTVP
 40
0.0
  9
$DIMTIX
 70
     0
  9
$DIMSOXD
 70
     0
  9
$DIMSAH
 70
     0
  9
$DIMBLK1
  1

  9
$DIMBLK2
  1

  9
$DIMSTYLE
  2
Standard
  9
$DIMCLRD
 70
     0
  9
$DIMCLRE
 70
     0
  9
$DIMCLRT
 70
     0
  9
$DIMTFAC
 40
1.0
  9
$DIMGAP
 40
0.09
  9
$DIMJUST
 70
     0
  9
$DIMSD1
 70
     0
  9
$DIMSD2
 70
     0
  9
$DIMTOLJ
 70
     1
  9
$DIMTZIN
 70
     0
  9
$DIMALTZ
 70
     0
  9
$DIMALTTZ
 70
     0
  9
$DIMUPT
 70
     0
  9
$DIMDEC
 70
     4
  9
$DIMTDEC
 70
     4
  9
$DIMALTU
 70
     2
  9
$DIMALTTD
 70
     2
  9
$DIMTXSTY
  7
STANDARD
  9
$DIMAUNIT
 70
     0
  9
$DIMADEC
 70
     0
  9
$DIMALTRND
 40
0.0
  9
$DIMAZIN
 70
     0
  9
$DIMDSEP
 70
    46
  9
$DIMATFIT
 70
     3
  9
$DIMFRAC
 70
     0
  9
$DIMLDRBLK
  1

  9
$DIMLUNIT
 70
     2
  9
$DIMLWD
 70
    -2
  9
$DIMLWE
 70
    -2
  9
$DIMTMOVE
 70
     0
  9
$LUNITS
 70
     2
  9
$LUPREC
 70
     4
  9
$SKETCHINC
 40
0.1
  9
$FILLETRAD
 40
0.0
  9
$AUNITS
 70
     0
  9
$AUPREC
 70
     0
  9
$MENU
  1
acad
  9
$ELEVATION
 40
0.0
  9
$PELEVATION
 40
0.0
  9
$THICKNESS
 40
0.0
  9
$LIMCHECK
 70
     0
  9
$CHAMFERA
 40
0.0
  9
$CHAMFERB
 40
0.0
  9
$CHAMFERC
 40
1.0
  9
$CHAMFERD
 40
0.0
  9
$SKPOLY
 70
     0
  9
$TDCREATE
 40
2453955.560288044
  9
$TDUCREATE
 40
2453955.893621377
  9
$TDUPDATE
 40
2453955.601954722
  9
$TDUUPDATE
 40
2453955.893621389
  9
$TDINDWG
 40
0.0000000116
  9
$TDUSRTIMER
 40
0.0000000116
  9
$USRTIMER
 70
     1
  9
$ANGBASE
 50
0.0
  9
$ANGDIR
 70
     0
  9
$PDMODE
 70
     0
  9
$PDSIZE
 40
0.0
  9
$PLINEWID
 40
0.0
  9
$SPLFRAME
 70
     0
  9
$SPLINETYPE
 70
     6
  9
$SPLINESEGS
 70
     8
  9
$HANDSEED
  5
95
  9
$SURFTAB1
 70
     6
  9
$SURFTAB2
 70
     6
  9
$SURFTYPE
 70
     6
  9
$SURFU
 70
     6
  9
$SURFV
 70
     6
  9
$UCSBASE
  2

  9
$UCSNAME
  2

  9
$UCSORG
 10
0.0
 20
0.0
 30
0.0
  9
$UCSXDIR
 10
1.0
 20
0.0
 30
0.0
  9
$UCSYDIR
 10
0.0
 20
1.0
 30
0.0
  9
$UCSORTHOREF
  2

  9
$UCSORTHOVIEW
 70
     0
  9
$UCSORGTOP
 10
0.0
 20
0.0
 30
0.0
  9
$UCSORGBOTTOM
 10
0.0
 20
0.0
 30
0.0
  9
$UCSORGLEFT
 10
0.0
 20
0.0
 30
0.0
  9
$UCSORGRIGHT
 10
0.0
 20
0.0
 30
0.0
  9
$UCSORGFRONT
 10
0.0
 20
0.0
 30
0.0
  9
$UCSORGBACK
 10
0.0
 20
0.0
 30
0.0
  9
$PUCSBASE
  2

  9
$PUCSNAME
  2

  9
$PUCSORG
 10
0.0
 20
0.0
 30
0.0
  9
$PUCSXDIR
 10
1.0
 20
0.0
 30
0.0
  9
$PUCSYDIR
 10
0.0
 20
1.0
 30
0.0
  9
$PUCSORTHOREF
  2

  9
$PUCSORTHOVIEW
 70
     0
  9
$PUCSORGTOP
 10
0.0
 20
0.0
 30
0.0
  9
$PUCSORGBOTTOM
 10
0.0
 20
0.0
 30
0.0
  9
$PUCSORGLEFT
 10
0.0
 20
0.0
 30
0.0
  9
$PUCSORGRIGHT
 10
0.0
 20
0.0
 30
0.0
  9
$PUCSORGFRONT
 10
0.0
 20
0.0
 30
0.0
  9
$PUCSORGBACK
 10
0.0
 20
0.0
 30
0.0
  9
$USERI1
 70
     0
  9
$USERI2
 70
     0
  9
$USERI3
 70
     0
  9
$USERI4
 70
     0
  9
$USERI5
 70
     0
  9
$USERR1
 40
0.0
  9
$USERR2
 40
0.0
  9
$USERR3
 40
0.0
  9
$USERR4
 40
0.0
  9
$USERR5
 40
0.0
  9
$WORLDVIEW
 70
     1
  9
$SHADEDGE
 70
     3
  9
$SHADEDIF
 70
    70
  9
$TILEMODE
 70
     1
  9
$MAXACTVP
 70
    16
  9
$PINSBASE
 10
0.0
 20
0.0
 30
0.0
  9
$PLIMCHECK
 70
     0
  9
$PEXTMIN
 10
1.000000000000000E+20
 20
1.000000000000000E+20
 30
1.000000000000000E+20
  9
$PEXTMAX
 10
-1.000000000000000E+20
 20
-1.000000000000000E+20
 30
-1.000000000000000E+20
  9
$PLIMMIN
 10
0.0
 20
0.0
  9
$PLIMMAX
 10
12.0
 20
9.0
  9
$UNITMODE
 70
     0
  9
$VISRETAIN
 70
     0
  9
$PLINEGEN
 70
     0
  9
$PSLTSCALE
 70
     0
  9
$TREEDEPTH
 70
  3020
  9
$CMLSTYLE
  2
Standard
  9
$CMLJUST
 70
     0
  9
$CMLSCALE
 40
1.0
  9
$PROXYGRAPHICS
 70
     1
  9
$MEASUREMENT
 70
     0
  9
$CELWEIGHT
370
    -1
  9
$ENDCAPS
280
     0
  9
$JOINSTYLE
280
     0
  9
$LWDISPLAY
290
     0
  9
$INSUNITS
 70
     1
  9
$HYPERLINKBASE
  1

  9
$STYLESHEET
  1

  9
$XEDIT
290
     1
  9
$CEPSNTYPE
380
     0
  9
$PSTYLEMODE
290
     0
  9
$FINGERPRINTGUID
  2
{FAEB1C30-E019-11D5-929B-00C0DF256EC4}
  9
$VERSIONGUID
  2
{FAEB1C32-E019-11D5-929B-00C0DF256EC4}
  9
$EXTNAMES
290
     1
  9
$PSVPSCALE
 40
0.0
  9
$OLESTARTUP
290
     0
  0
ENDSEC
  0
SECTION
  2
CLASSES
  0
CLASS
  1
ACDBDICTIONARYWDFLT
  2
AcDbDictionaryWithDefault
  3
AutoCAD 2000
 90
        0
280
     0
281
     0
  0
CLASS
  1
ACDBPLACEHOLDER
  2
AcDbPlaceHolder
  3
ObjectDBX Classes
 90
        0
280
     0
281
     0
  0
CLASS
  1
LAYOUT
  2
AcDbLayout
  3
ObjectDBX Classes
 90
        0
280
     0
281
     0
  0
ENDSEC
  0
SECTION
  2
TABLES
  0
TABLE
  2
VPORT
  5
8
330
0
100
AcDbSymbolTable
 70
     2
  0
VPORT
  5
1E
330
8
100
AcDbSymbolTableRecord
100
AcDbViewportTableRecord
  2
*ACTIVE
 70
     0
 10
0.0
 20
0.0
 11
1.0
 21
1.0
 12
8.324455205811137
 22
6.0
 13
12.893767
 23
5.037274
 14
0.025
 24
0.025
 15
0.0
 25
0.0
 16
0.0
 26
0.0
 36
1.0
 17
0.0
 27
0.0
 37
0.0
 40
12.0
 41
0.7207678883071553
 42
50.0
 43
0.0
 44
0.0
 50
90.0
 51
0.0
 71
     0
 72
  2000
 73
     1
 74
     0
 75
     0
 76
     0
 77
     0
 78
     0
281
     0
 65
     1
110
0.0
120
0.0
130
0.0
111
1.0
121
0.0
131
0.0
112
0.0
122
1.0
132
0.0
 79
     0
146
0.0
  0
ENDTAB
  0
TABLE
  2
LTYPE
  5
5
330
0
100
AcDbSymbolTable
 70
     1
  0
LTYPE
  5
10
330
5
100
AcDbSymbolTableRecord
100
AcDbLinetypeTableRecord
  2
ByBlock
 70
     0
  3

 72
    65
 73
     0
 40
0.0
  0
LTYPE
  5
11
330
5
100
AcDbSymbolTableRecord
100
AcDbLinetypeTableRecord
  2
ByLayer
 70
     0
  3

 72
    65
 73
     0
 40
0.0
  0
LTYPE
  5
1B
330
5
100
AcDbSymbolTableRecord
100
AcDbLinetypeTableRecord
  2
CONTINUOUS
 70
     0
  3
Solid line
 72
    65
 73
     0
 40
0.0
  0
ENDTAB
  0
TABLE
  2
LAYER
  5
2
330
0
100
AcDbSymbolTable
 70
     1
  0
LAYER
  5
1C
330
2
100
AcDbSymbolTableRecord
100
AcDbLayerTableRecord
  2
0
 70
     0
 62
     7
  6
CONTINUOUS
370
    -3
390
F
  0
ENDTAB
  0
TABLE
  2
STYLE
  5
3
330
0
100
AcDbSymbolTable
 70
     1
  0
STYLE
  5
20
330
3
100
AcDbSymbolTableRecord
100
AcDbTextStyleTableRecord
  2
STANDARD
 70
     0
 40
0.0
 41
1.0
 50
0.0
 71
     0
 42
0.15
  3
romans
  4

  0
ENDTAB
  0
TABLE
  2
VIEW
  5
6
330
0
100
AcDbSymbolTable
 70
     0
  0
ENDTAB
  0
TABLE
  2
UCS
  5
7
330
0
100
AcDbSymbolTable
 70
     0
  0
ENDTAB
  0
TABLE
  2
APPID
  5
9
330
0
100
AcDbSymbolTable
 70
     1
  0
APPID
  5
1F
330
9
100
AcDbSymbolTableRecord
100
AcDbRegAppTableRecord
  2
ACAD
 70
     0
  0
ENDTAB
  0
TABLE
  2
DIMSTYLE
  5
A
330
0
100
AcDbSymbolTable
 70
     1
100
AcDbDimStyleTable
  0
DIMSTYLE
105
21
330
A
100
AcDbSymbolTableRecord
100
AcDbDimStyleTableRecord
  2
Standard
 70
     0
  3

  4

340
20
  0
ENDTAB
  0
TABLE
  2
BLOCK_RECORD
  5
1
330
0
100
AcDbSymbolTable
 70
     0
  0
BLOCK_RECORD
  5
18
330
1
100
AcDbSymbolTableRecord
100
AcDbBlockTableRecord
  2
*Model_Space
340
19
  0
BLOCK_RECORD
  5
16
330
1
100
AcDbSymbolTableRecord
100
AcDbBlockTableRecord
  2
*Paper_Space
340
17
  0
ENDTAB
  0
ENDSEC
  0
SECTION
  2
BLOCKS
  0
BLOCK
  5
8A
330
18
100
AcDbEntity
  8
0
100
AcDbBlockBegin
  2
*Model_Space
 70
     0
 10
0.0
 20
0.0
 30
0.0
  3
*Model_Space
  1

  4

  0
ENDBLK
  5
8B
330
18
100
AcDbEntity
  8
0
100
AcDbBlockEnd
  0
BLOCK
  5
88
330
16
100
AcDbEntity
 67
     1
  8
0
100
AcDbBlockBegin
  2
*Paper_Space
 70
     0
 10
0.0
 20
0.0
 30
0.0
  3
*Paper_Space
  1

  4

  0
ENDBLK
  5
89
330
16
100
AcDbEntity
 67
     1
  8
0
100
AcDbBlockEnd
  0
ENDSEC
  0
SECTION
  2
ENTITIES
  0
SOLID
  5
22
330
18
100
AcDbEntity
  8
0
100
AcDbTrace
 10
2.013
 20
4.815
 30
0.0
 11
2.024
 21
4.775
 31
0.0
 12
2.139
 22
4.829
 32
0.0
 13
2.139
 23
4.829
 33
0.0
  0
ARC
  5
23
330
18
100
AcDbEntity
  8
0
100
AcDbCircle
 10
2.371
 20
3.693
 30
0.0
 40
1.159
100
AcDbArc
 50
101.568
 51
179.001
  0
ARC
  5
24
330
18
100
AcDbEntity
  8
0
100
AcDbCircle
 10
3.941
 20
4.296
 30
0.0
 40
1.004
100
AcDbArc
 50
345.733
 51
68.53699999999999
  0
TEXT
  5
25
330
18
100
AcDbEntity
  8
0
100
AcDbText
 10
0.6890000000000001
 20
1.537
 30
0.0
 40
0.15
  1
SIDE
 41
0.8
100
AcDbText
  0
TEXT
  5
26
330
18
100
AcDbEntity
  8
0
100
AcDbText
 10
0.6890000000000001
 20
1.78
 30
0.0
 40
0.15
  1
LEFT
 41
0.8
100
AcDbText
  0
TEXT
  5
27
330
18
100
AcDbEntity
  8
0
100
AcDbText
 10
0.6890000000000001
 20
2.022
 30
0.0
 40
0.15
  1
SIDE, OR
 41
0.8
100
AcDbText
  0
TEXT
  5
28
330
18
100
AcDbEntity
  8
0
100
AcDbText
 10
0.6890000000000001
 20
2.265
 30
0.0
 40
0.15
  1
RIGHT
 41
0.8
100
AcDbText
  0
TEXT
  5
29
330
18
100
AcDbEntity
  8
0
100
AcDbText
 10
0.6890000000000001
 20
2.508
 30
0.0
 40
0.15
  1
CENTER,
 41
0.8
100
AcDbText
  0
TEXT
  5
2A
330
18
100
AcDbEntity
  8
0
100
AcDbText
 10
0.6890000000000001
 20
2.751
 30
0.0
 40
0.15
  1
AT
100
AcDbText
  0
TEXT
  5
2B
330
18
100
AcDbEntity
  8
0
100
AcDbText
 10
0.6890000000000001
 20
2.994
 30
0.0
 40
0.15
  1
OF BEAM
 41
0.8
100
AcDbText
  0
TEXT
  5
2C
330
18
100
AcDbEntity
  8
0
100
AcDbText
 10
0.6890000000000001
 20
3.237
 30
0.0
 40
0.15
  1
FLUSH TOP
 41
0.8
100
AcDbText
  0
LINE
  5
2D
330
18
100
AcDbEntity
  8
0
100
AcDbLine
 10
2.285
 20
4.201000000000001
 30
0.0
 11
2.895
 21
4.328
 31
0.0
  0
LINE
  5
2E
330
18
100
AcDbEntity
  8
0
100
AcDbLine
 10
3.505
 20
4.201000000000001
 30
0.0
 11
2.895
 21
4.328
 31
0.0
  0
LINE
  5
2F
330
18
100
AcDbEntity
  8
0
100
AcDbLine
 10
2.895
 20
1.435
 30
0.0
 11
2.895
 21
4.328
 31
0.0
  0
ARC
  5
30
330
18
100
AcDbEntity
  8
0
100
AcDbCircle
 10
3.597
 20
4.238
 30
0.0
 40
0.041
100
AcDbArc
 50
224.023
 51
315.977
  0
ARC
  5
31
330
18
100
AcDbEntity
  8
0
100
AcDbCircle
 10
3.597
 20
4.278000000000001
 30
0.0
 40
0.041
100
AcDbArc
 50
224.023
 51
315.977
  0
ARC
  5
32
330
18
100
AcDbEntity
  8
0
100
AcDbCircle
 10
3.597
 20
4.319
 30
0.0
 40
0.041
100
AcDbArc
 50
224.023
 51
315.977
  0
ARC
  5
33
330
18
100
AcDbEntity
  8
0
100
AcDbCircle
 10
3.597
 20
4.359
 30
0.0
 40
0.041
100
AcDbArc
 50
224.023
 51
315.977
  0
ARC
  5
34
330
18
100
AcDbEntity
  8
0
100
AcDbCircle
 10
3.597
 20
4.4
 30
0.0
 40
0.041
100
AcDbArc
 50
224.023
 51
315.977
  0
ARC
  5
35
330
18
100
AcDbEntity
  8
0
100
AcDbCircle
 10
3.597
 20
4.44
 30
0.0
 40
0.041
100
AcDbArc
 50
224.023
 51
315.977
  0
ARC
  5
36
330
18
100
AcDbEntity
  8
0
100
AcDbCircle
 10
3.597
 20
4.481
 30
0.0
 40
0.041
100
AcDbArc
 50
224.023
 51
315.977
  0
ARC
  5
37
330
18
100
AcDbEntity
  8
0
100
AcDbCircle
 10
3.597
 20
4.521
 30
0.0
 40
0.041
100
AcDbArc
 50
224.023
 51
315.977
  0
ARC
  5
38
330
18
100
AcDbEntity
  8
0
100
AcDbCircle
 10
3.597
 20
4.562
 30
0.0
 40
0.041
100
AcDbArc
 50
224.023
 51
315.977
  0
ARC
  5
39
330
18
100
AcDbEntity
  8
0
100
AcDbCircle
 10
3.597
 20
4.602
 30
0.0
 40
0.041
100
AcDbArc
 50
224.023
 51
315.977
  0
ARC
  5
3A
330
18
100
AcDbEntity
  8
0
100
AcDbCircle
 10
3.597
 20
4.642
 30
0.0
 40
0.041
100
AcDbArc
 50
224.023
 51
315.977
  0
ARC
  5
3B
330
18
100
AcDbEntity
  8
0
100
AcDbCircle
 10
3.597
 20
4.683
 30
0.0
 40
0.041
100
AcDbArc
 50
224.023
 51
315.977
  0
ARC
  5
3C
330
18
100
AcDbEntity
  8
0
100
AcDbCircle
 10
3.597
 20
4.723
 30
0.0
 40
0.041
100
AcDbArc
 50
224.023
 51
315.977
  0
ARC
  5
3D
330
18
100
AcDbEntity
  8
0
100
AcDbCircle
 10
3.597
 20
4.763999999999999
 30
0.0
 40
0.041
100
AcDbArc
 50
224.023
 51
315.977
  0
ARC
  5
3E
330
18
100
AcDbEntity
  8
0
100
AcDbCircle
 10
3.597
 20
4.803999999999999
 30
0.0
 40
0.041
100
AcDbArc
 50
224.023
 51
315.977
  0
ARC
  5
3F
330
18
100
AcDbEntity
  8
0
100
AcDbCircle
 10
3.597
 20
4.845
 30
0.0
 40
0.041
100
AcDbArc
 50
224.023
 51
315.977
  0
ARC
  5
40
330
18
100
AcDbEntity
  8
0
100
AcDbCircle
 10
3.597
 20
4.885
 30
0.0
 40
0.041
100
AcDbArc
 50
224.023
 51
315.977
  0
ARC
  5
41
330
18
100
AcDbEntity
  8
0
100
AcDbCircle
 10
3.597
 20
4.926
 30
0.0
 40
0.041
100
AcDbArc
 50
224.023
 51
315.977
  0
LINE
  5
42
330
18
100
AcDbEntity
  8
0
100
AcDbLine
 10
5.447
 20
0.7040000000000001
 30
0.0
 11
2.895
 21
1.183
 31
0.0
  0
LINE
  5
43
330
18
100
AcDbEntity
  8
0
100
AcDbLine
 10
5.447
 20
4.825
 30
0.0
 11
5.447
 21
2.883
 31
0.0
  0
LINE
  5
44
330
18
100
AcDbEntity
  8
0
100
AcDbLine
 10
5.447
 20
2.604
 30
0.0
 11
5.359
 21
2.679
 31
0.0
  0
LINE
  5
45
330
18
100
AcDbEntity
  8
0
100
AcDbLine
 10
5.359
 20
2.679
 30
0.0
 11
5.536000000000001
 21
2.808
 31
0.0
  0
LINE
  5
46
330
18
100
AcDbEntity
  8
0
100
AcDbLine
 10
5.536000000000001
 20
2.808
 30
0.0
 11
5.447
 21
2.883
 31
0.0
  0
LINE
  5
47
330
18
100
AcDbEntity
  8
0
100
AcDbLine
 10
5.447
 20
2.604
 30
0.0
 11
5.447
 21
0.593
 31
0.0
  0
LINE
  5
48
330
18
100
AcDbEntity
  8
0
100
AcDbLine
 10
4.434
 20
4.904
 30
0.0
 11
4.261
 21
4.044
 31
0.0
  0
LINE
  5
49
330
18
100
AcDbEntity
  8
0
100
AcDbLine
 10
4.261
 20
4.044
 30
0.0
 11
3.568
 21
4.188
 31
0.0
  0
LINE
  5
4A
330
18
100
AcDbEntity
  8
0
100
AcDbLine
 10
4.434
 20
4.904
 30
0.0
 11
2.895
 21
5.224
 31
0.0
  0
LINE
  5
4B
330
18
100
AcDbEntity
  8
0
100
AcDbLine
 10
5.447
 20
4.617
 30
0.0
 11
4.908
 21
4.718
 31
0.0
  0
LINE
  5
4C
330
18
100
AcDbEntity
  8
0
100
AcDbLine
 10
4.387
 20
5.067
 30
0.0
 11
2.895
 21
5.377000000000001
 31
0.0
  0
LINE
  5
4D
330
18
100
AcDbEntity
  8
0
100
AcDbLine
 10
2.895
 20
5.377000000000001
 30
0.0
 11
4.413
 21
5.377000000000001
 31
0.0
  0
ARC
  5
4E
330
18
100
AcDbEntity
  8
0
100
AcDbCircle
 10
1.453
 20
5.361000000000001
 30
0.0
 40
2.859
100
AcDbArc
 50
354.466
 51
0.312
  0
ARC
  5
4F
330
18
100
AcDbEntity
  8
0
100
AcDbCircle
 10
4.337
 20
5.361000000000001
 30
0.0
 40
2.859
100
AcDbArc
 50
179.688
 51
185.5340000000001
  0
LINE
  5
50
330
18
100
AcDbEntity
  8
0
100
AcDbLine
 10
2.895
 20
5.377000000000001
 30
0.0
 11
1.377
 21
5.377000000000001
 31
0.0
  0
LINE
  5
51
330
18
100
AcDbEntity
  8
0
100
AcDbLine
 10
1.403
 20
5.067
 30
0.0
 11
2.895
 21
5.377000000000001
 31
0.0
  0
LINE
  5
52
330
18
100
AcDbEntity
  8
0
100
AcDbLine
 10
0.343
 20
4.617
 30
0.0
 11
1.375
 21
4.811
 31
0.0
  0
LINE
  5
53
330
18
100
AcDbEntity
  8
0
100
AcDbLine
 10
1.356
 20
4.904
 30
0.0
 11
2.895
 21
5.224
 31
0.0
  0
LINE
  5
54
330
18
100
AcDbEntity
  8
0
100
AcDbLine
 10
1.529
 20
4.044
 30
0.0
 11
2.222
 21
4.188
 31
0.0
  0
LINE
  5
55
330
18
100
AcDbEntity
  8
0
100
AcDbLine
 10
1.356
 20
4.904
 30
0.0
 11
1.456
 21
4.405
 31
0.0
  0
LINE
  5
56
330
18
100
AcDbEntity
  8
0
100
AcDbLine
 10
0.343
 20
0.7040000000000001
 30
0.0
 11
2.895
 21
1.183
 31
0.0
  0
LINE
  5
57
330
18
100
AcDbEntity
  8
0
100
AcDbLine
 10
2.895
 20
1.183
 30
0.0
 11
2.895
 21
1.372
 31
0.0
  0
LINE
  5
58
330
18
100
AcDbEntity
  8
0
100
AcDbLine
 10
2.222
 20
4.941
 30
0.0
 11
2.222
 21
1.422
 31
0.0
  0
LINE
  5
59
330
18
100
AcDbEntity
  8
0
100
AcDbLine
 10
2.272
 20
1.372
 30
0.0
 11
3.518
 21
1.372
 31
0.0
  0
LINE
  5
5A
330
18
100
AcDbEntity
  8
0
100
AcDbLine
 10
3.568
 20
1.422
 30
0.0
 11
3.568
 21
4.941
 31
0.0
  0
LINE
  5
5B
330
18
100
AcDbEntity
  8
0
100
AcDbLine
 10
2.285
 20
4.941
 30
0.0
 11
2.285
 21
1.447
 31
0.0
  0
LINE
  5
5C
330
18
100
AcDbEntity
  8
0
100
AcDbLine
 10
3.505
 20
1.447
 30
0.0
 11
3.505
 21
4.941
 31
0.0
  0
LINE
  5
5D
330
18
100
AcDbEntity
  8
0
100
AcDbLine
 10
2.297
 20
1.435
 30
0.0
 11
3.493
 21
1.435
 31
0.0
  0
LINE
  5
5E
330
18
100
AcDbEntity
  8
0
100
AcDbLine
 10
3.505
 20
4.941
 30
0.0
 11
3.568
 21
4.941
 31
0.0
  0
LINE
  5
5F
330
18
100
AcDbEntity
  8
0
100
AcDbLine
 10
2.222
 20
4.941
 30
0.0
 11
2.285
 21
4.941
 31
0.0
  0
ARC
  5
60
330
18
100
AcDbEntity
  8
0
100
AcDbCircle
 10
2.272
 20
1.422
 30
0.0
 40
0.05
100
AcDbArc
 50
180.0
 51
270.0
  0
ARC
  5
61
330
18
100
AcDbEntity
  8
0
100
AcDbCircle
 10
3.518
 20
1.422
 30
0.0
 40
0.05
100
AcDbArc
 50
270.0
 51
0.0
  0
ARC
  5
62
330
18
100
AcDbEntity
  8
0
100
AcDbCircle
 10
3.493
 20
1.447
 30
0.0
 40
0.013
100
AcDbArc
 50
270.0
 51
0.0
  0
ARC
  5
63
330
18
100
AcDbEntity
  8
0
100
AcDbCircle
 10
2.297
 20
1.447
 30
0.0
 40
0.013
100
AcDbArc
 50
180.0
 51
270.0
  0
LINE
  5
64
330
18
100
AcDbEntity
  8
0
100
AcDbLine
 10
0.343
 20
2.604
 30
0.0
 11
0.343
 21
0.593
 31
0.0
  0
LINE
  5
65
330
18
100
AcDbEntity
  8
0
100
AcDbLine
 10
0.254
 20
2.808
 30
0.0
 11
0.343
 21
2.883
 31
0.0
  0
LINE
  5
66
330
18
100
AcDbEntity
  8
0
100
AcDbLine
 10
0.431
 20
2.679
 30
0.0
 11
0.254
 21
2.808
 31
0.0
  0
LINE
  5
67
330
18
100
AcDbEntity
  8
0
100
AcDbLine
 10
0.343
 20
2.604
 30
0.0
 11
0.431
 21
2.679
 31
0.0
  0
LINE
  5
68
330
18
100
AcDbEntity
  8
0
100
AcDbLine
 10
0.343
 20
4.825
 30
0.0
 11
0.343
 21
2.883
 31
0.0
  0
ARC
  5
69
330
18
100
AcDbEntity
  8
0
100
AcDbCircle
 10
2.193
 20
4.926
 30
0.0
 40
0.041
100
AcDbArc
 50
224.023
 51
315.977
  0
ARC
  5
6A
330
18
100
AcDbEntity
  8
0
100
AcDbCircle
 10
2.193
 20
4.885
 30
0.0
 40
0.041
100
AcDbArc
 50
224.023
 51
315.977
  0
ARC
  5
6B
330
18
100
AcDbEntity
  8
0
100
AcDbCircle
 10
2.193
 20
4.845
 30
0.0
 40
0.041
100
AcDbArc
 50
224.023
 51
315.977
  0
ARC
  5
6C
330
18
100
AcDbEntity
  8
0
100
AcDbCircle
 10
2.193
 20
4.803999999999999
 30
0.0
 40
0.041
100
AcDbArc
 50
224.023
 51
315.977
  0
ARC
  5
6D
330
18
100
AcDbEntity
  8
0
100
AcDbCircle
 10
2.193
 20
4.763999999999999
 30
0.0
 40
0.041
100
AcDbArc
 50
224.023
 51
315.977
  0
ARC
  5
6E
330
18
100
AcDbEntity
  8
0
100
AcDbCircle
 10
2.193
 20
4.723
 30
0.0
 40
0.041
100
AcDbArc
 50
224.023
 51
315.977
  0
ARC
  5
6F
330
18
100
AcDbEntity
  8
0
100
AcDbCircle
 10
2.193
 20
4.683
 30
0.0
 40
0.041
100
AcDbArc
 50
224.023
 51
315.977
  0
ARC
  5
70
330
18
100
AcDbEntity
  8
0
100
AcDbCircle
 10
2.193
 20
4.642
 30
0.0
 40
0.041
100
AcDbArc
 50
224.023
 51
315.977
  0
ARC
  5
71
330
18
100
AcDbEntity
  8
0
100
AcDbCircle
 10
2.193
 20
4.602
 30
0.0
 40
0.041
100
AcDbArc
 50
224.023
 51
315.977
  0
ARC
  5
72
330
18
100
AcDbEntity
  8
0
100
AcDbCircle
 10
2.193
 20
4.562
 30
0.0
 40
0.041
100
AcDbArc
 50
224.023
 51
315.977
  0
ARC
  5
73
330
18
100
AcDbEntity
  8
0
100
AcDbCircle
 10
2.193
 20
4.521
 30
0.0
 40
0.041
100
AcDbArc
 50
224.023
 51
315.977
  0
ARC
  5
74
330
18
100
AcDbEntity
  8
0
100
AcDbCircle
 10
2.193
 20
4.481
 30
0.0
 40
0.041
100
AcDbArc
 50
224.023
 51
315.977
  0
ARC
  5
75
330
18
100
AcDbEntity
  8
0
100
AcDbCircle
 10
2.193
 20
4.44
 30
0.0
 40
0.041
100
AcDbArc
 50
224.023
 51
315.977
  0
ARC
  5
76
330
18
100
AcDbEntity
  8
0
100
AcDbCircle
 10
2.193
 20
4.4
 30
0.0
 40
0.041
100
AcDbArc
 50
224.023
 51
315.977
  0
ARC
  5
77
330
18
100
AcDbEntity
  8
0
100
AcDbCircle
 10
2.193
 20
4.359
 30
0.0
 40
0.041
100
AcDbArc
 50
224.023
 51
315.977
  0
ARC
  5
78
330
18
100
AcDbEntity
  8
0
100
AcDbCircle
 10
2.193
 20
4.319
 30
0.0
 40
0.041
100
AcDbArc
 50
224.023
 51
315.977
  0
ARC
  5
79
330
18
100
AcDbEntity
  8
0
100
AcDbCircle
 10
2.193
 20
4.278000000000001
 30
0.0
 40
0.041
100
AcDbArc
 50
224.023
 51
315.977
  0
ARC
  5
7A
330
18
100
AcDbEntity
  8
0
100
AcDbCircle
 10
2.193
 20
4.238
 30
0.0
 40
0.041
100
AcDbArc
 50
224.023
 51
315.977
  0
TEXT
  5
7B
330
18
100
AcDbEntity
  8
0
100
AcDbText
 10
4.521
 20
3.822
 30
0.0
 40
0.15
  1
SPECIFY
 41
0.8
100
AcDbText
  0
TEXT
  5
7C
330
18
100
AcDbEntity
  8
0
100
AcDbText
 10
4.521
 20
3.579
 30
0.0
 40
0.15
  1
ANGLES
 41
0.8
100
AcDbText
  0
TEXT
  5
7D
330
18
100
AcDbEntity
  8
0
100
AcDbText
 10
0.6890000000000001
 20
3.48
 30
0.0
 40
0.15
  1
SPECIFY
 41
0.8
100
AcDbText
  0
CIRCLE
  5
7E
330
18
100
AcDbEntity
  8
0
100
AcDbCircle
 10
4.308
 20
5.231
 30
0.0
 40
0.025
  0
LINE
  5
7F
330
18
100
AcDbEntity
  8
0
100
AcDbLine
 10
4.847
 20
4.73
 30
0.0
 11
4.415
 21
4.811
 31
0.0
  0
LINE
  5
80
330
18
100
AcDbEntity
  8
0
100
AcDbLine
 10
1.463
 20
4.37
 30
0.0
 11
1.529
 21
4.044
 31
0.0
  0
TEXT
  5
81
330
18
100
AcDbEntity
  8
0
100
AcDbText
 10
1.782506
 20
0.627494
 30
0.0
 40
0.15
  1
Simpson Strong-Tie
100
AcDbText
  0
TEXT
  5
82
330
18
100
AcDbEntity
  8
0
100
AcDbText
 10
1.782506
 20
0.384637
 30
0.0
 40
0.15
  1
W
100
AcDbText
  0
LINE
  5
83
330
18
100
AcDbEntity
  8
0
100
AcDbLine
 10
4.283
 20
5.23
 30
0.0
 11
4.333
 21
5.23
 31
0.0
  0
LINE
  5
84
330
18
100
AcDbEntity
  8
0
100
AcDbLine
 10
4.285
 20
5.24
 30
0.0
 11
4.331
 21
5.24
 31
0.0
  0
LINE
  5
85
330
18
100
AcDbEntity
  8
0
100
AcDbLine
 10
4.293
 20
5.25
 30
0.0
 11
4.323
 21
5.25
 31
0.0
  0
LINE
  5
86
330
18
100
AcDbEntity
  8
0
100
AcDbLine
 10
4.285
 20
5.22
 30
0.0
 11
4.331
 21
5.22
 31
0.0
  0
LINE
  5
87
330
18
100
AcDbEntity
  8
0
100
AcDbLine
 10
4.293
 20
5.21
 30
0.0
 11
4.323
 21
5.21
 31
0.0
  0
ENDSEC
  0
SECTION
  2
OBJECTS
  0
DICTIONARY
  5
C
330
0
100
AcDbDictionary
281
     1
  3
ACAD_COLOR
350
8D
  3
ACAD_GROUP
350
D
  3
ACAD_LAYOUT
350
15
  3
ACAD_MATERIAL
350
8F
  3
ACAD_MLINESTYLE
350
12
  3
ACAD_PLOTSETTINGS
350
14
  3
ACAD_PLOTSTYLENAME
350
E
  3
ACDBHEADERROUNDTRIPXREC
350
8C
  0
DICTIONARY
  5
8D
102
{ACAD_REACTORS
330
C
102
}
330
C
100
AcDbDictionary
281
     1
  0
DICTIONARY
  5
D
102
{ACAD_REACTORS
330
C
102
}
330
C
100
AcDbDictionary
281
     1
  0
DICTIONARY
  5
15
102
{ACAD_REACTORS
330
C
102
}
330
C
100
AcDbDictionary
281
     1
  3
Layout1
350
17
  3
Model
350
19
  0
DICTIONARY
  5
8F
102
{ACAD_REACTORS
330
C
102
}
330
C
100
AcDbDictionary
281
     1
  0
DICTIONARY
  5
12
102
{ACAD_REACTORS
330
C
102
}
330
C
100
AcDbDictionary
281
     1
  3
Standard
350
13
  0
DICTIONARY
  5
14
102
{ACAD_REACTORS
330
C
102
}
330
C
100
AcDbDictionary
281
     1
  0
ACDBDICTIONARYWDFLT
  5
E
102
{ACAD_REACTORS
330
C
102
}
330
C
100
AcDbDictionary
281
     1
  3
Normal
350
F
100
AcDbDictionaryWithDefault
340
F
  0
DICTIONARY
  5
8C
102
{ACAD_REACTORS
330
C
102
}
330
C
100
AcDbDictionary
281
     1
  3
COLORDICT
350
8E
  3
MATERIALDICT
350
90
  0
LAYOUT
  5
17
102
{ACAD_REACTORS
330
15
102
}
102
{ACAD_XDICTIONARY
360
91
102
}
330
15
100
AcDbPlotSettings
  1

  2

  4

  6

 40
0.0
 41
0.0
 42
0.0
 43
0.0
 44
0.0
 45
0.0
 46
0.0
 47
0.0
 48
0.0
 49
0.0
140
0.0
141
0.0
142
1.0
143
1.0
 70
   688
 72
     0
 73
     0
 74
     5
  7

 75
    16
147
1.0
148
0.0
149
0.0
100
AcDbLayout
  1
Layout1
 70
     1
 71
     1
 10
0.0
 20
0.0
 11
12.0
 21
9.0
 12
0.0
 22
0.0
 32
0.0
 14
1.000000000000000E+20
 24
1.000000000000000E+20
 34
1.000000000000000E+20
 15
-1.000000000000000E+20
 25
-1.000000000000000E+20
 35
-1.000000000000000E+20
146
0.0
 13
0.0
 23
0.0
 33
0.0
 16
1.0
 26
0.0
 36
0.0
 17
0.0
 27
1.0
 37
0.0
 76
     0
330
16
  0
LAYOUT
  5
19
102
{ACAD_REACTORS
330
15
102
}
102
{ACAD_XDICTIONARY
360
93
102
}
330
15
100
AcDbPlotSettings
  1

  2

  4

  6

 40
0.0
 41
0.0
 42
0.0
 43
0.0
 44
0.0
 45
0.0
 46
0.0
 47
0.0
 48
0.0
 49
0.0
140
0.0
141
0.0
142
1.0
143
1.0
 70
  1712
 72
     0
 73
     0
 74
     0
  7

 75
     0
147
1.0
148
0.0
149
0.0
100
AcDbLayout
  1
Model
 70
     1
 71
     0
 10
0.0
 20
0.0
 11
0.0
 21
0.0
 12
0.0
 22
0.0
 32
0.0
 14
0.0
 24
0.0
 34
0.0
 15
0.0
 25
0.0
 35
0.0
146
0.0
 13
0.0
 23
0.0
 33
0.0
 16
1.0
 26
0.0
 36
0.0
 17
0.0
 27
1.0
 37
0.0
 76
     0
330
18
  0
MLINESTYLE
  5
13
102
{ACAD_REACTORS
330
12
102
}
330
12
100
AcDbMlineStyle
  2
Standard
 70
     0
  3

 62
   256
 51
90.0
 52
90.0
 71
     2
 49
0.5
 62
   256
  6
BYLAYER
 49
-0.5
 62
   256
  6
BYLAYER
  0
ACDBPLACEHOLDER
  5
F
102
{ACAD_REACTORS
330
E
102
}
330
E
  0
XRECORD
  5
8E
102
{ACAD_REACTORS
330
8C
102
}
330
8C
100
AcDbXrecord
340
8D
  0
XRECORD
  5
90
102
{ACAD_REACTORS
330
8C
102
}
330
8C
100
AcDbXrecord
340
8F
  0
DICTIONARY
  5
91
330
17
100
AcDbDictionary
280
     1
281
     1
  3
ACAD_XREC_ROUNDTRIP
360
92
  0
DICTIONARY
  5
93
330
19
100
AcDbDictionary
280
     1
281
     1
  3
ACAD_XREC_ROUNDTRIP
360
94
  0
XRECORD
  5
92
102
{ACAD_REACTORS
330
91
102
}
330
91
100
AcDbXrecord
102
SHADEPLOT
 70
     0
102
SHADEPLOTRESLEVEL
 70
     0
102
SHADEPLOTCUSTOMDPI
 70
     0
  0
XRECORD
  5
94
102
{ACAD_REACTORS
330
93
102
}
330
93
100
AcDbXrecord
102
SHADEPLOT
 70
     0
102
SHADEPLOTRESLEVEL
 70
     0
102
SHADEPLOTCUSTOMDPI
 70
     0
  0
ENDSEC
  0
EOF
