  0
SECTION
  2
HEADER
  9
$ACADVER
  1
AC1015
  9
$ACADMAINTVER
 70
     6
  9
$DWGCODEPAGE
  3
ANSI_1252
  9
$INSBASE
 10
0.0
 20
0.0
 30
0.0
  9
$EXTMIN
 10
0.156
 20
0.38
 30
0.0
  9
$EXTMAX
 10
6.303380952380952
 20
6.159000000000012
 30
0.0
  9
$LIMMIN
 10
0.0
 20
0.0
  9
$LIMMAX
 10
17.0
 20
11.0
  9
$ORTHOMODE
 70
     0
  9
$REGENMODE
 70
     0
  9
$FILLMODE
 70
     1
  9
$QTEXTMODE
 70
     0
  9
$MIRRTEXT
 70
     1
  9
$LTSCALE
 40
0.125
  9
$ATTMODE
 70
     1
  9
$TEXTSIZE
 40
0.15
  9
$TRACEWID
 40
0.05
  9
$TEXTSTYLE
  7
STANDARD
  9
$CLAYER
  8
0
  9
$CELTYPE
  6
ByLayer
  9
$CECOLOR
 62
   256
  9
$CELTSCALE
 40
1.0
  9
$DISPSILH
 70
     0
  9
$DIMSCALE
 40
1.0
  9
$DIMASZ
 40
0.125
  9
$DIMEXO
 40
0.063
  9
$DIMDLI
 40
0.38
  9
$DIMRND
 40
0.0
  9
$DIMDLE
 40
0.0
  9
$DIMEXE
 40
0.18
  9
$DIMTP
 40
0.0
  9
$DIMTM
 40
0.0
  9
$DIMTXT
 40
0.125
  9
$DIMCEN
 40
0.09
  9
$DIMTSZ
 40
0.0
  9
$DIMTOL
 70
     0
  9
$DIMLIM
 70
     0
  9
$DIMTIH
 70
     1
  9
$DIMTOH
 70
     1
  9
$DIMSE1
 70
     0
  9
$DIMSE2
 70
     0
  9
$DIMTAD
 70
     0
  9
$DIMZIN
 70
     0
  9
$DIMBLK
  1

  9
$DIMASO
 70
     0
  9
$DIMSHO
 70
     0
  9
$DIMPOST
  1

  9
$DIMAPOST
  1

  9
$DIMALT
 70
     0
  9
$DIMALTD
 70
     2
  9
$DIMALTF
 40
25.4
  9
$DIMLFAC
 40
1.0
  9
$DIMTOFL
 70
     0
  9
$DIMTVP
 40
0.0
  9
$DIMTIX
 70
     0
  9
$DIMSOXD
 70
     0
  9
$DIMSAH
 70
     0
  9
$DIMBLK1
  1

  9
$DIMBLK2
  1

  9
$DIMSTYLE
  2
Standard
  9
$DIMCLRD
 70
     0
  9
$DIMCLRE
 70
     0
  9
$DIMCLRT
 70
     0
  9
$DIMTFAC
 40
1.0
  9
$DIMGAP
 40
0.09
  9
$DIMJUST
 70
     0
  9
$DIMSD1
 70
     0
  9
$DIMSD2
 70
     0
  9
$DIMTOLJ
 70
     1
  9
$DIMTZIN
 70
     0
  9
$DIMALTZ
 70
     0
  9
$DIMALTTZ
 70
     0
  9
$DIMUPT
 70
     0
  9
$DIMDEC
 70
     4
  9
$DIMTDEC
 70
     4
  9
$DIMALTU
 70
     2
  9
$DIMALTTD
 70
     2
  9
$DIMTXSTY
  7
STANDARD
  9
$DIMAUNIT
 70
     0
  9
$DIMADEC
 70
     0
  9
$DIMALTRND
 40
0.0
  9
$DIMAZIN
 70
     0
  9
$DIMDSEP
 70
    46
  9
$DIMATFIT
 70
     3
  9
$DIMFRAC
 70
     0
  9
$DIMLDRBLK
  1

  9
$DIMLUNIT
 70
     2
  9
$DIMLWD
 70
    -2
  9
$DIMLWE
 70
    -2
  9
$DIMTMOVE
 70
     0
  9
$LUNITS
 70
     2
  9
$LUPREC
 70
     4
  9
$SKETCHINC
 40
0.1
  9
$FILLETRAD
 40
0.0
  9
$AUNITS
 70
     0
  9
$AUPREC
 70
     0
  9
$MENU
  1
acad
  9
$ELEVATION
 40
0.0
  9
$PELEVATION
 40
0.0
  9
$THICKNESS
 40
0.0
  9
$LIMCHECK
 70
     0
  9
$CHAMFERA
 40
0.0
  9
$CHAMFERB
 40
0.0
  9
$CHAMFERC
 40
1.0
  9
$CHAMFERD
 40
0.0
  9
$SKPOLY
 70
     0
  9
$TDCREATE
 40
2453955.560286597
  9
$TDUCREATE
 40
2453955.89361993
  9
$TDUPDATE
 40
2453955.601953276
  9
$TDUUPDATE
 40
2453955.893619942
  9
$TDINDWG
 40
0.0000000116
  9
$TDUSRTIMER
 40
0.0000000116
  9
$USRTIMER
 70
     1
  9
$ANGBASE
 50
0.0
  9
$ANGDIR
 70
     0
  9
$PDMODE
 70
     0
  9
$PDSIZE
 40
0.0
  9
$PLINEWID
 40
0.0
  9
$SPLFRAME
 70
     0
  9
$SPLINETYPE
 70
     6
  9
$SPLINESEGS
 70
     8
  9
$HANDSEED
  5
1FC
  9
$SURFTAB1
 70
     6
  9
$SURFTAB2
 70
     6
  9
$SURFTYPE
 70
     6
  9
$SURFU
 70
     6
  9
$SURFV
 70
     6
  9
$UCSBASE
  2

  9
$UCSNAME
  2

  9
$UCSORG
 10
0.0
 20
0.0
 30
0.0
  9
$UCSXDIR
 10
1.0
 20
0.0
 30
0.0
  9
$UCSYDIR
 10
0.0
 20
1.0
 30
0.0
  9
$UCSORTHOREF
  2

  9
$UCSORTHOVIEW
 70
     0
  9
$UCSORGTOP
 10
0.0
 20
0.0
 30
0.0
  9
$UCSORGBOTTOM
 10
0.0
 20
0.0
 30
0.0
  9
$UCSORGLEFT
 10
0.0
 20
0.0
 30
0.0
  9
$UCSORGRIGHT
 10
0.0
 20
0.0
 30
0.0
  9
$UCSORGFRONT
 10
0.0
 20
0.0
 30
0.0
  9
$UCSORGBACK
 10
0.0
 20
0.0
 30
0.0
  9
$PUCSBASE
  2

  9
$PUCSNAME
  2

  9
$PUCSORG
 10
0.0
 20
0.0
 30
0.0
  9
$PUCSXDIR
 10
1.0
 20
0.0
 30
0.0
  9
$PUCSYDIR
 10
0.0
 20
1.0
 30
0.0
  9
$PUCSORTHOREF
  2

  9
$PUCSORTHOVIEW
 70
     0
  9
$PUCSORGTOP
 10
0.0
 20
0.0
 30
0.0
  9
$PUCSORGBOTTOM
 10
0.0
 20
0.0
 30
0.0
  9
$PUCSORGLEFT
 10
0.0
 20
0.0
 30
0.0
  9
$PUCSORGRIGHT
 10
0.0
 20
0.0
 30
0.0
  9
$PUCSORGFRONT
 10
0.0
 20
0.0
 30
0.0
  9
$PUCSORGBACK
 10
0.0
 20
0.0
 30
0.0
  9
$USERI1
 70
     0
  9
$USERI2
 70
     0
  9
$USERI3
 70
     0
  9
$USERI4
 70
     0
  9
$USERI5
 70
     0
  9
$USERR1
 40
0.0
  9
$USERR2
 40
0.0
  9
$USERR3
 40
0.0
  9
$USERR4
 40
0.0
  9
$USERR5
 40
0.0
  9
$WORLDVIEW
 70
     1
  9
$SHADEDGE
 70
     3
  9
$SHADEDIF
 70
    70
  9
$TILEMODE
 70
     1
  9
$MAXACTVP
 70
    16
  9
$PINSBASE
 10
0.0
 20
0.0
 30
0.0
  9
$PLIMCHECK
 70
     0
  9
$PEXTMIN
 10
1.000000000000000E+20
 20
1.000000000000000E+20
 30
1.000000000000000E+20
  9
$PEXTMAX
 10
-1.000000000000000E+20
 20
-1.000000000000000E+20
 30
-1.000000000000000E+20
  9
$PLIMMIN
 10
0.0
 20
0.0
  9
$PLIMMAX
 10
12.0
 20
9.0
  9
$UNITMODE
 70
     0
  9
$VISRETAIN
 70
     0
  9
$PLINEGEN
 70
     0
  9
$PSLTSCALE
 70
     0
  9
$TREEDEPTH
 70
  3020
  9
$CMLSTYLE
  2
Standard
  9
$CMLJUST
 70
     0
  9
$CMLSCALE
 40
1.0
  9
$PROXYGRAPHICS
 70
     1
  9
$MEASUREMENT
 70
     0
  9
$CELWEIGHT
370
    -1
  9
$ENDCAPS
280
     0
  9
$JOINSTYLE
280
     0
  9
$LWDISPLAY
290
     0
  9
$INSUNITS
 70
     1
  9
$HYPERLINKBASE
  1

  9
$STYLESHEET
  1

  9
$XEDIT
290
     1
  9
$CEPSNTYPE
380
     0
  9
$PSTYLEMODE
290
     0
  9
$FINGERPRINTGUID
  2
{FAEB1C30-E019-11D5-929B-00C0DF256EC4}
  9
$VERSIONGUID
  2
{FAEB1C32-E019-11D5-929B-00C0DF256EC4}
  9
$EXTNAMES
290
     1
  9
$PSVPSCALE
 40
0.0
  9
$OLESTARTUP
290
     0
  0
ENDSEC
  0
SECTION
  2
CLASSES
  0
CLASS
  1
ACDBDICTIONARYWDFLT
  2
AcDbDictionaryWithDefault
  3
AutoCAD 2000
 90
        0
280
     0
281
     0
  0
CLASS
  1
ACDBPLACEHOLDER
  2
AcDbPlaceHolder
  3
ObjectDBX Classes
 90
        0
280
     0
281
     0
  0
CLASS
  1
LAYOUT
  2
AcDbLayout
  3
ObjectDBX Classes
 90
        0
280
     0
281
     0
  0
ENDSEC
  0
SECTION
  2
TABLES
  0
TABLE
  2
VPORT
  5
8
330
0
100
AcDbSymbolTable
 70
     2
  0
VPORT
  5
1E
330
8
100
AcDbSymbolTableRecord
100
AcDbViewportTableRecord
  2
*ACTIVE
 70
     0
 10
0.0
 20
0.0
 11
1.0
 21
1.0
 12
8.5
 22
6.12652705061082
 13
0.0
 23
0.0
 14
1.0
 24
1.0
 15
0.0
 25
0.0
 16
0.0
 26
0.0
 36
1.0
 17
0.0
 27
0.0
 37
0.0
 40
12.25305410122164
 41
0.7207678883071553
 42
50.0
 43
0.0
 44
0.0
 50
0.0
 51
0.0
 71
     0
 72
  2000
 73
     1
 74
     0
 75
     0
 76
     0
 77
     0
 78
     2
281
     0
 65
     1
110
0.0
120
0.0
130
0.0
111
1.0
121
0.0
131
0.0
112
0.0
122
1.0
132
0.0
 79
     0
146
0.0
  0
ENDTAB
  0
TABLE
  2
LTYPE
  5
5
330
0
100
AcDbSymbolTable
 70
     1
  0
LTYPE
  5
10
330
5
100
AcDbSymbolTableRecord
100
AcDbLinetypeTableRecord
  2
ByBlock
 70
     0
  3

 72
    65
 73
     0
 40
0.0
  0
LTYPE
  5
11
330
5
100
AcDbSymbolTableRecord
100
AcDbLinetypeTableRecord
  2
ByLayer
 70
     0
  3

 72
    65
 73
     0
 40
0.0
  0
LTYPE
  5
1B
330
5
100
AcDbSymbolTableRecord
100
AcDbLinetypeTableRecord
  2
CONTINUOUS
 70
     0
  3
Solid line
 72
    65
 73
     0
 40
0.0
  0
ENDTAB
  0
TABLE
  2
LAYER
  5
2
330
0
100
AcDbSymbolTable
 70
     1
  0
LAYER
  5
1C
330
2
100
AcDbSymbolTableRecord
100
AcDbLayerTableRecord
  2
0
 70
     0
 62
     7
  6
CONTINUOUS
370
    -3
390
F
  0
ENDTAB
  0
TABLE
  2
STYLE
  5
3
330
0
100
AcDbSymbolTable
 70
     1
  0
STYLE
  5
20
330
3
100
AcDbSymbolTableRecord
100
AcDbTextStyleTableRecord
  2
STANDARD
 70
     0
 40
0.0
 41
1.0
 50
0.0
 71
     0
 42
0.15
  3
ROMANS
  4

  0
ENDTAB
  0
TABLE
  2
VIEW
  5
6
330
0
100
AcDbSymbolTable
 70
     0
  0
ENDTAB
  0
TABLE
  2
UCS
  5
7
330
0
100
AcDbSymbolTable
 70
     0
  0
ENDTAB
  0
TABLE
  2
APPID
  5
9
330
0
100
AcDbSymbolTable
 70
     1
  0
APPID
  5
1F
330
9
100
AcDbSymbolTableRecord
100
AcDbRegAppTableRecord
  2
ACAD
 70
     0
  0
ENDTAB
  0
TABLE
  2
DIMSTYLE
  5
A
330
0
100
AcDbSymbolTable
 70
     1
100
AcDbDimStyleTable
  0
DIMSTYLE
105
21
330
A
100
AcDbSymbolTableRecord
100
AcDbDimStyleTableRecord
  2
Standard
 70
     0
  3

  4

340
20
  0
ENDTAB
  0
TABLE
  2
BLOCK_RECORD
  5
1
330
0
100
AcDbSymbolTable
 70
     0
  0
BLOCK_RECORD
  5
18
330
1
100
AcDbSymbolTableRecord
100
AcDbBlockTableRecord
  2
*Model_Space
340
19
  0
BLOCK_RECORD
  5
16
330
1
100
AcDbSymbolTableRecord
100
AcDbBlockTableRecord
  2
*Paper_Space
340
17
  0
ENDTAB
  0
ENDSEC
  0
SECTION
  2
BLOCKS
  0
BLOCK
  5
1F1
330
18
100
AcDbEntity
  8
0
100
AcDbBlockBegin
  2
*Model_Space
 70
     0
 10
0.0
 20
0.0
 30
0.0
  3
*Model_Space
  1

  4

  0
ENDBLK
  5
1F2
330
18
100
AcDbEntity
  8
0
100
AcDbBlockEnd
  0
BLOCK
  5
1EF
330
16
100
AcDbEntity
 67
     1
  8
0
100
AcDbBlockBegin
  2
*Paper_Space
 70
     0
 10
0.0
 20
0.0
 30
0.0
  3
*Paper_Space
  1

  4

  0
ENDBLK
  5
1F0
330
16
100
AcDbEntity
 67
     1
  8
0
100
AcDbBlockEnd
  0
ENDSEC
  0
SECTION
  2
ENTITIES
  0
ARC
  5
22
330
18
100
AcDbEntity
  8
0
100
AcDbCircle
 10
2.508
 20
1.43
 30
0.0
 40
0.045
100
AcDbArc
 50
168.039
 51
300.222
  0
LINE
  5
23
330
18
100
AcDbEntity
  8
0
100
AcDbLine
 10
0.354
 20
5.049
 30
0.0
 11
0.354
 21
3.086
 31
0.0
  0
LINE
  5
24
330
18
100
AcDbEntity
  8
0
100
AcDbLine
 10
4.836
 20
4.579
 30
0.0
 11
4.836
 21
3.934
 31
0.0
  0
LINE
  5
25
330
18
100
AcDbEntity
  8
0
100
AcDbLine
 10
5.34
 20
5.209
 30
0.0
 11
5.34
 21
3.718
 31
0.0
  0
LINE
  5
26
330
18
100
AcDbEntity
  8
0
100
AcDbLine
 10
3.561
 20
3.498
 30
0.0
 11
3.561
 21
2.971
 31
0.0
  0
LINE
  5
27
330
18
100
AcDbEntity
  8
0
100
AcDbLine
 10
4.544
 20
3.632
 30
0.0
 11
4.544
 21
3.342
 31
0.0
  0
LINE
  5
28
330
18
100
AcDbEntity
  8
0
100
AcDbLine
 10
4.544
 20
0.537
 30
0.0
 11
3.561
 21
0.38
 31
0.0
  0
LINE
  5
29
330
18
100
AcDbEntity
  8
0
100
AcDbLine
 10
3.561
 20
3.498
 30
0.0
 11
4.021
 21
3.561
 31
0.0
  0
LINE
  5
2A
330
18
100
AcDbEntity
  8
0
100
AcDbLine
 10
4.836
 20
4.579
 30
0.0
 11
5.34
 21
5.209
 31
0.0
  0
LINE
  5
2B
330
18
100
AcDbEntity
  8
0
100
AcDbLine
 10
4.836
 20
0.919
 30
0.0
 11
5.34
 21
1.884
 31
0.0
  0
LINE
  5
2C
330
18
100
AcDbEntity
  8
0
100
AcDbLine
 10
4.836
 20
0.919
 30
0.0
 11
4.544
 21
0.963
 31
0.0
  0
LINE
  5
2D
330
18
100
AcDbEntity
  8
0
100
AcDbLine
 10
0.354
 20
5.049
 30
0.0
 11
1.136
 21
4.967
 31
0.0
  0
LINE
  5
2E
330
18
100
AcDbEntity
  8
0
100
AcDbLine
 10
0.354
 20
5.049
 30
0.0
 11
1.138
 21
5.629
 31
0.0
  0
LINE
  5
2F
330
18
100
AcDbEntity
  8
0
100
AcDbLine
 10
1.138
 20
5.629
 30
0.0
 11
3.023
 21
5.441
 31
0.0
  0
LINE
  5
30
330
18
100
AcDbEntity
  8
0
100
AcDbLine
 10
3.561
 20
3.498
 30
0.0
 11
2.237
 21
4.711
 31
0.0
  0
LINE
  5
31
330
18
100
AcDbEntity
  8
0
100
AcDbLine
 10
1.753
 20
5.155
 30
0.0
 11
2.433
 21
4.921
 31
0.0
  0
LINE
  5
32
330
18
100
AcDbEntity
  8
0
100
AcDbLine
 10
3.234
 20
4.645
 30
0.0
 11
4.544
 21
3.632
 31
0.0
  0
LINE
  5
33
330
18
100
AcDbEntity
  8
0
100
AcDbLine
 10
1.753
 20
5.155
 30
0.0
 11
1.753
 21
4.828
 31
0.0
  0
LINE
  5
34
330
18
100
AcDbEntity
  8
0
100
AcDbLine
 10
2.679
 20
1.246
 30
0.0
 11
0.354
 21
1.599
 31
0.0
  0
LINE
  5
35
330
18
100
AcDbEntity
  8
0
100
AcDbLine
 10
1.668
 20
5.412999999999999
 30
0.0
 11
2.853
 21
5.291
 31
0.0
  0
LINE
  5
36
330
18
100
AcDbEntity
  8
0
100
AcDbLine
 10
4.15
 20
5.157
 30
0.0
 11
3.776
 21
4.713
 31
0.0
  0
LINE
  5
37
330
18
100
AcDbEntity
  8
0
100
AcDbLine
 10
3.766
 20
4.263
 30
0.0
 11
3.766
 21
4.353
 31
0.0
  0
LINE
  5
38
330
18
100
AcDbEntity
  8
0
100
AcDbLine
 10
4.146
 20
5.092
 30
0.0
 11
3.812
 21
4.695
 31
0.0
  0
LINE
  5
39
330
18
100
AcDbEntity
  8
0
100
AcDbLine
 10
3.805
 20
4.687
 30
0.0
 11
4.836
 21
4.579
 31
0.0
  0
LINE
  5
3A
330
18
100
AcDbEntity
  8
0
100
AcDbLine
 10
4.15
 20
5.157
 30
0.0
 11
4.146
 21
5.092
 31
0.0
  0
LINE
  5
3B
330
18
100
AcDbEntity
  8
0
100
AcDbLine
 10
3.805
 20
4.233000000000001
 30
0.0
 11
3.805
 21
4.333
 31
0.0
  0
LINE
  5
3C
330
18
100
AcDbEntity
  8
0
100
AcDbLine
 10
1.668
 20
5.412999999999999
 30
0.0
 11
1.151
 21
5.001
 31
0.0
  0
LINE
  5
3D
330
18
100
AcDbEntity
  8
0
100
AcDbLine
 10
1.136
 20
4.968999999999999
 30
0.0
 11
1.136
 21
4.253
 31
0.0
  0
LINE
  5
3E
330
18
100
AcDbEntity
  8
0
100
AcDbLine
 10
1.136
 20
4.253
 30
0.0
 11
1.609
 21
4.194
 31
0.0
  0
ARC
  5
3F
330
18
100
AcDbEntity
  8
0
100
AcDbCircle
 10
1.176
 20
4.968999999999999
 30
0.0
 40
0.04
100
AcDbArc
 50
128.563
 51
180.0
  0
LINE
  5
40
330
18
100
AcDbEntity
  8
0
100
AcDbLine
 10
1.216
 20
4.958
 30
0.0
 11
1.7
 21
4.908
 31
0.0
  0
LINE
  5
41
330
18
100
AcDbEntity
  8
0
100
AcDbLine
 10
2.926
 20
4.779
 30
0.0
 11
3.372
 21
4.732
 31
0.0
  0
LINE
  5
42
330
18
100
AcDbEntity
  8
0
100
AcDbLine
 10
1.204
 20
4.93
 30
0.0
 11
1.687
 21
4.88
 31
0.0
  0
LINE
  5
43
330
18
100
AcDbEntity
  8
0
100
AcDbLine
 10
2.945
 20
4.75
 30
0.0
 11
3.332
 21
4.709
 31
0.0
  0
ARC
  5
44
330
18
100
AcDbEntity
  8
0
100
AcDbCircle
 10
3.806
 20
4.687
 30
0.0
 40
0.04
100
AcDbArc
 50
139.878
 51
180.0
  0
ARC
  5
45
330
18
100
AcDbEntity
  8
0
100
AcDbCircle
 10
3.835
 20
4.676
 30
0.0
 40
0.03
100
AcDbArc
 50
139.878
 51
180.0
  0
LINE
  5
46
330
18
100
AcDbEntity
  8
0
100
AcDbLine
 10
1.753
 20
4.828
 30
0.0
 11
2.036
 21
4.57
 31
0.0
  0
LINE
  5
47
330
18
100
AcDbEntity
  8
0
100
AcDbLine
 10
2.505
 20
4.142
 30
0.0
 11
2.505
 21
2.853
 31
0.0
  0
LINE
  5
48
330
18
100
AcDbEntity
  8
0
100
AcDbLine
 10
2.465
 20
4.136
 30
0.0
 11
2.465
 21
2.853
 31
0.0
  0
LINE
  5
49
330
18
100
AcDbEntity
  8
0
100
AcDbLine
 10
1.713
 20
4.823
 30
0.0
 11
2.013
 21
4.549
 31
0.0
  0
LINE
  5
4A
330
18
100
AcDbEntity
  8
0
100
AcDbLine
 10
2.465
 20
4.136
 30
0.0
 11
2.505
 21
4.142
 31
0.0
  0
LINE
  5
4B
330
18
100
AcDbEntity
  8
0
100
AcDbLine
 10
1.713
 20
4.823
 30
0.0
 11
1.753
 21
4.828
 31
0.0
  0
LINE
  5
4C
330
18
100
AcDbEntity
  8
0
100
AcDbLine
 10
1.713
 20
4.823
 30
0.0
 11
1.713
 21
4.799
 31
0.0
  0
LINE
  5
4D
330
18
100
AcDbEntity
  8
0
100
AcDbLine
 10
1.713
 20
2.184
 30
0.0
 11
2.471
 21
1.405
 31
0.0
  0
LINE
  5
4E
330
18
100
AcDbEntity
  8
0
100
AcDbLine
 10
2.51
 20
1.411
 30
0.0
 11
3.561
 21
0.38
 31
0.0
  0
LINE
  5
4F
330
18
100
AcDbEntity
  8
0
100
AcDbLine
 10
3.267
 20
4.65
 30
0.0
 11
4.089
 21
4.013999999999999
 31
0.0
  0
LINE
  5
50
330
18
100
AcDbEntity
  8
0
100
AcDbLine
 10
4.056
 20
4.009
 30
0.0
 11
4.089
 21
4.013999999999999
 31
0.0
  0
LINE
  5
51
330
18
100
AcDbEntity
  8
0
100
AcDbLine
 10
3.234
 20
4.645
 30
0.0
 11
3.267
 21
4.65
 31
0.0
  0
LINE
  5
52
330
18
100
AcDbEntity
  8
0
100
AcDbLine
 10
4.089
 20
4.013999999999999
 30
0.0
 11
4.089
 21
3.984
 31
0.0
  0
ARC
  5
53
330
18
100
AcDbEntity
  8
0
100
AcDbCircle
 10
2.525
 20
1.426
 30
0.0
 40
0.02
100
AcDbArc
 50
180.0
 51
225.508
  0
ARC
  5
54
330
18
100
AcDbEntity
  8
0
100
AcDbCircle
 10
1.713
 20
4.208
 30
0.0
 40
0.067
100
AcDbArc
 50
51.474
 51
81.52
  0
ARC
  5
55
330
18
100
AcDbEntity
  8
0
100
AcDbCircle
 10
1.713
 20
4.229
 30
0.0
 40
0.067
100
AcDbArc
 50
51.474
 51
70.258
  0
ARC
  5
56
330
18
100
AcDbEntity
  8
0
100
AcDbCircle
 10
1.713
 20
4.25
 30
0.0
 40
0.067
100
AcDbArc
 50
51.474
 51
58.273
  0
ARC
  5
57
330
18
100
AcDbEntity
  8
0
100
AcDbCircle
 10
1.713
 20
4.271
 30
0.0
 40
0.067
100
AcDbArc
 50
51.474
 51
123.87
  0
ARC
  5
58
330
18
100
AcDbEntity
  8
0
100
AcDbCircle
 10
1.713
 20
4.292
 30
0.0
 40
0.067
100
AcDbArc
 50
51.474
 51
123.87
  0
ARC
  5
59
330
18
100
AcDbEntity
  8
0
100
AcDbCircle
 10
1.713
 20
4.313
 30
0.0
 40
0.067
100
AcDbArc
 50
51.474
 51
123.87
  0
ARC
  5
5A
330
18
100
AcDbEntity
  8
0
100
AcDbCircle
 10
1.713
 20
4.334
 30
0.0
 40
0.067
100
AcDbArc
 50
51.474
 51
123.87
  0
ARC
  5
5B
330
18
100
AcDbEntity
  8
0
100
AcDbCircle
 10
1.713
 20
4.355
 30
0.0
 40
0.067
100
AcDbArc
 50
51.474
 51
123.87
  0
ARC
  5
5C
330
18
100
AcDbEntity
  8
0
100
AcDbCircle
 10
1.713
 20
4.376
 30
0.0
 40
0.067
100
AcDbArc
 50
51.474
 51
123.87
  0
ARC
  5
5D
330
18
100
AcDbEntity
  8
0
100
AcDbCircle
 10
1.713
 20
4.397
 30
0.0
 40
0.067
100
AcDbArc
 50
51.474
 51
123.87
  0
ARC
  5
5E
330
18
100
AcDbEntity
  8
0
100
AcDbCircle
 10
1.713
 20
4.418
 30
0.0
 40
0.067
100
AcDbArc
 50
51.474
 51
123.87
  0
ARC
  5
5F
330
18
100
AcDbEntity
  8
0
100
AcDbCircle
 10
1.713
 20
4.439
 30
0.0
 40
0.067
100
AcDbArc
 50
51.474
 51
123.87
  0
ARC
  5
60
330
18
100
AcDbEntity
  8
0
100
AcDbCircle
 10
1.713
 20
4.46
 30
0.0
 40
0.067
100
AcDbArc
 50
51.474
 51
123.87
  0
ARC
  5
61
330
18
100
AcDbEntity
  8
0
100
AcDbCircle
 10
1.713
 20
4.481
 30
0.0
 40
0.067
100
AcDbArc
 50
51.474
 51
123.87
  0
ARC
  5
62
330
18
100
AcDbEntity
  8
0
100
AcDbCircle
 10
1.713
 20
4.502
 30
0.0
 40
0.067
100
AcDbArc
 50
51.474
 51
123.87
  0
ARC
  5
63
330
18
100
AcDbEntity
  8
0
100
AcDbCircle
 10
1.713
 20
4.523
 30
0.0
 40
0.067
100
AcDbArc
 50
51.474
 51
123.87
  0
ARC
  5
64
330
18
100
AcDbEntity
  8
0
100
AcDbCircle
 10
1.713
 20
4.544
 30
0.0
 40
0.067
100
AcDbArc
 50
51.474
 51
123.87
  0
ARC
  5
65
330
18
100
AcDbEntity
  8
0
100
AcDbCircle
 10
1.713
 20
4.565
 30
0.0
 40
0.067
100
AcDbArc
 50
51.474
 51
123.87
  0
ARC
  5
66
330
18
100
AcDbEntity
  8
0
100
AcDbCircle
 10
1.713
 20
4.586
 30
0.0
 40
0.067
100
AcDbArc
 50
51.474
 51
123.87
  0
ARC
  5
67
330
18
100
AcDbEntity
  8
0
100
AcDbCircle
 10
1.713
 20
4.607
 30
0.0
 40
0.067
100
AcDbArc
 50
51.474
 51
123.87
  0
ARC
  5
68
330
18
100
AcDbEntity
  8
0
100
AcDbCircle
 10
1.713
 20
4.628
 30
0.0
 40
0.067
100
AcDbArc
 50
51.474
 51
123.87
  0
ARC
  5
69
330
18
100
AcDbEntity
  8
0
100
AcDbCircle
 10
1.713
 20
4.648
 30
0.0
 40
0.067
100
AcDbArc
 50
51.474
 51
123.87
  0
ARC
  5
6A
330
18
100
AcDbEntity
  8
0
100
AcDbCircle
 10
1.713
 20
4.669
 30
0.0
 40
0.067
100
AcDbArc
 50
51.474
 51
123.87
  0
ARC
  5
6B
330
18
100
AcDbEntity
  8
0
100
AcDbCircle
 10
1.713
 20
4.69
 30
0.0
 40
0.067
100
AcDbArc
 50
51.474
 51
123.87
  0
ARC
  5
6C
330
18
100
AcDbEntity
  8
0
100
AcDbCircle
 10
1.713
 20
4.711
 30
0.0
 40
0.067
100
AcDbArc
 50
51.474
 51
123.87
  0
LINE
  5
6D
330
18
100
AcDbEntity
  8
0
100
AcDbLine
 10
1.713
 20
4.275
 30
0.0
 11
1.713
 21
2.936
 31
0.0
  0
ARC
  5
6E
330
18
100
AcDbEntity
  8
0
100
AcDbCircle
 10
1.713
 20
4.732
 30
0.0
 40
0.067
100
AcDbArc
 50
65.28699999999999
 51
123.87
  0
LINE
  5
6F
330
18
100
AcDbEntity
  8
0
100
AcDbLine
 10
3.561
 20
2.37
 30
0.0
 11
4.544
 21
2.515
 31
0.0
  0
LINE
  5
70
330
18
100
AcDbEntity
  8
0
100
AcDbLine
 10
3.561
 20
1.899
 30
0.0
 11
4.544
 21
2.061
 31
0.0
  0
LINE
  5
71
330
18
100
AcDbEntity
  8
0
100
AcDbLine
 10
3.672
 20
2.184
 30
0.0
 11
4.646
 21
2.342
 31
0.0
  0
LINE
  5
72
330
18
100
AcDbEntity
  8
0
100
AcDbLine
 10
3.491
 20
2.028
 30
0.0
 11
4.465
 21
2.189
 31
0.0
  0
LINE
  5
73
330
18
100
AcDbEntity
  8
0
100
AcDbLine
 10
3.561
 20
2.37
 30
0.0
 11
3.672
 21
2.184
 31
0.0
  0
LINE
  5
74
330
18
100
AcDbEntity
  8
0
100
AcDbLine
 10
3.672
 20
2.184
 30
0.0
 11
3.491
 21
2.028
 31
0.0
  0
LINE
  5
75
330
18
100
AcDbEntity
  8
0
100
AcDbLine
 10
3.491
 20
2.028
 30
0.0
 11
3.561
 21
1.899
 31
0.0
  0
LINE
  5
76
330
18
100
AcDbEntity
  8
0
100
AcDbLine
 10
4.544
 20
2.515
 30
0.0
 11
4.646
 21
2.342
 31
0.0
  0
LINE
  5
77
330
18
100
AcDbEntity
  8
0
100
AcDbLine
 10
4.646
 20
2.342
 30
0.0
 11
4.465
 21
2.189
 31
0.0
  0
LINE
  5
78
330
18
100
AcDbEntity
  8
0
100
AcDbLine
 10
4.465
 20
2.189
 30
0.0
 11
4.544
 21
2.061
 31
0.0
  0
LINE
  5
79
330
18
100
AcDbEntity
  8
0
100
AcDbLine
 10
3.561
 20
1.899
 30
0.0
 11
3.561
 21
0.38
 31
0.0
  0
LINE
  5
7A
330
18
100
AcDbEntity
  8
0
100
AcDbLine
 10
4.544
 20
2.061
 30
0.0
 11
4.544
 21
0.537
 31
0.0
  0
LINE
  5
7B
330
18
100
AcDbEntity
  8
0
100
AcDbLine
 10
4.836
 20
1.756
 30
0.0
 11
5.257999999999999
 21
2.47
 31
0.0
  0
LINE
  5
7C
330
18
100
AcDbEntity
  8
0
100
AcDbLine
 10
4.878
 20
2.027
 30
0.0
 11
5.187
 21
2.53
 31
0.0
  0
LINE
  5
7D
330
18
100
AcDbEntity
  8
0
100
AcDbLine
 10
4.836
 20
2.238
 30
0.0
 11
4.878
 21
2.027
 31
0.0
  0
LINE
  5
7E
330
18
100
AcDbEntity
  8
0
100
AcDbLine
 10
4.878
 20
2.027
 30
0.0
 11
4.729
 21
1.912
 31
0.0
  0
LINE
  5
7F
330
18
100
AcDbEntity
  8
0
100
AcDbLine
 10
4.729
 20
1.912
 30
0.0
 11
4.836
 21
1.756
 31
0.0
  0
LINE
  5
80
330
18
100
AcDbEntity
  8
0
100
AcDbLine
 10
5.34
 20
3.068
 30
0.0
 11
5.422000000000001
 21
2.913
 31
0.0
  0
LINE
  5
81
330
18
100
AcDbEntity
  8
0
100
AcDbLine
 10
5.34
 20
2.609
 30
0.0
 11
5.285
 21
2.69
 31
0.0
  0
LINE
  5
82
330
18
100
AcDbEntity
  8
0
100
AcDbLine
 10
4.836
 20
1.756
 30
0.0
 11
4.836
 21
0.919
 31
0.0
  0
LINE
  5
83
330
18
100
AcDbEntity
  8
0
100
AcDbLine
 10
5.34
 20
2.609
 30
0.0
 11
5.34
 21
2.439
 31
0.0
  0
LINE
  5
84
330
18
100
AcDbEntity
  8
0
100
AcDbLine
 10
2.24
 20
5.187
 30
0.0
 11
5.76
 21
2.067
 31
0.0
  0
LINE
  5
85
330
18
100
AcDbEntity
  8
0
100
AcDbLine
 10
0.156
 20
2.911
 30
0.0
 11
0.96
 21
3.621
 31
0.0
  0
LINE
  5
86
330
18
100
AcDbEntity
  8
0
100
AcDbLine
 10
2.164
 20
5.08
 30
0.0
 11
6.23
 21
3.336
 31
0.0
  0
ARC
  5
87
330
18
100
AcDbEntity
  8
0
100
AcDbCircle
 10
2.557
 20
7.143
 30
0.0
 40
4.29
100
AcDbArc
 50
243.097
 51
270.781
  0
TEXT
  5
88
330
18
100
AcDbEntity
  8
0
100
AcDbText
 10
2.705761904761905
 20
2.928
 30
0.0
 40
0.16
  1
SKEW
 41
0.85
 72
     1
 11
2.981
 21
2.928
 31
0.0
100
AcDbText
  0
TEXT
  5
89
330
18
100
AcDbEntity
  8
0
100
AcDbText
 10
2.657142857142857
 20
2.687
 30
0.0
 40
0.16
  1
ANGLE
 41
0.85
 72
     1
 11
2.968
 21
2.687
 31
0.0
100
AcDbText
  0
ARC
  5
8A
330
18
100
AcDbEntity
  8
0
100
AcDbCircle
 10
2.557
 20
7.143
 30
0.0
 40
4.29
100
AcDbArc
 50
280.144
 51
308.235
  0
ARC
  5
8B
330
18
100
AcDbEntity
  8
0
100
AcDbCircle
 10
4.862
 20
3.158
 30
0.0
 40
1.215
100
AcDbArc
 50
307.979
 51
326.397
  0
TEXT
  5
8C
330
18
100
AcDbEntity
  8
0
100
AcDbText
 10
5.675190476190476
 20
2.797
 30
0.0
 40
0.16
  1
SLOPE
 41
0.85
 72
     1
 11
5.999
 21
2.797
 31
0.0
100
AcDbText
  0
TEXT
  5
8D
330
18
100
AcDbEntity
  8
0
100
AcDbText
 10
5.675142857142858
 20
2.555
 30
0.0
 40
0.16
  1
ANGLE
 41
0.85
 72
     1
 11
5.986000000000001
 21
2.555
 31
0.0
100
AcDbText
  0
SOLID
  5
8E
330
18
100
AcDbEntity
  8
0
100
AcDbTrace
 10
5.716
 20
2.268
 30
0.0
 11
5.689
 21
2.299
 31
0.0
 12
5.609
 22
2.201
 32
0.0
 13
5.609
 23
2.201
 33
0.0
  0
SOLID
  5
8F
330
18
100
AcDbEntity
  8
0
100
AcDbTrace
 10
6.05
 20
3.287
 30
0.0
 11
6.091
 21
3.295
 31
0.0
 12
6.049
 22
3.414
 32
0.0
 13
6.049
 23
3.414
 33
0.0
  0
SOLID
  5
90
330
18
100
AcDbEntity
  8
0
100
AcDbTrace
 10
5.102
 20
3.711
 30
0.0
 11
5.127999999999999
 21
3.678
 31
0.0
 12
5.212000000000001
 22
3.773
 32
0.0
 13
5.212000000000001
 23
3.773
 33
0.0
  0
SOLID
  5
91
330
18
100
AcDbEntity
  8
0
100
AcDbTrace
 10
0.7190000000000001
 20
3.244
 30
0.0
 11
0.737
 21
3.281
 31
0.0
 12
0.616
 22
3.317
 32
0.0
 13
0.616
 23
3.317
 33
0.0
  0
ARC
  5
92
330
18
100
AcDbEntity
  8
0
100
AcDbCircle
 10
2.924
 20
5.447
 30
0.0
 40
0.843
100
AcDbArc
 50
289.784
 51
10.984
  0
SOLID
  5
93
330
18
100
AcDbEntity
  8
0
100
AcDbTrace
 10
3.334
 20
4.681
 30
0.0
 11
3.318
 21
4.72
 31
0.0
 12
3.21
 22
4.654
 32
0.0
 13
3.21
 23
4.654
 33
0.0
  0
TEXT
  5
94
330
18
100
AcDbEntity
  8
0
100
AcDbText
 10
1.644
 20
5.999
 30
0.0
 40
0.16
  1
SPECIFY LOW SIDE, HIGH SIDE, OR
 41
0.9
100
AcDbText
  0
TEXT
  5
95
330
18
100
AcDbEntity
  8
0
100
AcDbText
 10
1.644
 20
5.707000000000001
 30
0.0
 40
0.16
  1
CENTER FLUSH (LOW SIDE SHOWN)
 41
0.9
100
AcDbText
  0
LINE
  5
96
330
18
100
AcDbEntity
  8
0
100
AcDbLine
 10
3.816
 20
5.361000000000001
 30
0.0
 11
5.34
 21
5.209
 31
0.0
  0
LINE
  5
97
330
18
100
AcDbEntity
  8
0
100
AcDbLine
 10
3.067
 20
5.436
 30
0.0
 11
3.764
 21
5.366000000000001
 31
0.0
  0
LINE
  5
98
330
18
100
AcDbEntity
  8
0
100
AcDbLine
 10
2.909
 20
5.285
 30
0.0
 11
3.731
 21
5.2
 31
0.0
  0
LINE
  5
99
330
18
100
AcDbEntity
  8
0
100
AcDbLine
 10
3.777
 20
5.196000000000001
 30
0.0
 11
4.15
 21
5.157
 31
0.0
  0
LINE
  5
9A
330
18
100
AcDbEntity
  8
0
100
AcDbLine
 10
3.332
 20
4.709
 30
0.0
 11
3.369
 21
4.705
 31
0.0
  0
LINE
  5
9B
330
18
100
AcDbEntity
  8
0
100
AcDbLine
 10
3.383
 20
4.704
 30
0.0
 11
3.682
 21
4.672
 31
0.0
  0
LINE
  5
9C
330
18
100
AcDbEntity
  8
0
100
AcDbLine
 10
3.425
 20
4.727
 30
0.0
 11
3.663
 21
4.702
 31
0.0
  0
LINE
  5
9D
330
18
100
AcDbEntity
  8
0
100
AcDbLine
 10
2.659
 20
4.843
 30
0.0
 11
2.945
 21
4.745
 31
0.0
  0
LINE
  5
9E
330
18
100
AcDbEntity
  8
0
100
AcDbLine
 10
2.451
 20
4.915
 30
0.0
 11
2.608
 21
4.861000000000001
 31
0.0
  0
LINE
  5
9F
330
18
100
AcDbEntity
  8
0
100
AcDbLine
 10
3.009
 20
4.723
 30
0.0
 11
3.234
 21
4.645
 31
0.0
  0
LINE
  5
A0
330
18
100
AcDbEntity
  8
0
100
AcDbLine
 10
2.217
 20
4.73
 30
0.0
 11
1.753
 21
5.155
 31
0.0
  0
LINE
  5
A1
330
18
100
AcDbEntity
  8
0
100
AcDbLine
 10
2.033
 20
4.531000000000001
 30
0.0
 11
2.465
 21
4.136
 31
0.0
  0
LINE
  5
A2
330
18
100
AcDbEntity
  8
0
100
AcDbLine
 10
2.054
 20
4.553
 30
0.0
 11
2.505
 21
4.142
 31
0.0
  0
LINE
  5
A3
330
18
100
AcDbEntity
  8
0
100
AcDbLine
 10
0.354
 20
3.036
 30
0.0
 11
0.354
 21
1.599
 31
0.0
  0
ARC
  5
A4
330
18
100
AcDbEntity
  8
0
100
AcDbCircle
 10
1.713
 20
4.25
 30
0.0
 40
0.067
100
AcDbArc
 50
74.82300000000001
 51
123.87
  0
ARC
  5
A5
330
18
100
AcDbEntity
  8
0
100
AcDbCircle
 10
1.713
 20
4.229
 30
0.0
 40
0.067
100
AcDbArc
 50
90.77999999999999
 51
123.87
  0
ARC
  5
A6
330
18
100
AcDbEntity
  8
0
100
AcDbCircle
 10
1.713
 20
4.208
 30
0.0
 40
0.067
100
AcDbArc
 50
113.227
 51
123.87
  0
LINE
  5
A7
330
18
100
AcDbEntity
  8
0
100
AcDbLine
 10
1.713
 20
2.904
 30
0.0
 11
1.713
 21
2.184
 31
0.0
  0
LINE
  5
A8
330
18
100
AcDbEntity
  8
0
100
AcDbLine
 10
2.465
 20
2.817
 30
0.0
 11
2.465
 21
1.439
 31
0.0
  0
LINE
  5
A9
330
18
100
AcDbEntity
  8
0
100
AcDbLine
 10
2.505
 20
2.82
 30
0.0
 11
2.505
 21
1.426
 31
0.0
  0
LINE
  5
AA
330
18
100
AcDbEntity
  8
0
100
AcDbLine
 10
3.561
 20
2.94
 30
0.0
 11
3.561
 21
2.37
 31
0.0
  0
LINE
  5
AB
330
18
100
AcDbEntity
  8
0
100
AcDbLine
 10
4.544
 20
3.107
 30
0.0
 11
4.544
 21
2.515
 31
0.0
  0
LINE
  5
AC
330
18
100
AcDbEntity
  8
0
100
AcDbLine
 10
4.544
 20
3.325
 30
0.0
 11
4.544
 21
3.145
 31
0.0
  0
LINE
  5
AD
330
18
100
AcDbEntity
  8
0
100
AcDbLine
 10
4.836
 20
3.893
 30
0.0
 11
4.836
 21
3.508
 31
0.0
  0
LINE
  5
AE
330
18
100
AcDbEntity
  8
0
100
AcDbLine
 10
4.836
 20
2.846
 30
0.0
 11
4.836
 21
2.238
 31
0.0
  0
LINE
  5
AF
330
18
100
AcDbEntity
  8
0
100
AcDbLine
 10
5.34
 20
3.686
 30
0.0
 11
5.34
 21
3.068
 31
0.0
  0
LINE
  5
B0
330
18
100
AcDbEntity
  8
0
100
AcDbLine
 10
4.836
 20
3.48
 30
0.0
 11
4.836
 21
2.886
 31
0.0
  0
LINE
  5
B1
330
18
100
AcDbEntity
  8
0
100
AcDbLine
 10
5.34
 20
2.399
 30
0.0
 11
5.34
 21
1.884
 31
0.0
  0
LINE
  5
B2
330
18
100
AcDbEntity
  8
0
100
AcDbLine
 10
5.274
 20
2.498
 30
0.0
 11
5.34
 21
2.609
 31
0.0
  0
LINE
  5
B3
330
18
100
AcDbEntity
  8
0
100
AcDbLine
 10
5.205
 20
2.559
 30
0.0
 11
5.422000000000001
 21
2.913
 31
0.0
  0
TEXT
  5
B4
330
18
100
AcDbEntity
  8
0
100
AcDbText
 10
0.988
 20
3.567
 30
0.0
 40
0.19
  1
C
 50
31.518
 51
32.0
100
AcDbText
  0
TEXT
  5
B5
330
18
100
AcDbEntity
  8
0
100
AcDbText
 10
1.05
 20
3.507
 30
0.0
 40
0.19
  1
L
 50
31.518
 51
32.0
100
AcDbText
  0
LINE
  5
B6
330
18
100
AcDbEntity
  8
0
100
AcDbLine
 10
1.157
 20
3.794
 30
0.0
 11
3.206
 21
5.602
 31
0.0
  0
ARC
  5
B7
330
18
100
AcDbEntity
  8
0
100
AcDbCircle
 10
1.754
 20
5.303
 30
0.0
 40
0.02
100
AcDbArc
 50
176.661
 51
210.69
  0
ARC
  5
B8
330
18
100
AcDbEntity
  8
0
100
AcDbCircle
 10
1.769
 20
5.312
 30
0.0
 40
0.037
100
AcDbArc
 50
210.69
 51
235.135
  0
ARC
  5
B9
330
18
100
AcDbEntity
  8
0
100
AcDbCircle
 10
1.78
 20
5.327000000000001
 30
0.0
 40
0.056
100
AcDbArc
 50
235.135
 51
252.404
  0
ARC
  5
BA
330
18
100
AcDbEntity
  8
0
100
AcDbCircle
 10
1.788
 20
5.352
 30
0.0
 40
0.082
100
AcDbArc
 50
252.404
 51
266.661
  0
ARC
  5
BB
330
18
100
AcDbEntity
  8
0
100
AcDbCircle
 10
1.788
 20
5.352
 30
0.0
 40
0.082
100
AcDbArc
 50
266.661
 51
280.917
  0
ARC
  5
BC
330
18
100
AcDbEntity
  8
0
100
AcDbCircle
 10
1.793
 20
5.326000000000001
 30
0.0
 40
0.056
100
AcDbArc
 50
280.917
 51
298.187
  0
ARC
  5
BD
330
18
100
AcDbEntity
  8
0
100
AcDbCircle
 10
1.802
 20
5.31
 30
0.0
 40
0.037
100
AcDbArc
 50
298.187
 51
322.632
  0
ARC
  5
BE
330
18
100
AcDbEntity
  8
0
100
AcDbCircle
 10
1.816
 20
5.299
 30
0.0
 40
0.02
100
AcDbArc
 50
322.632
 51
356.661
  0
ARC
  5
BF
330
18
100
AcDbEntity
  8
0
100
AcDbCircle
 10
1.816
 20
5.299
 30
0.0
 40
0.02
100
AcDbArc
 50
356.661
 51
30.69
  0
ARC
  5
C0
330
18
100
AcDbEntity
  8
0
100
AcDbCircle
 10
1.8
 20
5.29
 30
0.0
 40
0.037
100
AcDbArc
 50
30.69
 51
55.135
  0
ARC
  5
C1
330
18
100
AcDbEntity
  8
0
100
AcDbCircle
 10
1.79
 20
5.274
 30
0.0
 40
0.056
100
AcDbArc
 50
55.135
 51
72.404
  0
ARC
  5
C2
330
18
100
AcDbEntity
  8
0
100
AcDbCircle
 10
1.782
 20
5.25
 30
0.0
 40
0.082
100
AcDbArc
 50
72.404
 51
86.661
  0
ARC
  5
C3
330
18
100
AcDbEntity
  8
0
100
AcDbCircle
 10
1.782
 20
5.25
 30
0.0
 40
0.082
100
AcDbArc
 50
86.661
 51
100.917
  0
ARC
  5
C4
330
18
100
AcDbEntity
  8
0
100
AcDbCircle
 10
1.777
 20
5.275
 30
0.0
 40
0.056
100
AcDbArc
 50
100.917
 51
118.187
  0
ARC
  5
C5
330
18
100
AcDbEntity
  8
0
100
AcDbCircle
 10
1.768
 20
5.292000000000001
 30
0.0
 40
0.037
100
AcDbArc
 50
118.187
 51
142.632
  0
ARC
  5
C6
330
18
100
AcDbEntity
  8
0
100
AcDbCircle
 10
1.754
 20
5.303
 30
0.0
 40
0.02
100
AcDbArc
 50
142.632
 51
176.661
  0
ARC
  5
C7
330
18
100
AcDbEntity
  8
0
100
AcDbCircle
 10
1.754
 20
5.291
 30
0.0
 40
0.02
100
AcDbArc
 50
176.661
 51
210.69
  0
ARC
  5
C8
330
18
100
AcDbEntity
  8
0
100
AcDbCircle
 10
1.769
 20
5.3
 30
0.0
 40
0.037
100
AcDbArc
 50
210.69
 51
235.135
  0
ARC
  5
C9
330
18
100
AcDbEntity
  8
0
100
AcDbCircle
 10
1.78
 20
5.316
 30
0.0
 40
0.056
100
AcDbArc
 50
235.135
 51
252.404
  0
ARC
  5
CA
330
18
100
AcDbEntity
  8
0
100
AcDbCircle
 10
1.788
 20
5.341
 30
0.0
 40
0.082
100
AcDbArc
 50
252.404
 51
266.661
  0
ARC
  5
CB
330
18
100
AcDbEntity
  8
0
100
AcDbCircle
 10
1.788
 20
5.341
 30
0.0
 40
0.082
100
AcDbArc
 50
266.661
 51
280.917
  0
ARC
  5
CC
330
18
100
AcDbEntity
  8
0
100
AcDbCircle
 10
1.793
 20
5.315
 30
0.0
 40
0.056
100
AcDbArc
 50
280.917
 51
298.187
  0
ARC
  5
CD
330
18
100
AcDbEntity
  8
0
100
AcDbCircle
 10
1.802
 20
5.299
 30
0.0
 40
0.037
100
AcDbArc
 50
298.187
 51
322.632
  0
ARC
  5
CE
330
18
100
AcDbEntity
  8
0
100
AcDbCircle
 10
1.816
 20
5.287999999999999
 30
0.0
 40
0.02
100
AcDbArc
 50
322.632
 51
356.661
  0
ARC
  5
CF
330
18
100
AcDbEntity
  8
0
100
AcDbCircle
 10
1.816
 20
5.287999999999999
 30
0.0
 40
0.02
100
AcDbArc
 50
356.661
 51
16.718
  0
ARC
  5
D0
330
18
100
AcDbEntity
  8
0
100
AcDbCircle
 10
1.754
 20
5.291
 30
0.0
 40
0.02
100
AcDbArc
 50
163.282
 51
176.661
  0
ARC
  5
D1
330
18
100
AcDbEntity
  8
0
100
AcDbCircle
 10
3.86
 20
5.078
 30
0.0
 40
0.02
100
AcDbArc
 50
163.282
 51
176.661
  0
ARC
  5
D2
330
18
100
AcDbEntity
  8
0
100
AcDbCircle
 10
3.86
 20
5.078
 30
0.0
 40
0.02
100
AcDbArc
 50
176.661
 51
210.69
  0
ARC
  5
D3
330
18
100
AcDbEntity
  8
0
100
AcDbCircle
 10
3.876
 20
5.087
 30
0.0
 40
0.037
100
AcDbArc
 50
210.69
 51
235.135
  0
ARC
  5
D4
330
18
100
AcDbEntity
  8
0
100
AcDbCircle
 10
3.886
 20
5.103
 30
0.0
 40
0.056
100
AcDbArc
 50
235.135
 51
252.404
  0
ARC
  5
D5
330
18
100
AcDbEntity
  8
0
100
AcDbCircle
 10
3.894
 20
5.127000000000001
 30
0.0
 40
0.082
100
AcDbArc
 50
252.404
 51
266.661
  0
ARC
  5
D6
330
18
100
AcDbEntity
  8
0
100
AcDbCircle
 10
3.894
 20
5.127000000000001
 30
0.0
 40
0.082
100
AcDbArc
 50
266.661
 51
280.917
  0
ARC
  5
D7
330
18
100
AcDbEntity
  8
0
100
AcDbCircle
 10
3.899
 20
5.102
 30
0.0
 40
0.056
100
AcDbArc
 50
280.917
 51
298.187
  0
ARC
  5
D8
330
18
100
AcDbEntity
  8
0
100
AcDbCircle
 10
3.908
 20
5.085
 30
0.0
 40
0.037
100
AcDbArc
 50
298.187
 51
322.632
  0
ARC
  5
D9
330
18
100
AcDbEntity
  8
0
100
AcDbCircle
 10
3.922
 20
5.075
 30
0.0
 40
0.02
100
AcDbArc
 50
322.632
 51
356.661
  0
ARC
  5
DA
330
18
100
AcDbEntity
  8
0
100
AcDbCircle
 10
3.922
 20
5.075
 30
0.0
 40
0.02
100
AcDbArc
 50
356.661
 51
16.718
  0
ARC
  5
DB
330
18
100
AcDbEntity
  8
0
100
AcDbCircle
 10
3.86
 20
5.089
 30
0.0
 40
0.02
100
AcDbArc
 50
176.661
 51
210.69
  0
ARC
  5
DC
330
18
100
AcDbEntity
  8
0
100
AcDbCircle
 10
3.876
 20
5.099
 30
0.0
 40
0.037
100
AcDbArc
 50
210.69
 51
235.135
  0
ARC
  5
DD
330
18
100
AcDbEntity
  8
0
100
AcDbCircle
 10
3.886
 20
5.114
 30
0.0
 40
0.056
100
AcDbArc
 50
235.135
 51
252.404
  0
ARC
  5
DE
330
18
100
AcDbEntity
  8
0
100
AcDbCircle
 10
3.894
 20
5.138999999999999
 30
0.0
 40
0.082
100
AcDbArc
 50
252.404
 51
266.661
  0
ARC
  5
DF
330
18
100
AcDbEntity
  8
0
100
AcDbCircle
 10
3.894
 20
5.138999999999999
 30
0.0
 40
0.082
100
AcDbArc
 50
266.661
 51
280.917
  0
ARC
  5
E0
330
18
100
AcDbEntity
  8
0
100
AcDbCircle
 10
3.899
 20
5.113
 30
0.0
 40
0.056
100
AcDbArc
 50
280.917
 51
298.187
  0
ARC
  5
E1
330
18
100
AcDbEntity
  8
0
100
AcDbCircle
 10
3.908
 20
5.097
 30
0.0
 40
0.037
100
AcDbArc
 50
298.187
 51
322.632
  0
ARC
  5
E2
330
18
100
AcDbEntity
  8
0
100
AcDbCircle
 10
3.922
 20
5.086
 30
0.0
 40
0.02
100
AcDbArc
 50
322.632
 51
356.661
  0
ARC
  5
E3
330
18
100
AcDbEntity
  8
0
100
AcDbCircle
 10
3.922
 20
5.086
 30
0.0
 40
0.02
100
AcDbArc
 50
356.661
 51
30.69
  0
ARC
  5
E4
330
18
100
AcDbEntity
  8
0
100
AcDbCircle
 10
3.907
 20
5.077
 30
0.0
 40
0.037
100
AcDbArc
 50
30.69
 51
55.135
  0
ARC
  5
E5
330
18
100
AcDbEntity
  8
0
100
AcDbCircle
 10
3.896
 20
5.061
 30
0.0
 40
0.056
100
AcDbArc
 50
55.135
 51
72.404
  0
ARC
  5
E6
330
18
100
AcDbEntity
  8
0
100
AcDbCircle
 10
3.888
 20
5.037
 30
0.0
 40
0.082
100
AcDbArc
 50
72.404
 51
86.661
  0
ARC
  5
E7
330
18
100
AcDbEntity
  8
0
100
AcDbCircle
 10
3.888
 20
5.037
 30
0.0
 40
0.082
100
AcDbArc
 50
86.661
 51
100.917
  0
ARC
  5
E8
330
18
100
AcDbEntity
  8
0
100
AcDbCircle
 10
3.883
 20
5.062
 30
0.0
 40
0.056
100
AcDbArc
 50
100.917
 51
118.187
  0
ARC
  5
E9
330
18
100
AcDbEntity
  8
0
100
AcDbCircle
 10
3.874
 20
5.079
 30
0.0
 40
0.037
100
AcDbArc
 50
118.187
 51
142.632
  0
ARC
  5
EA
330
18
100
AcDbEntity
  8
0
100
AcDbCircle
 10
3.86
 20
5.089
 30
0.0
 40
0.02
100
AcDbArc
 50
142.632
 51
176.661
  0
ARC
  5
EB
330
18
100
AcDbEntity
  8
0
100
AcDbCircle
 10
2.622
 20
5.107
 30
0.0
 40
0.02
100
AcDbArc
 50
163.282
 51
176.661
  0
ARC
  5
EC
330
18
100
AcDbEntity
  8
0
100
AcDbCircle
 10
2.622
 20
5.107
 30
0.0
 40
0.02
100
AcDbArc
 50
176.661
 51
210.69
  0
ARC
  5
ED
330
18
100
AcDbEntity
  8
0
100
AcDbCircle
 10
2.638
 20
5.117
 30
0.0
 40
0.037
100
AcDbArc
 50
210.69
 51
235.135
  0
ARC
  5
EE
330
18
100
AcDbEntity
  8
0
100
AcDbCircle
 10
2.648
 20
5.132000000000001
 30
0.0
 40
0.056
100
AcDbArc
 50
235.135
 51
252.404
  0
ARC
  5
EF
330
18
100
AcDbEntity
  8
0
100
AcDbCircle
 10
2.656
 20
5.157
 30
0.0
 40
0.082
100
AcDbArc
 50
252.404
 51
266.661
  0
ARC
  5
F0
330
18
100
AcDbEntity
  8
0
100
AcDbCircle
 10
2.656
 20
5.157
 30
0.0
 40
0.082
100
AcDbArc
 50
266.661
 51
280.917
  0
ARC
  5
F1
330
18
100
AcDbEntity
  8
0
100
AcDbCircle
 10
2.661
 20
5.131
 30
0.0
 40
0.056
100
AcDbArc
 50
280.917
 51
298.187
  0
ARC
  5
F2
330
18
100
AcDbEntity
  8
0
100
AcDbCircle
 10
2.67
 20
5.115
 30
0.0
 40
0.037
100
AcDbArc
 50
298.187
 51
322.632
  0
ARC
  5
F3
330
18
100
AcDbEntity
  8
0
100
AcDbCircle
 10
2.684
 20
5.104
 30
0.0
 40
0.02
100
AcDbArc
 50
322.632
 51
356.661
  0
ARC
  5
F4
330
18
100
AcDbEntity
  8
0
100
AcDbCircle
 10
2.684
 20
5.104
 30
0.0
 40
0.02
100
AcDbArc
 50
356.661
 51
16.718
  0
ARC
  5
F5
330
18
100
AcDbEntity
  8
0
100
AcDbCircle
 10
2.622
 20
5.119
 30
0.0
 40
0.02
100
AcDbArc
 50
176.661
 51
210.69
  0
ARC
  5
F6
330
18
100
AcDbEntity
  8
0
100
AcDbCircle
 10
2.638
 20
5.127999999999999
 30
0.0
 40
0.037
100
AcDbArc
 50
210.69
 51
235.135
  0
ARC
  5
F7
330
18
100
AcDbEntity
  8
0
100
AcDbCircle
 10
2.648
 20
5.143
 30
0.0
 40
0.056
100
AcDbArc
 50
235.135
 51
252.404
  0
ARC
  5
F8
330
18
100
AcDbEntity
  8
0
100
AcDbCircle
 10
2.656
 20
5.167999999999999
 30
0.0
 40
0.082
100
AcDbArc
 50
252.404
 51
266.661
  0
ARC
  5
F9
330
18
100
AcDbEntity
  8
0
100
AcDbCircle
 10
2.656
 20
5.167999999999999
 30
0.0
 40
0.082
100
AcDbArc
 50
266.661
 51
280.917
  0
ARC
  5
FA
330
18
100
AcDbEntity
  8
0
100
AcDbCircle
 10
2.661
 20
5.142
 30
0.0
 40
0.056
100
AcDbArc
 50
280.917
 51
298.187
  0
ARC
  5
FB
330
18
100
AcDbEntity
  8
0
100
AcDbCircle
 10
2.67
 20
5.126
 30
0.0
 40
0.037
100
AcDbArc
 50
298.187
 51
322.632
  0
ARC
  5
FC
330
18
100
AcDbEntity
  8
0
100
AcDbCircle
 10
2.684
 20
5.115
 30
0.0
 40
0.02
100
AcDbArc
 50
322.632
 51
356.661
  0
ARC
  5
FD
330
18
100
AcDbEntity
  8
0
100
AcDbCircle
 10
2.684
 20
5.115
 30
0.0
 40
0.02
100
AcDbArc
 50
356.661
 51
30.69
  0
ARC
  5
FE
330
18
100
AcDbEntity
  8
0
100
AcDbCircle
 10
2.669
 20
5.106
 30
0.0
 40
0.037
100
AcDbArc
 50
30.69
 51
55.135
  0
ARC
  5
FF
330
18
100
AcDbEntity
  8
0
100
AcDbCircle
 10
2.658
 20
5.091
 30
0.0
 40
0.056
100
AcDbArc
 50
55.135
 51
72.404
  0
ARC
  5
100
330
18
100
AcDbEntity
  8
0
100
AcDbCircle
 10
2.65
 20
5.066
 30
0.0
 40
0.082
100
AcDbArc
 50
72.404
 51
86.661
  0
ARC
  5
101
330
18
100
AcDbEntity
  8
0
100
AcDbCircle
 10
2.65
 20
5.066
 30
0.0
 40
0.082
100
AcDbArc
 50
86.661
 51
100.917
  0
ARC
  5
102
330
18
100
AcDbEntity
  8
0
100
AcDbCircle
 10
2.645
 20
5.091
 30
0.0
 40
0.056
100
AcDbArc
 50
100.917
 51
118.187
  0
ARC
  5
103
330
18
100
AcDbEntity
  8
0
100
AcDbCircle
 10
2.636
 20
5.108000000000001
 30
0.0
 40
0.037
100
AcDbArc
 50
118.187
 51
142.632
  0
ARC
  5
104
330
18
100
AcDbEntity
  8
0
100
AcDbCircle
 10
2.622
 20
5.119
 30
0.0
 40
0.02
100
AcDbArc
 50
142.632
 51
176.661
  0
LINE
  5
105
330
18
100
AcDbEntity
  8
0
100
AcDbLine
 10
5.281000000000001
 20
5.135
 30
0.0
 11
5.34
 21
5.037
 31
0.0
  0
LINE
  5
106
330
18
100
AcDbEntity
  8
0
100
AcDbLine
 10
5.202999999999999
 20
5.038
 30
0.0
 11
5.282
 21
4.742
 31
0.0
  0
LINE
  5
107
330
18
100
AcDbEntity
  8
0
100
AcDbLine
 10
5.282
 20
4.742
 30
0.0
 11
5.34
 21
4.694
 31
0.0
  0
LINE
  5
108
330
18
100
AcDbEntity
  8
0
100
AcDbLine
 10
5.138999999999999
 20
4.957
 30
0.0
 11
5.16
 21
4.756
 31
0.0
  0
LINE
  5
109
330
18
100
AcDbEntity
  8
0
100
AcDbLine
 10
5.16
 20
4.756
 30
0.0
 11
5.259
 21
4.426
 31
0.0
  0
LINE
  5
10A
330
18
100
AcDbEntity
  8
0
100
AcDbLine
 10
5.259
 20
4.426
 30
0.0
 11
5.312
 21
4.303
 31
0.0
  0
LINE
  5
10B
330
18
100
AcDbEntity
  8
0
100
AcDbLine
 10
5.312
 20
4.303
 30
0.0
 11
5.34
 21
4.276
 31
0.0
  0
LINE
  5
10C
330
18
100
AcDbEntity
  8
0
100
AcDbLine
 10
5.04
 20
4.834
 30
0.0
 11
5.085
 21
4.549
 31
0.0
  0
LINE
  5
10D
330
18
100
AcDbEntity
  8
0
100
AcDbLine
 10
5.085
 20
4.549
 30
0.0
 11
5.161000000000001
 21
4.204
 31
0.0
  0
LINE
  5
10E
330
18
100
AcDbEntity
  8
0
100
AcDbLine
 10
5.161000000000001
 20
4.204
 30
0.0
 11
5.255
 21
3.885
 31
0.0
  0
LINE
  5
10F
330
18
100
AcDbEntity
  8
0
100
AcDbLine
 10
5.255
 20
3.885
 30
0.0
 11
5.287999999999999
 21
3.813
 31
0.0
  0
LINE
  5
110
330
18
100
AcDbEntity
  8
0
100
AcDbLine
 10
5.287999999999999
 20
3.813
 30
0.0
 11
5.34
 21
3.725
 31
0.0
  0
LINE
  5
111
330
18
100
AcDbEntity
  8
0
100
AcDbLine
 10
4.836
 20
2.339
 30
0.0
 11
4.982
 21
2.196
 31
0.0
  0
LINE
  5
112
330
18
100
AcDbEntity
  8
0
100
AcDbLine
 10
4.836
 20
2.571
 30
0.0
 11
4.941
 21
2.429
 31
0.0
  0
LINE
  5
113
330
18
100
AcDbEntity
  8
0
100
AcDbLine
 10
4.941
 20
2.429
 30
0.0
 11
5.056
 21
2.331
 31
0.0
  0
LINE
  5
114
330
18
100
AcDbEntity
  8
0
100
AcDbLine
 10
4.836
 20
2.769
 30
0.0
 11
4.901
 21
2.653
 31
0.0
  0
LINE
  5
115
330
18
100
AcDbEntity
  8
0
100
AcDbLine
 10
4.901
 20
2.653
 30
0.0
 11
5.008
 21
2.553
 31
0.0
  0
LINE
  5
116
330
18
100
AcDbEntity
  8
0
100
AcDbLine
 10
5.008
 20
2.553
 30
0.0
 11
5.14
 21
2.453
 31
0.0
  0
LINE
  5
117
330
18
100
AcDbEntity
  8
0
100
AcDbLine
 10
4.836
 20
3.214
 30
0.0
 11
4.839
 21
3.205
 31
0.0
  0
LINE
  5
118
330
18
100
AcDbEntity
  8
0
100
AcDbLine
 10
4.839
 20
3.205
 30
0.0
 11
4.956
 21
2.89
 31
0.0
  0
LINE
  5
119
330
18
100
AcDbEntity
  8
0
100
AcDbLine
 10
4.956
 20
2.89
 30
0.0
 11
5.085
 21
2.761
 31
0.0
  0
LINE
  5
11A
330
18
100
AcDbEntity
  8
0
100
AcDbLine
 10
5.085
 20
2.761
 30
0.0
 11
5.162000000000001
 21
2.673
 31
0.0
  0
LINE
  5
11B
330
18
100
AcDbEntity
  8
0
100
AcDbLine
 10
5.162000000000001
 20
2.673
 30
0.0
 11
5.242999999999999
 21
2.622
 31
0.0
  0
LINE
  5
11C
330
18
100
AcDbEntity
  8
0
100
AcDbLine
 10
4.853
 20
2.155
 30
0.0
 11
4.926
 21
2.104
 31
0.0
  0
LINE
  5
11D
330
18
100
AcDbEntity
  8
0
100
AcDbLine
 10
4.899
 20
1.04
 30
0.0
 11
4.855
 21
1.106
 31
0.0
  0
LINE
  5
11E
330
18
100
AcDbEntity
  8
0
100
AcDbLine
 10
4.855
 20
1.106
 30
0.0
 11
4.836
 21
1.152
 31
0.0
  0
LINE
  5
11F
330
18
100
AcDbEntity
  8
0
100
AcDbLine
 10
4.987
 20
1.208
 30
0.0
 11
4.888999999999999
 21
1.311
 31
0.0
  0
LINE
  5
120
330
18
100
AcDbEntity
  8
0
100
AcDbLine
 10
4.888999999999999
 20
1.311
 30
0.0
 11
4.836
 21
1.409
 31
0.0
  0
LINE
  5
121
330
18
100
AcDbEntity
  8
0
100
AcDbLine
 10
5.067
 20
1.361
 30
0.0
 11
4.986000000000001
 21
1.441
 31
0.0
  0
LINE
  5
122
330
18
100
AcDbEntity
  8
0
100
AcDbLine
 10
4.986000000000001
 20
1.441
 30
0.0
 11
4.843999999999999
 21
1.628
 31
0.0
  0
LINE
  5
123
330
18
100
AcDbEntity
  8
0
100
AcDbLine
 10
4.843999999999999
 20
1.628
 30
0.0
 11
4.836
 21
1.643
 31
0.0
  0
LINE
  5
124
330
18
100
AcDbEntity
  8
0
100
AcDbLine
 10
5.165
 20
1.548
 30
0.0
 11
5.01
 21
1.695
 31
0.0
  0
LINE
  5
125
330
18
100
AcDbEntity
  8
0
100
AcDbLine
 10
5.01
 20
1.695
 30
0.0
 11
4.894
 21
1.855
 31
0.0
  0
LINE
  5
126
330
18
100
AcDbEntity
  8
0
100
AcDbLine
 10
4.894
 20
1.855
 30
0.0
 11
4.799
 21
1.965
 31
0.0
  0
LINE
  5
127
330
18
100
AcDbEntity
  8
0
100
AcDbLine
 10
5.228
 20
1.67
 30
0.0
 11
5.064
 21
1.83
 31
0.0
  0
LINE
  5
128
330
18
100
AcDbEntity
  8
0
100
AcDbLine
 10
5.064
 20
1.83
 30
0.0
 11
4.962
 21
1.969
 31
0.0
  0
LINE
  5
129
330
18
100
AcDbEntity
  8
0
100
AcDbLine
 10
4.962
 20
1.969
 30
0.0
 11
4.88
 21
2.03
 31
0.0
  0
LINE
  5
12A
330
18
100
AcDbEntity
  8
0
100
AcDbLine
 10
5.297999999999999
 20
1.803
 30
0.0
 11
5.178999999999999
 21
1.893
 31
0.0
  0
LINE
  5
12B
330
18
100
AcDbEntity
  8
0
100
AcDbLine
 10
5.178999999999999
 20
1.893
 30
0.0
 11
5.117
 21
2.006
 31
0.0
  0
LINE
  5
12C
330
18
100
AcDbEntity
  8
0
100
AcDbLine
 10
5.117
 20
2.006
 30
0.0
 11
5.041
 21
2.104
 31
0.0
  0
LINE
  5
12D
330
18
100
AcDbEntity
  8
0
100
AcDbLine
 10
5.041
 20
2.104
 30
0.0
 11
4.96
 21
2.16
 31
0.0
  0
LINE
  5
12E
330
18
100
AcDbEntity
  8
0
100
AcDbLine
 10
5.34
 20
1.935
 30
0.0
 11
5.277
 21
1.974
 31
0.0
  0
LINE
  5
12F
330
18
100
AcDbEntity
  8
0
100
AcDbLine
 10
5.277
 20
1.974
 30
0.0
 11
5.215
 21
2.089
 31
0.0
  0
LINE
  5
130
330
18
100
AcDbEntity
  8
0
100
AcDbLine
 10
5.215
 20
2.089
 30
0.0
 11
5.122000000000001
 21
2.241
 31
0.0
  0
LINE
  5
131
330
18
100
AcDbEntity
  8
0
100
AcDbLine
 10
5.122000000000001
 20
2.241
 30
0.0
 11
5.042
 21
2.293
 31
0.0
  0
LINE
  5
132
330
18
100
AcDbEntity
  8
0
100
AcDbLine
 10
5.34
 20
2.085
 30
0.0
 11
5.307
 21
2.12
 31
0.0
  0
LINE
  5
133
330
18
100
AcDbEntity
  8
0
100
AcDbLine
 10
5.307
 20
2.12
 30
0.0
 11
5.244
 21
2.274
 31
0.0
  0
LINE
  5
134
330
18
100
AcDbEntity
  8
0
100
AcDbLine
 10
5.244
 20
2.274
 30
0.0
 11
5.194
 21
2.362
 31
0.0
  0
LINE
  5
135
330
18
100
AcDbEntity
  8
0
100
AcDbLine
 10
5.194
 20
2.362
 30
0.0
 11
5.111000000000001
 21
2.406
 31
0.0
  0
LINE
  5
136
330
18
100
AcDbEntity
  8
0
100
AcDbLine
 10
5.34
 20
2.3
 30
0.0
 11
5.305
 21
2.332
 31
0.0
  0
LINE
  5
137
330
18
100
AcDbEntity
  8
0
100
AcDbLine
 10
5.305
 20
2.332
 30
0.0
 11
5.25
 21
2.457
 31
0.0
  0
LINE
  5
138
330
18
100
AcDbEntity
  8
0
100
AcDbLine
 10
5.25
 20
2.457
 30
0.0
 11
5.167999999999999
 21
2.499
 31
0.0
  0
LINE
  5
139
330
18
100
AcDbEntity
  8
0
100
AcDbLine
 10
5.34
 20
2.482
 30
0.0
 11
5.297000000000001
 21
2.536
 31
0.0
  0
LINE
  5
13A
330
18
100
AcDbEntity
  8
0
100
AcDbLine
 10
5.297000000000001
 20
2.536
 30
0.0
 11
5.224
 21
2.59
 31
0.0
  0
LINE
  5
13B
330
18
100
AcDbEntity
  8
0
100
AcDbLine
 10
3.693
 20
3.516
 30
0.0
 11
3.621
 21
3.241
 31
0.0
  0
LINE
  5
13C
330
18
100
AcDbEntity
  8
0
100
AcDbLine
 10
3.621
 20
3.241
 30
0.0
 11
3.576
 21
2.975
 31
0.0
  0
LINE
  5
13D
330
18
100
AcDbEntity
  8
0
100
AcDbLine
 10
3.571
 20
2.948
 30
0.0
 11
3.561
 21
2.887
 31
0.0
  0
LINE
  5
13E
330
18
100
AcDbEntity
  8
0
100
AcDbLine
 10
3.857
 20
3.539
 30
0.0
 11
3.74
 21
3.197
 31
0.0
  0
LINE
  5
13F
330
18
100
AcDbEntity
  8
0
100
AcDbLine
 10
3.74
 20
3.197
 30
0.0
 11
3.703
 21
3.008
 31
0.0
  0
LINE
  5
140
330
18
100
AcDbEntity
  8
0
100
AcDbLine
 10
3.696
 20
2.972
 30
0.0
 11
3.671
 21
2.845
 31
0.0
  0
LINE
  5
141
330
18
100
AcDbEntity
  8
0
100
AcDbLine
 10
3.671
 20
2.845
 30
0.0
 11
3.613
 21
2.474
 31
0.0
  0
LINE
  5
142
330
18
100
AcDbEntity
  8
0
100
AcDbLine
 10
3.613
 20
2.474
 30
0.0
 11
3.599
 21
2.375
 31
0.0
  0
LINE
  5
143
330
18
100
AcDbEntity
  8
0
100
AcDbLine
 10
3.599
 20
2.375
 30
0.0
 11
3.722
 21
2.192
 31
0.0
  0
LINE
  5
144
330
18
100
AcDbEntity
  8
0
100
AcDbLine
 10
3.722
 20
2.192
 30
0.0
 11
3.555
 21
2.038
 31
0.0
  0
LINE
  5
145
330
18
100
AcDbEntity
  8
0
100
AcDbLine
 10
3.555
 20
2.038
 30
0.0
 11
3.609
 21
1.907
 31
0.0
  0
LINE
  5
146
330
18
100
AcDbEntity
  8
0
100
AcDbLine
 10
3.609
 20
1.907
 30
0.0
 11
3.608
 21
1.659
 31
0.0
  0
LINE
  5
147
330
18
100
AcDbEntity
  8
0
100
AcDbLine
 10
3.608
 20
1.659
 30
0.0
 11
3.561
 21
1.46
 31
0.0
  0
LINE
  5
148
330
18
100
AcDbEntity
  8
0
100
AcDbLine
 10
3.961
 20
3.553
 30
0.0
 11
3.849
 21
3.206
 31
0.0
  0
LINE
  5
149
330
18
100
AcDbEntity
  8
0
100
AcDbLine
 10
3.849
 20
3.206
 30
0.0
 11
3.812
 21
3.04
 31
0.0
  0
LINE
  5
14A
330
18
100
AcDbEntity
  8
0
100
AcDbLine
 10
3.805
 20
3.01
 30
0.0
 11
3.775
 21
2.873
 31
0.0
  0
LINE
  5
14B
330
18
100
AcDbEntity
  8
0
100
AcDbLine
 10
3.775
 20
2.873
 30
0.0
 11
3.749
 21
2.669
 31
0.0
  0
LINE
  5
14C
330
18
100
AcDbEntity
  8
0
100
AcDbLine
 10
3.749
 20
2.669
 30
0.0
 11
3.752
 21
2.458
 31
0.0
  0
LINE
  5
14D
330
18
100
AcDbEntity
  8
0
100
AcDbLine
 10
3.752
 20
2.458
 30
0.0
 11
3.752
 21
2.398
 31
0.0
  0
LINE
  5
14E
330
18
100
AcDbEntity
  8
0
100
AcDbLine
 10
3.752
 20
2.398
 30
0.0
 11
3.855
 21
2.213
 31
0.0
  0
LINE
  5
14F
330
18
100
AcDbEntity
  8
0
100
AcDbLine
 10
3.855
 20
2.213
 30
0.0
 11
3.719
 21
2.065
 31
0.0
  0
LINE
  5
150
330
18
100
AcDbEntity
  8
0
100
AcDbLine
 10
3.719
 20
2.065
 30
0.0
 11
3.794
 21
1.938
 31
0.0
  0
LINE
  5
151
330
18
100
AcDbEntity
  8
0
100
AcDbLine
 10
3.794
 20
1.938
 30
0.0
 11
3.772
 21
1.793
 31
0.0
  0
LINE
  5
152
330
18
100
AcDbEntity
  8
0
100
AcDbLine
 10
3.772
 20
1.793
 30
0.0
 11
3.756
 21
1.577
 31
0.0
  0
LINE
  5
153
330
18
100
AcDbEntity
  8
0
100
AcDbLine
 10
3.756
 20
1.577
 30
0.0
 11
3.717
 21
1.34
 31
0.0
  0
LINE
  5
154
330
18
100
AcDbEntity
  8
0
100
AcDbLine
 10
3.717
 20
1.34
 30
0.0
 11
3.673
 21
1.155
 31
0.0
  0
LINE
  5
155
330
18
100
AcDbEntity
  8
0
100
AcDbLine
 10
3.673
 20
1.155
 30
0.0
 11
3.631
 21
0.978
 31
0.0
  0
LINE
  5
156
330
18
100
AcDbEntity
  8
0
100
AcDbLine
 10
3.631
 20
0.978
 30
0.0
 11
3.589
 21
0.895
 31
0.0
  0
LINE
  5
157
330
18
100
AcDbEntity
  8
0
100
AcDbLine
 10
3.589
 20
0.895
 30
0.0
 11
3.561
 21
0.852
 31
0.0
  0
LINE
  5
158
330
18
100
AcDbEntity
  8
0
100
AcDbLine
 10
4.115
 20
3.116
 30
0.0
 11
4.078
 21
2.956
 31
0.0
  0
LINE
  5
159
330
18
100
AcDbEntity
  8
0
100
AcDbLine
 10
4.078
 20
2.956
 30
0.0
 11
4.099
 21
2.727
 31
0.0
  0
LINE
  5
15A
330
18
100
AcDbEntity
  8
0
100
AcDbLine
 10
4.099
 20
2.727
 30
0.0
 11
4.136
 21
2.512
 31
0.0
  0
LINE
  5
15B
330
18
100
AcDbEntity
  8
0
100
AcDbLine
 10
4.136
 20
2.512
 30
0.0
 11
4.155
 21
2.458
 31
0.0
  0
LINE
  5
15C
330
18
100
AcDbEntity
  8
0
100
AcDbLine
 10
4.155
 20
2.458
 30
0.0
 11
4.226
 21
2.274
 31
0.0
  0
LINE
  5
15D
330
18
100
AcDbEntity
  8
0
100
AcDbLine
 10
4.226
 20
2.274
 30
0.0
 11
4.118
 21
2.131
 31
0.0
  0
LINE
  5
15E
330
18
100
AcDbEntity
  8
0
100
AcDbLine
 10
4.118
 20
2.131
 30
0.0
 11
4.192
 21
2.003
 31
0.0
  0
LINE
  5
15F
330
18
100
AcDbEntity
  8
0
100
AcDbLine
 10
4.192
 20
2.003
 30
0.0
 11
4.197
 21
1.863
 31
0.0
  0
LINE
  5
160
330
18
100
AcDbEntity
  8
0
100
AcDbLine
 10
4.197
 20
1.863
 30
0.0
 11
4.182
 21
1.457
 31
0.0
  0
LINE
  5
161
330
18
100
AcDbEntity
  8
0
100
AcDbLine
 10
4.182
 20
1.457
 30
0.0
 11
4.143
 21
1.156
 31
0.0
  0
LINE
  5
162
330
18
100
AcDbEntity
  8
0
100
AcDbLine
 10
4.143
 20
1.156
 30
0.0
 11
4.084
 21
0.885
 31
0.0
  0
LINE
  5
163
330
18
100
AcDbEntity
  8
0
100
AcDbLine
 10
4.084
 20
0.885
 30
0.0
 11
4.015
 21
0.6859999999999999
 31
0.0
  0
LINE
  5
164
330
18
100
AcDbEntity
  8
0
100
AcDbLine
 10
4.015
 20
0.6859999999999999
 30
0.0
 11
3.934
 21
0.467
 31
0.0
  0
LINE
  5
165
330
18
100
AcDbEntity
  8
0
100
AcDbLine
 10
3.934
 20
0.467
 30
0.0
 11
3.916
 21
0.4370000000000001
 31
0.0
  0
LINE
  5
166
330
18
100
AcDbEntity
  8
0
100
AcDbLine
 10
3.956
 20
3.061
 30
0.0
 11
3.942
 21
2.982
 31
0.0
  0
LINE
  5
167
330
18
100
AcDbEntity
  8
0
100
AcDbLine
 10
3.942
 20
2.982
 30
0.0
 11
3.915
 21
2.725
 31
0.0
  0
LINE
  5
168
330
18
100
AcDbEntity
  8
0
100
AcDbLine
 10
3.915
 20
2.725
 30
0.0
 11
3.93
 21
2.581
 31
0.0
  0
LINE
  5
169
330
18
100
AcDbEntity
  8
0
100
AcDbLine
 10
3.93
 20
2.581
 30
0.0
 11
3.957
 21
2.428
 31
0.0
  0
LINE
  5
16A
330
18
100
AcDbEntity
  8
0
100
AcDbLine
 10
3.957
 20
2.428
 30
0.0
 11
4.059
 21
2.247
 31
0.0
  0
LINE
  5
16B
330
18
100
AcDbEntity
  8
0
100
AcDbLine
 10
4.059
 20
2.247
 30
0.0
 11
3.924
 21
2.099
 31
0.0
  0
LINE
  5
16C
330
18
100
AcDbEntity
  8
0
100
AcDbLine
 10
3.924
 20
2.099
 30
0.0
 11
4.008
 21
1.973
 31
0.0
  0
LINE
  5
16D
330
18
100
AcDbEntity
  8
0
100
AcDbLine
 10
4.008
 20
1.973
 30
0.0
 11
4.005
 21
1.761
 31
0.0
  0
LINE
  5
16E
330
18
100
AcDbEntity
  8
0
100
AcDbLine
 10
4.005
 20
1.761
 30
0.0
 11
3.973
 21
1.497
 31
0.0
  0
LINE
  5
16F
330
18
100
AcDbEntity
  8
0
100
AcDbLine
 10
3.973
 20
1.497
 30
0.0
 11
3.929
 21
1.218
 31
0.0
  0
LINE
  5
170
330
18
100
AcDbEntity
  8
0
100
AcDbLine
 10
3.929
 20
1.218
 30
0.0
 11
3.889
 21
0.9370000000000001
 31
0.0
  0
LINE
  5
171
330
18
100
AcDbEntity
  8
0
100
AcDbLine
 10
3.889
 20
0.9370000000000001
 30
0.0
 11
3.832
 21
0.759
 31
0.0
  0
LINE
  5
172
330
18
100
AcDbEntity
  8
0
100
AcDbLine
 10
3.832
 20
0.759
 30
0.0
 11
3.775
 21
0.584
 31
0.0
  0
LINE
  5
173
330
18
100
AcDbEntity
  8
0
100
AcDbLine
 10
3.775
 20
0.584
 30
0.0
 11
3.637
 21
0.402
 31
0.0
  0
LINE
  5
174
330
18
100
AcDbEntity
  8
0
100
AcDbLine
 10
3.637
 20
0.402
 30
0.0
 11
3.626
 21
0.39
 31
0.0
  0
LINE
  5
175
330
18
100
AcDbEntity
  8
0
100
AcDbLine
 10
4.299
 20
3.18
 30
0.0
 11
4.294
 21
3.162
 31
0.0
  0
LINE
  5
176
330
18
100
AcDbEntity
  8
0
100
AcDbLine
 10
4.294
 20
3.162
 30
0.0
 11
4.288
 21
2.83
 31
0.0
  0
LINE
  5
177
330
18
100
AcDbEntity
  8
0
100
AcDbLine
 10
4.288
 20
2.83
 30
0.0
 11
4.322
 21
2.618
 31
0.0
  0
LINE
  5
178
330
18
100
AcDbEntity
  8
0
100
AcDbLine
 10
4.322
 20
2.618
 30
0.0
 11
4.356
 21
2.487
 31
0.0
  0
LINE
  5
179
330
18
100
AcDbEntity
  8
0
100
AcDbLine
 10
4.356
 20
2.487
 30
0.0
 11
4.412
 21
2.304
 31
0.0
  0
LINE
  5
17A
330
18
100
AcDbEntity
  8
0
100
AcDbLine
 10
4.412
 20
2.304
 30
0.0
 11
4.309
 21
2.163
 31
0.0
  0
LINE
  5
17B
330
18
100
AcDbEntity
  8
0
100
AcDbLine
 10
4.309
 20
2.163
 30
0.0
 11
4.396
 21
2.036
 31
0.0
  0
LINE
  5
17C
330
18
100
AcDbEntity
  8
0
100
AcDbLine
 10
4.396
 20
2.036
 30
0.0
 11
4.392
 21
1.807
 31
0.0
  0
LINE
  5
17D
330
18
100
AcDbEntity
  8
0
100
AcDbLine
 10
4.392
 20
1.807
 30
0.0
 11
4.385
 21
1.536
 31
0.0
  0
LINE
  5
17E
330
18
100
AcDbEntity
  8
0
100
AcDbLine
 10
4.385
 20
1.536
 30
0.0
 11
4.358000000000001
 21
1.301
 31
0.0
  0
LINE
  5
17F
330
18
100
AcDbEntity
  8
0
100
AcDbLine
 10
4.358000000000001
 20
1.301
 30
0.0
 11
4.315
 21
1.018
 31
0.0
  0
LINE
  5
180
330
18
100
AcDbEntity
  8
0
100
AcDbLine
 10
4.315
 20
1.018
 30
0.0
 11
4.271
 21
0.8090000000000001
 31
0.0
  0
LINE
  5
181
330
18
100
AcDbEntity
  8
0
100
AcDbLine
 10
4.271
 20
0.8090000000000001
 30
0.0
 11
4.224
 21
0.657
 31
0.0
  0
LINE
  5
182
330
18
100
AcDbEntity
  8
0
100
AcDbLine
 10
4.224
 20
0.657
 30
0.0
 11
4.18
 21
0.498
 31
0.0
  0
LINE
  5
183
330
18
100
AcDbEntity
  8
0
100
AcDbLine
 10
4.18
 20
0.498
 30
0.0
 11
4.17
 21
0.477
 31
0.0
  0
LINE
  5
184
330
18
100
AcDbEntity
  8
0
100
AcDbLine
 10
4.544
 20
3.491
 30
0.0
 11
4.49
 21
3.387
 31
0.0
  0
LINE
  5
185
330
18
100
AcDbEntity
  8
0
100
AcDbLine
 10
4.49
 20
3.387
 30
0.0
 11
4.478
 21
3.307
 31
0.0
  0
LINE
  5
186
330
18
100
AcDbEntity
  8
0
100
AcDbLine
 10
4.091
 20
3.571
 30
0.0
 11
4.084
 21
3.552
 31
0.0
  0
LINE
  5
187
330
18
100
AcDbEntity
  8
0
100
AcDbLine
 10
3.993
 20
3.282
 30
0.0
 11
3.96
 21
3.088
 31
0.0
  0
LINE
  5
188
330
18
100
AcDbEntity
  8
0
100
AcDbLine
 10
4.267
 20
3.595
 30
0.0
 11
4.214
 21
3.438
 31
0.0
  0
LINE
  5
189
330
18
100
AcDbEntity
  8
0
100
AcDbLine
 10
4.138999999999999
 20
3.22
 30
0.0
 11
4.123
 21
3.148
 31
0.0
  0
LINE
  5
18A
330
18
100
AcDbEntity
  8
0
100
AcDbLine
 10
4.44
 20
3.618
 30
0.0
 11
4.345
 21
3.321
 31
0.0
  0
LINE
  5
18B
330
18
100
AcDbEntity
  8
0
100
AcDbLine
 10
4.473
 20
3.27
 30
0.0
 11
4.465
 21
3.215
 31
0.0
  0
LINE
  5
18C
330
18
100
AcDbEntity
  8
0
100
AcDbLine
 10
4.454
 20
3.138
 30
0.0
 11
4.44
 21
2.884
 31
0.0
  0
LINE
  5
18D
330
18
100
AcDbEntity
  8
0
100
AcDbLine
 10
4.44
 20
2.884
 30
0.0
 11
4.447
 21
2.639
 31
0.0
  0
LINE
  5
18E
330
18
100
AcDbEntity
  8
0
100
AcDbLine
 10
4.447
 20
2.639
 30
0.0
 11
4.479
 21
2.506
 31
0.0
  0
LINE
  5
18F
330
18
100
AcDbEntity
  8
0
100
AcDbLine
 10
4.479
 20
2.506
 30
0.0
 11
4.55
 21
2.324
 31
0.0
  0
LINE
  5
190
330
18
100
AcDbEntity
  8
0
100
AcDbLine
 10
4.55
 20
2.324
 30
0.0
 11
4.43
 21
2.183
 31
0.0
  0
LINE
  5
191
330
18
100
AcDbEntity
  8
0
100
AcDbLine
 10
4.43
 20
2.183
 30
0.0
 11
4.496
 21
2.053
 31
0.0
  0
LINE
  5
192
330
18
100
AcDbEntity
  8
0
100
AcDbLine
 10
4.496
 20
2.053
 30
0.0
 11
4.526
 21
1.866
 31
0.0
  0
LINE
  5
193
330
18
100
AcDbEntity
  8
0
100
AcDbLine
 10
4.526
 20
1.866
 30
0.0
 11
4.51
 21
1.583
 31
0.0
  0
LINE
  5
194
330
18
100
AcDbEntity
  8
0
100
AcDbLine
 10
4.51
 20
1.583
 30
0.0
 11
4.48
 21
1.151
 31
0.0
  0
LINE
  5
195
330
18
100
AcDbEntity
  8
0
100
AcDbLine
 10
4.48
 20
1.151
 30
0.0
 11
4.437
 21
0.797
 31
0.0
  0
LINE
  5
196
330
18
100
AcDbEntity
  8
0
100
AcDbLine
 10
4.437
 20
0.797
 30
0.0
 11
4.384
 21
0.511
 31
0.0
  0
LINE
  5
197
330
18
100
AcDbEntity
  8
0
100
AcDbLine
 10
4.836
 20
3.751
 30
0.0
 11
4.843999999999999
 21
3.678
 31
0.0
  0
LINE
  5
198
330
18
100
AcDbEntity
  8
0
100
AcDbLine
 10
4.843999999999999
 20
3.678
 30
0.0
 11
4.881
 21
3.536
 31
0.0
  0
LINE
  5
199
330
18
100
AcDbEntity
  8
0
100
AcDbLine
 10
4.887
 20
3.512
 30
0.0
 11
4.94
 21
3.306
 31
0.0
  0
LINE
  5
19A
330
18
100
AcDbEntity
  8
0
100
AcDbLine
 10
4.94
 20
3.306
 30
0.0
 11
5.039
 21
3.069
 31
0.0
  0
LINE
  5
19B
330
18
100
AcDbEntity
  8
0
100
AcDbLine
 10
5.039
 20
3.069
 30
0.0
 11
5.199
 21
2.836
 31
0.0
  0
LINE
  5
19C
330
18
100
AcDbEntity
  8
0
100
AcDbLine
 10
5.199
 20
2.836
 30
0.0
 11
5.322
 21
2.75
 31
0.0
  0
LINE
  5
19D
330
18
100
AcDbEntity
  8
0
100
AcDbLine
 10
5.003
 20
3.587
 30
0.0
 11
5.003
 21
3.585
 31
0.0
  0
LINE
  5
19E
330
18
100
AcDbEntity
  8
0
100
AcDbLine
 10
5.003
 20
3.585
 30
0.0
 11
5.102
 21
3.283
 31
0.0
  0
LINE
  5
19F
330
18
100
AcDbEntity
  8
0
100
AcDbLine
 10
5.102
 20
3.283
 30
0.0
 11
5.175
 21
3.133
 31
0.0
  0
LINE
  5
1A0
330
18
100
AcDbEntity
  8
0
100
AcDbLine
 10
5.175
 20
3.133
 30
0.0
 11
5.218999999999999
 21
3.034
 31
0.0
  0
LINE
  5
1A1
330
18
100
AcDbEntity
  8
0
100
AcDbLine
 10
5.218999999999999
 20
3.034
 30
0.0
 11
5.276
 21
2.962
 31
0.0
  0
LINE
  5
1A2
330
18
100
AcDbEntity
  8
0
100
AcDbLine
 10
5.276
 20
2.962
 30
0.0
 11
5.372999999999999
 21
2.833
 31
0.0
  0
LINE
  5
1A3
330
18
100
AcDbEntity
  8
0
100
AcDbLine
 10
5.138999999999999
 20
3.674
 30
0.0
 11
5.155
 21
3.602
 31
0.0
  0
LINE
  5
1A4
330
18
100
AcDbEntity
  8
0
100
AcDbLine
 10
5.155
 20
3.602
 30
0.0
 11
5.244
 21
3.359
 31
0.0
  0
LINE
  5
1A5
330
18
100
AcDbEntity
  8
0
100
AcDbLine
 10
5.244
 20
3.359
 30
0.0
 11
5.295
 21
3.269
 31
0.0
  0
LINE
  5
1A6
330
18
100
AcDbEntity
  8
0
100
AcDbLine
 10
5.295
 20
3.269
 30
0.0
 11
5.34
 21
3.201
 31
0.0
  0
LINE
  5
1A7
330
18
100
AcDbEntity
  8
0
100
AcDbLine
 10
4.93
 20
4.697
 30
0.0
 11
4.99
 21
4.365
 31
0.0
  0
LINE
  5
1A8
330
18
100
AcDbEntity
  8
0
100
AcDbLine
 10
4.99
 20
4.365
 30
0.0
 11
5.064
 21
4.008
 31
0.0
  0
LINE
  5
1A9
330
18
100
AcDbEntity
  8
0
100
AcDbLine
 10
5.064
 20
4.008
 30
0.0
 11
5.107
 21
3.818
 31
0.0
  0
LINE
  5
1AA
330
18
100
AcDbEntity
  8
0
100
AcDbLine
 10
4.836
 20
4.494
 30
0.0
 11
4.873
 21
4.312
 31
0.0
  0
LINE
  5
1AB
330
18
100
AcDbEntity
  8
0
100
AcDbLine
 10
4.873
 20
4.312
 30
0.0
 11
4.933
 21
3.893
 31
0.0
  0
LINE
  5
1AC
330
18
100
AcDbEntity
  8
0
100
AcDbLine
 10
4.942
 20
3.849
 30
0.0
 11
4.997
 21
3.614
 31
0.0
  0
LINE
  5
1AD
330
18
100
AcDbEntity
  8
0
100
AcDbLine
 10
5.116000000000001
 20
3.776
 30
0.0
 11
5.125
 21
3.739
 31
0.0
  0
LINE
  5
1AE
330
18
100
AcDbEntity
  8
0
100
AcDbLine
 10
4.836
 20
2.238
 30
0.0
 11
5.073
 21
2.628
 31
0.0
  0
LINE
  5
1AF
330
18
100
AcDbEntity
  8
0
100
AcDbLine
 10
5.092
 20
2.659
 30
0.0
 11
5.34
 21
3.068
 31
0.0
  0
ARC
  5
1B0
330
18
100
AcDbEntity
  8
0
100
AcDbCircle
 10
2.372
 20
2.574
 30
0.0
 40
0.014
100
AcDbArc
 50
89.17299999999999
 51
123.459
  0
ARC
  5
1B1
330
18
100
AcDbEntity
  8
0
100
AcDbCircle
 10
2.38
 20
2.563
 30
0.0
 40
0.027
100
AcDbArc
 50
123.459
 51
147.893
  0
ARC
  5
1B2
330
18
100
AcDbEntity
  8
0
100
AcDbCircle
 10
2.391
 20
2.555
 30
0.0
 40
0.041
100
AcDbArc
 50
147.893
 51
165.048
  0
ARC
  5
1B3
330
18
100
AcDbEntity
  8
0
100
AcDbCircle
 10
2.41
 20
2.55
 30
0.0
 40
0.06
100
AcDbArc
 50
165.048
 51
179.173
  0
ARC
  5
1B4
330
18
100
AcDbEntity
  8
0
100
AcDbCircle
 10
2.41
 20
2.55
 30
0.0
 40
0.06
100
AcDbArc
 50
179.173
 51
193.298
  0
ARC
  5
1B5
330
18
100
AcDbEntity
  8
0
100
AcDbCircle
 10
2.391
 20
2.546
 30
0.0
 40
0.041
100
AcDbArc
 50
193.298
 51
210.453
  0
ARC
  5
1B6
330
18
100
AcDbEntity
  8
0
100
AcDbCircle
 10
2.379
 20
2.539
 30
0.0
 40
0.027
100
AcDbArc
 50
210.453
 51
234.887
  0
ARC
  5
1B7
330
18
100
AcDbEntity
  8
0
100
AcDbCircle
 10
2.372
 20
2.528
 30
0.0
 40
0.014
100
AcDbArc
 50
234.887
 51
269.173
  0
ARC
  5
1B8
330
18
100
AcDbEntity
  8
0
100
AcDbCircle
 10
2.372
 20
2.528
 30
0.0
 40
0.014
100
AcDbArc
 50
269.173
 51
303.459
  0
ARC
  5
1B9
330
18
100
AcDbEntity
  8
0
100
AcDbCircle
 10
2.364
 20
2.539
 30
0.0
 40
0.027
100
AcDbArc
 50
303.459
 51
327.893
  0
ARC
  5
1BA
330
18
100
AcDbEntity
  8
0
100
AcDbCircle
 10
2.353
 20
2.547
 30
0.0
 40
0.041
100
AcDbArc
 50
327.893
 51
345.048
  0
ARC
  5
1BB
330
18
100
AcDbEntity
  8
0
100
AcDbCircle
 10
2.334
 20
2.552
 30
0.0
 40
0.06
100
AcDbArc
 50
345.048
 51
359.173
  0
ARC
  5
1BC
330
18
100
AcDbEntity
  8
0
100
AcDbCircle
 10
2.334
 20
2.552
 30
0.0
 40
0.06
100
AcDbArc
 50
359.173
 51
13.298
  0
ARC
  5
1BD
330
18
100
AcDbEntity
  8
0
100
AcDbCircle
 10
2.353
 20
2.556
 30
0.0
 40
0.041
100
AcDbArc
 50
13.298
 51
30.453
  0
ARC
  5
1BE
330
18
100
AcDbEntity
  8
0
100
AcDbCircle
 10
2.365
 20
2.563
 30
0.0
 40
0.027
100
AcDbArc
 50
30.453
 51
54.887
  0
ARC
  5
1BF
330
18
100
AcDbEntity
  8
0
100
AcDbCircle
 10
2.372
 20
2.574
 30
0.0
 40
0.014
100
AcDbArc
 50
54.887
 51
89.17299999999999
  0
ARC
  5
1C0
330
18
100
AcDbEntity
  8
0
100
AcDbCircle
 10
2.381
 20
2.573
 30
0.0
 40
0.014
100
AcDbArc
 50
89.17299999999999
 51
102.459
  0
ARC
  5
1C1
330
18
100
AcDbEntity
  8
0
100
AcDbCircle
 10
2.381
 20
2.527
 30
0.0
 40
0.014
100
AcDbArc
 50
244.141
 51
269.173
  0
ARC
  5
1C2
330
18
100
AcDbEntity
  8
0
100
AcDbCircle
 10
2.381
 20
2.527
 30
0.0
 40
0.014
100
AcDbArc
 50
269.173
 51
303.459
  0
ARC
  5
1C3
330
18
100
AcDbEntity
  8
0
100
AcDbCircle
 10
2.373
 20
2.538
 30
0.0
 40
0.027
100
AcDbArc
 50
303.459
 51
327.893
  0
ARC
  5
1C4
330
18
100
AcDbEntity
  8
0
100
AcDbCircle
 10
2.362
 20
2.545
 30
0.0
 40
0.041
100
AcDbArc
 50
327.893
 51
345.048
  0
ARC
  5
1C5
330
18
100
AcDbEntity
  8
0
100
AcDbCircle
 10
2.343
 20
2.55
 30
0.0
 40
0.06
100
AcDbArc
 50
345.048
 51
359.173
  0
ARC
  5
1C6
330
18
100
AcDbEntity
  8
0
100
AcDbCircle
 10
2.343
 20
2.55
 30
0.0
 40
0.06
100
AcDbArc
 50
359.173
 51
13.298
  0
ARC
  5
1C7
330
18
100
AcDbEntity
  8
0
100
AcDbCircle
 10
2.362
 20
2.555
 30
0.0
 40
0.041
100
AcDbArc
 50
13.298
 51
30.453
  0
ARC
  5
1C8
330
18
100
AcDbEntity
  8
0
100
AcDbCircle
 10
2.374
 20
2.562
 30
0.0
 40
0.027
100
AcDbArc
 50
30.453
 51
54.887
  0
ARC
  5
1C9
330
18
100
AcDbEntity
  8
0
100
AcDbCircle
 10
2.381
 20
2.573
 30
0.0
 40
0.014
100
AcDbArc
 50
54.887
 51
89.17299999999999
  0
ARC
  5
1CA
330
18
100
AcDbEntity
  8
0
100
AcDbCircle
 10
2.381
 20
2.261
 30
0.0
 40
0.014
100
AcDbArc
 50
244.141
 51
269.173
  0
ARC
  5
1CB
330
18
100
AcDbEntity
  8
0
100
AcDbCircle
 10
2.381
 20
2.261
 30
0.0
 40
0.014
100
AcDbArc
 50
269.173
 51
303.459
  0
ARC
  5
1CC
330
18
100
AcDbEntity
  8
0
100
AcDbCircle
 10
2.373
 20
2.272
 30
0.0
 40
0.027
100
AcDbArc
 50
303.459
 51
327.893
  0
ARC
  5
1CD
330
18
100
AcDbEntity
  8
0
100
AcDbCircle
 10
2.362
 20
2.279
 30
0.0
 40
0.041
100
AcDbArc
 50
327.893
 51
345.048
  0
ARC
  5
1CE
330
18
100
AcDbEntity
  8
0
100
AcDbCircle
 10
2.343
 20
2.284
 30
0.0
 40
0.06
100
AcDbArc
 50
345.048
 51
359.173
  0
ARC
  5
1CF
330
18
100
AcDbEntity
  8
0
100
AcDbCircle
 10
2.343
 20
2.284
 30
0.0
 40
0.06
100
AcDbArc
 50
359.173
 51
13.298
  0
ARC
  5
1D0
330
18
100
AcDbEntity
  8
0
100
AcDbCircle
 10
2.362
 20
2.289
 30
0.0
 40
0.041
100
AcDbArc
 50
13.298
 51
30.453
  0
ARC
  5
1D1
330
18
100
AcDbEntity
  8
0
100
AcDbCircle
 10
2.374
 20
2.296
 30
0.0
 40
0.027
100
AcDbArc
 50
30.453
 51
54.887
  0
ARC
  5
1D2
330
18
100
AcDbEntity
  8
0
100
AcDbCircle
 10
2.381
 20
2.307
 30
0.0
 40
0.014
100
AcDbArc
 50
54.887
 51
89.17299999999999
  0
ARC
  5
1D3
330
18
100
AcDbEntity
  8
0
100
AcDbCircle
 10
2.381
 20
2.307
 30
0.0
 40
0.014
100
AcDbArc
 50
89.17299999999999
 51
102.459
  0
ARC
  5
1D4
330
18
100
AcDbEntity
  8
0
100
AcDbCircle
 10
2.372
 20
2.308
 30
0.0
 40
0.014
100
AcDbArc
 50
89.17299999999999
 51
123.459
  0
ARC
  5
1D5
330
18
100
AcDbEntity
  8
0
100
AcDbCircle
 10
2.38
 20
2.297
 30
0.0
 40
0.027
100
AcDbArc
 50
123.459
 51
147.893
  0
ARC
  5
1D6
330
18
100
AcDbEntity
  8
0
100
AcDbCircle
 10
2.391
 20
2.289
 30
0.0
 40
0.041
100
AcDbArc
 50
147.893
 51
165.048
  0
ARC
  5
1D7
330
18
100
AcDbEntity
  8
0
100
AcDbCircle
 10
2.41
 20
2.284
 30
0.0
 40
0.06
100
AcDbArc
 50
165.048
 51
179.173
  0
ARC
  5
1D8
330
18
100
AcDbEntity
  8
0
100
AcDbCircle
 10
2.41
 20
2.284
 30
0.0
 40
0.06
100
AcDbArc
 50
179.173
 51
193.298
  0
ARC
  5
1D9
330
18
100
AcDbEntity
  8
0
100
AcDbCircle
 10
2.391
 20
2.28
 30
0.0
 40
0.041
100
AcDbArc
 50
193.298
 51
210.453
  0
ARC
  5
1DA
330
18
100
AcDbEntity
  8
0
100
AcDbCircle
 10
2.379
 20
2.273
 30
0.0
 40
0.027
100
AcDbArc
 50
210.453
 51
234.887
  0
ARC
  5
1DB
330
18
100
AcDbEntity
  8
0
100
AcDbCircle
 10
2.372
 20
2.262
 30
0.0
 40
0.014
100
AcDbArc
 50
234.887
 51
269.173
  0
ARC
  5
1DC
330
18
100
AcDbEntity
  8
0
100
AcDbCircle
 10
2.372
 20
2.262
 30
0.0
 40
0.014
100
AcDbArc
 50
269.173
 51
303.459
  0
ARC
  5
1DD
330
18
100
AcDbEntity
  8
0
100
AcDbCircle
 10
2.364
 20
2.273
 30
0.0
 40
0.027
100
AcDbArc
 50
303.459
 51
327.893
  0
ARC
  5
1DE
330
18
100
AcDbEntity
  8
0
100
AcDbCircle
 10
2.353
 20
2.28
 30
0.0
 40
0.041
100
AcDbArc
 50
327.893
 51
345.048
  0
ARC
  5
1DF
330
18
100
AcDbEntity
  8
0
100
AcDbCircle
 10
2.334
 20
2.285
 30
0.0
 40
0.06
100
AcDbArc
 50
345.048
 51
359.173
  0
ARC
  5
1E0
330
18
100
AcDbEntity
  8
0
100
AcDbCircle
 10
2.334
 20
2.285
 30
0.0
 40
0.06
100
AcDbArc
 50
359.173
 51
13.298
  0
ARC
  5
1E1
330
18
100
AcDbEntity
  8
0
100
AcDbCircle
 10
2.353
 20
2.29
 30
0.0
 40
0.041
100
AcDbArc
 50
13.298
 51
30.453
  0
ARC
  5
1E2
330
18
100
AcDbEntity
  8
0
100
AcDbCircle
 10
2.365
 20
2.297
 30
0.0
 40
0.027
100
AcDbArc
 50
30.453
 51
54.887
  0
ARC
  5
1E3
330
18
100
AcDbEntity
  8
0
100
AcDbCircle
 10
2.372
 20
2.308
 30
0.0
 40
0.014
100
AcDbArc
 50
54.887
 51
89.17299999999999
  0
LINE
  5
1E4
330
18
100
AcDbEntity
  8
0
100
AcDbLine
 10
4.46
 20
3.181
 30
0.0
 11
4.454
 21
3.138
 31
0.0
  0
LINE
  5
1E5
330
18
100
AcDbEntity
  8
0
100
AcDbLine
 10
4.334
 20
3.288
 30
0.0
 11
4.315
 21
3.229
 31
0.0
  0
LINE
  5
1E6
330
18
100
AcDbEntity
  8
0
100
AcDbLine
 10
4.201000000000001
 20
3.4
 30
0.0
 11
4.138999999999999
 21
3.22
 31
0.0
  0
LINE
  5
1E7
330
18
100
AcDbEntity
  8
0
100
AcDbLine
 10
4.072
 20
3.514
 30
0.0
 11
3.993
 21
3.282
 31
0.0
  0
LINE
  5
1E8
330
18
100
AcDbEntity
  8
0
100
AcDbLine
 10
4.067
 20
3.567
 30
0.0
 11
4.544
 21
3.632
 31
0.0
  0
LINE
  5
1E9
330
18
100
AcDbEntity
  8
0
100
AcDbLine
 10
3.766
 20
4.393
 30
0.0
 11
3.766
 21
4.687
 31
0.0
  0
LINE
  5
1EA
330
18
100
AcDbEntity
  8
0
100
AcDbLine
 10
3.805
 20
4.376
 30
0.0
 11
3.805
 21
4.676
 31
0.0
  0
ARC
  5
1EB
330
18
100
AcDbEntity
  8
0
100
AcDbCircle
 10
4.862
 20
3.158
 30
0.0
 40
1.215
100
AcDbArc
 50
353.412
 51
12.167
  0
LINE
  5
1EC
330
18
100
AcDbEntity
  8
0
100
AcDbLine
 10
1.648
 20
4.189
 30
0.0
 11
1.713
 21
4.181
 31
0.0
  0
TEXT
  5
1ED
330
18
100
AcDbEntity
  8
0
100
AcDbText
 10
0.444962
 20
0.7285550000000001
 30
0.0
 40
0.15
  1
Simpson Strong-Tie
100
AcDbText
  0
TEXT
  5
1EE
330
18
100
AcDbEntity
  8
0
100
AcDbText
 10
0.444962
 20
0.485698
 30
0.0
 40
0.15
  1
W SERIES
100
AcDbText
  0
ENDSEC
  0
SECTION
  2
OBJECTS
  0
DICTIONARY
  5
C
330
0
100
AcDbDictionary
281
     1
  3
ACAD_COLOR
350
1F4
  3
ACAD_GROUP
350
D
  3
ACAD_LAYOUT
350
15
  3
ACAD_MATERIAL
350
1F6
  3
ACAD_MLINESTYLE
350
12
  3
ACAD_PLOTSETTINGS
350
14
  3
ACAD_PLOTSTYLENAME
350
E
  3
ACDBHEADERROUNDTRIPXREC
350
1F3
  0
DICTIONARY
  5
1F4
102
{ACAD_REACTORS
330
C
102
}
330
C
100
AcDbDictionary
281
     1
  0
DICTIONARY
  5
D
102
{ACAD_REACTORS
330
C
102
}
330
C
100
AcDbDictionary
281
     1
  0
DICTIONARY
  5
15
102
{ACAD_REACTORS
330
C
102
}
330
C
100
AcDbDictionary
281
     1
  3
Layout1
350
17
  3
Model
350
19
  0
DICTIONARY
  5
1F6
102
{ACAD_REACTORS
330
C
102
}
330
C
100
AcDbDictionary
281
     1
  0
DICTIONARY
  5
12
102
{ACAD_REACTORS
330
C
102
}
330
C
100
AcDbDictionary
281
     1
  3
Standard
350
13
  0
DICTIONARY
  5
14
102
{ACAD_REACTORS
330
C
102
}
330
C
100
AcDbDictionary
281
     1
  0
ACDBDICTIONARYWDFLT
  5
E
102
{ACAD_REACTORS
330
C
102
}
330
C
100
AcDbDictionary
281
     1
  3
Normal
350
F
100
AcDbDictionaryWithDefault
340
F
  0
DICTIONARY
  5
1F3
102
{ACAD_REACTORS
330
C
102
}
330
C
100
AcDbDictionary
281
     1
  3
COLORDICT
350
1F5
  3
MATERIALDICT
350
1F7
  0
LAYOUT
  5
17
102
{ACAD_REACTORS
330
15
102
}
102
{ACAD_XDICTIONARY
360
1F8
102
}
330
15
100
AcDbPlotSettings
  1

  2

  4

  6

 40
0.0
 41
0.0
 42
0.0
 43
0.0
 44
0.0
 45
0.0
 46
0.0
 47
0.0
 48
0.0
 49
0.0
140
0.0
141
0.0
142
1.0
143
1.0
 70
   688
 72
     0
 73
     0
 74
     5
  7

 75
    16
147
1.0
148
0.0
149
0.0
100
AcDbLayout
  1
Layout1
 70
     1
 71
     1
 10
0.0
 20
0.0
 11
12.0
 21
9.0
 12
0.0
 22
0.0
 32
0.0
 14
1.000000000000000E+20
 24
1.000000000000000E+20
 34
1.000000000000000E+20
 15
-1.000000000000000E+20
 25
-1.000000000000000E+20
 35
-1.000000000000000E+20
146
0.0
 13
0.0
 23
0.0
 33
0.0
 16
1.0
 26
0.0
 36
0.0
 17
0.0
 27
1.0
 37
0.0
 76
     0
330
16
  0
LAYOUT
  5
19
102
{ACAD_REACTORS
330
15
102
}
102
{ACAD_XDICTIONARY
360
1FA
102
}
330
15
100
AcDbPlotSettings
  1

  2

  4

  6

 40
0.0
 41
0.0
 42
0.0
 43
0.0
 44
0.0
 45
0.0
 46
0.0
 47
0.0
 48
0.0
 49
0.0
140
0.0
141
0.0
142
1.0
143
1.0
 70
  1712
 72
     0
 73
     0
 74
     0
  7

 75
     0
147
1.0
148
0.0
149
0.0
100
AcDbLayout
  1
Model
 70
     1
 71
     0
 10
0.0
 20
0.0
 11
0.0
 21
0.0
 12
0.0
 22
0.0
 32
0.0
 14
0.0
 24
0.0
 34
0.0
 15
0.0
 25
0.0
 35
0.0
146
0.0
 13
0.0
 23
0.0
 33
0.0
 16
1.0
 26
0.0
 36
0.0
 17
0.0
 27
1.0
 37
0.0
 76
     0
330
18
  0
MLINESTYLE
  5
13
102
{ACAD_REACTORS
330
12
102
}
330
12
100
AcDbMlineStyle
  2
Standard
 70
     0
  3

 62
   256
 51
90.0
 52
90.0
 71
     2
 49
0.5
 62
   256
  6
BYLAYER
 49
-0.5
 62
   256
  6
BYLAYER
  0
ACDBPLACEHOLDER
  5
F
102
{ACAD_REACTORS
330
E
102
}
330
E
  0
XRECORD
  5
1F5
102
{ACAD_REACTORS
330
1F3
102
}
330
1F3
100
AcDbXrecord
340
1F4
  0
XRECORD
  5
1F7
102
{ACAD_REACTORS
330
1F3
102
}
330
1F3
100
AcDbXrecord
340
1F6
  0
DICTIONARY
  5
1F8
330
17
100
AcDbDictionary
280
     1
281
     1
  3
ACAD_XREC_ROUNDTRIP
360
1F9
  0
DICTIONARY
  5
1FA
330
19
100
AcDbDictionary
280
     1
281
     1
  3
ACAD_XREC_ROUNDTRIP
360
1FB
  0
XRECORD
  5
1F9
102
{ACAD_REACTORS
330
1F8
102
}
330
1F8
100
AcDbXrecord
102
SHADEPLOT
 70
     0
102
SHADEPLOTRESLEVEL
 70
     0
102
SHADEPLOTCUSTOMDPI
 70
     0
  0
XRECORD
  5
1FB
102
{ACAD_REACTORS
330
1FA
102
}
330
1FA
100
AcDbXrecord
102
SHADEPLOT
 70
     0
102
SHADEPLOTRESLEVEL
 70
     0
102
SHADEPLOTCUSTOMDPI
 70
     0
  0
ENDSEC
  0
EOF
