  0
SECTION
  2
HEADER
  9
$ACADVER
  1
AC1015
  9
$ACADMAINTVER
 70
     6
  9
$DWGCODEPAGE
  3
ANSI_1252
  9
$INSBASE
 10
0.0
 20
0.0
 30
0.0
  9
$EXTMIN
 10
-47.97323283692492
 20
-32.23103495876688
 30
-0.0015258207003612
  9
$EXTMAX
 10
67.77201291669613
 20
57.69430334301516
 30
0.0000000349246008
  9
$LIMMIN
 10
-48.20859917534722
 20
-31.90020616319444
  9
$LIMMAX
 10
67.76847330729166
 20
57.69156901041666
  9
$ORTHOMODE
 70
     0
  9
$REGENMODE
 70
     1
  9
$FILLMODE
 70
     1
  9
$QTEXTMODE
 70
     0
  9
$MIRRTEXT
 70
     1
  9
$LTSCALE
 40
1.0
  9
$ATTMODE
 70
     1
  9
$TEXTSIZE
 40
0.2
  9
$TRACEWID
 40
0.05
  9
$TEXTSTYLE
  7
STANDARD
  9
$CLAYER
  8
0
  9
$CELTYPE
  6
CONTINUOUS
  9
$CECOLOR
 62
   256
  9
$CELTSCALE
 40
1.0
  9
$DISPSILH
 70
     0
  9
$DIMSCALE
 40
1.0
  9
$DIMASZ
 40
0.18
  9
$DIMEXO
 40
0.0625
  9
$DIMDLI
 40
0.38
  9
$DIMRND
 40
0.0
  9
$DIMDLE
 40
0.0
  9
$DIMEXE
 40
0.18
  9
$DIMTP
 40
0.0
  9
$DIMTM
 40
0.0
  9
$DIMTXT
 40
0.18
  9
$DIMCEN
 40
0.09
  9
$DIMTSZ
 40
0.0
  9
$DIMTOL
 70
     0
  9
$DIMLIM
 70
     0
  9
$DIMTIH
 70
     1
  9
$DIMTOH
 70
     1
  9
$DIMSE1
 70
     0
  9
$DIMSE2
 70
     0
  9
$DIMTAD
 70
     0
  9
$DIMZIN
 70
     0
  9
$DIMBLK
  1

  9
$DIMASO
 70
     1
  9
$DIMSHO
 70
     1
  9
$DIMPOST
  1

  9
$DIMAPOST
  1

  9
$DIMALT
 70
     0
  9
$DIMALTD
 70
     2
  9
$DIMALTF
 40
25.4
  9
$DIMLFAC
 40
1.0
  9
$DIMTOFL
 70
     0
  9
$DIMTVP
 40
0.0
  9
$DIMTIX
 70
     0
  9
$DIMSOXD
 70
     0
  9
$DIMSAH
 70
     0
  9
$DIMBLK1
  1

  9
$DIMBLK2
  1

  9
$DIMSTYLE
  2
STANDARD
  9
$DIMCLRD
 70
     0
  9
$DIMCLRE
 70
     0
  9
$DIMCLRT
 70
     0
  9
$DIMTFAC
 40
1.0
  9
$DIMGAP
 40
0.09
  9
$DIMJUST
 70
     0
  9
$DIMSD1
 70
     0
  9
$DIMSD2
 70
     0
  9
$DIMTOLJ
 70
     1
  9
$DIMTZIN
 70
     0
  9
$DIMALTZ
 70
     0
  9
$DIMALTTZ
 70
     0
  9
$DIMUPT
 70
     0
  9
$DIMDEC
 70
     4
  9
$DIMTDEC
 70
     4
  9
$DIMALTU
 70
     2
  9
$DIMALTTD
 70
     2
  9
$DIMTXSTY
  7
STANDARD
  9
$DIMAUNIT
 70
     0
  9
$DIMADEC
 70
     0
  9
$DIMALTRND
 40
0.0
  9
$DIMAZIN
 70
     0
  9
$DIMDSEP
 70
    46
  9
$DIMATFIT
 70
     3
  9
$DIMFRAC
 70
     0
  9
$DIMLDRBLK
  1

  9
$DIMLUNIT
 70
     2
  9
$DIMLWD
 70
    -2
  9
$DIMLWE
 70
    -2
  9
$DIMTMOVE
 70
     0
  9
$LUNITS
 70
     2
  9
$LUPREC
 70
     4
  9
$SKETCHINC
 40
0.1
  9
$FILLETRAD
 40
0.0
  9
$AUNITS
 70
     0
  9
$AUPREC
 70
     0
  9
$MENU
  1
acad
  9
$ELEVATION
 40
0.0
  9
$PELEVATION
 40
0.0
  9
$THICKNESS
 40
0.0
  9
$LIMCHECK
 70
     0
  9
$CHAMFERA
 40
0.0
  9
$CHAMFERB
 40
0.0
  9
$CHAMFERC
 40
0.0
  9
$CHAMFERD
 40
0.0
  9
$SKPOLY
 70
     0
  9
$TDCREATE
 40
2444971.666666667
  9
$TDUCREATE
 40
2444972.0
  9
$TDUPDATE
 40
2452219.454797685
  9
$TDUUPDATE
 40
2452219.788131019
  9
$TDINDWG
 40
0.0004539352
  9
$TDUSRTIMER
 40
0.0004539352
  9
$USRTIMER
 70
     1
  9
$ANGBASE
 50
0.0
  9
$ANGDIR
 70
     0
  9
$PDMODE
 70
     0
  9
$PDSIZE
 40
0.0
  9
$PLINEWID
 40
0.0
  9
$SPLFRAME
 70
     0
  9
$SPLINETYPE
 70
     6
  9
$SPLINESEGS
 70
     8
  9
$HANDSEED
  5
252
  9
$SURFTAB1
 70
     6
  9
$SURFTAB2
 70
     6
  9
$SURFTYPE
 70
     6
  9
$SURFU
 70
     6
  9
$SURFV
 70
     6
  9
$UCSBASE
  2

  9
$UCSNAME
  2

  9
$UCSORG
 10
0.0
 20
0.0
 30
0.0
  9
$UCSXDIR
 10
1.0
 20
0.0
 30
0.0
  9
$UCSYDIR
 10
0.0
 20
1.0
 30
0.0
  9
$UCSORTHOREF
  2

  9
$UCSORTHOVIEW
 70
     0
  9
$UCSORGTOP
 10
0.0
 20
0.0
 30
0.0
  9
$UCSORGBOTTOM
 10
0.0
 20
0.0
 30
0.0
  9
$UCSORGLEFT
 10
0.0
 20
0.0
 30
0.0
  9
$UCSORGRIGHT
 10
0.0
 20
0.0
 30
0.0
  9
$UCSORGFRONT
 10
0.0
 20
0.0
 30
0.0
  9
$UCSORGBACK
 10
0.0
 20
0.0
 30
0.0
  9
$PUCSBASE
  2

  9
$PUCSNAME
  2

  9
$PUCSORG
 10
0.0
 20
0.0
 30
0.0
  9
$PUCSXDIR
 10
1.0
 20
0.0
 30
0.0
  9
$PUCSYDIR
 10
0.0
 20
1.0
 30
0.0
  9
$PUCSORTHOREF
  2

  9
$PUCSORTHOVIEW
 70
     0
  9
$PUCSORGTOP
 10
0.0
 20
0.0
 30
0.0
  9
$PUCSORGBOTTOM
 10
0.0
 20
0.0
 30
0.0
  9
$PUCSORGLEFT
 10
0.0
 20
0.0
 30
0.0
  9
$PUCSORGRIGHT
 10
0.0
 20
0.0
 30
0.0
  9
$PUCSORGFRONT
 10
0.0
 20
0.0
 30
0.0
  9
$PUCSORGBACK
 10
0.0
 20
0.0
 30
0.0
  9
$USERI1
 70
     0
  9
$USERI2
 70
     0
  9
$USERI3
 70
     0
  9
$USERI4
 70
     0
  9
$USERI5
 70
     0
  9
$USERR1
 40
0.0
  9
$USERR2
 40
0.0
  9
$USERR3
 40
0.0
  9
$USERR4
 40
0.0
  9
$USERR5
 40
0.0
  9
$WORLDVIEW
 70
     1
  9
$SHADEDGE
 70
     3
  9
$SHADEDIF
 70
    70
  9
$TILEMODE
 70
     1
  9
$MAXACTVP
 70
    16
  9
$PINSBASE
 10
0.0
 20
0.0
 30
0.0
  9
$PLIMCHECK
 70
     0
  9
$PEXTMIN
 10
1.000000000000000E+20
 20
1.000000000000000E+20
 30
1.000000000000000E+20
  9
$PEXTMAX
 10
-1.000000000000000E+20
 20
-1.000000000000000E+20
 30
-1.000000000000000E+20
  9
$PLIMMIN
 10
0.0
 20
0.0
  9
$PLIMMAX
 10
12.0
 20
9.0
  9
$UNITMODE
 70
     0
  9
$VISRETAIN
 70
     0
  9
$PLINEGEN
 70
     1
  9
$PSLTSCALE
 70
     0
  9
$TREEDEPTH
 70
  3020
  9
$CMLSTYLE
  2
STANDARD
  9
$CMLJUST
 70
     0
  9
$CMLSCALE
 40
1.0
  9
$PROXYGRAPHICS
 70
     0
  9
$MEASUREMENT
 70
     0
  9
$CELWEIGHT
370
    -1
  9
$ENDCAPS
280
     0
  9
$JOINSTYLE
280
     0
  9
$LWDISPLAY
290
     0
  9
$INSUNITS
 70
     0
  9
$HYPERLINKBASE
  1

  9
$STYLESHEET
  1

  9
$XEDIT
290
     1
  9
$CEPSNTYPE
380
     0
  9
$PSTYLEMODE
290
     1
  9
$FINGERPRINTGUID
  2
{0AE0D07D-D1C7-11D5-923F-00805F198AD5}
  9
$VERSIONGUID
  2
{0AE0D07F-D1C7-11D5-923F-00805F198AD5}
  9
$EXTNAMES
290
     1
  9
$PSVPSCALE
 40
0.0
  9
$OLESTARTUP
290
     0
  0
ENDSEC
  0
SECTION
  2
CLASSES
  0
CLASS
  1
LWPOLYLINE
  2
AcDbPolyline
  3
AutoCAD 2000
 90
        0
280
     0
281
     1
  0
CLASS
  1
IMAGE
  2
AcDbRasterImage
  3
ISM
 90
      127
280
     0
281
     1
  0
CLASS
  1
OLE2FRAME
  2
AcDbOle2Frame
  3
AutoCAD 2000
 90
        0
280
     0
281
     1
  0
CLASS
  1
HATCH
  2
AcDbHatch
  3
AutoCAD 2000
 90
        0
280
     0
281
     1
  0
CLASS
  1
DICTIONARYVAR
  2
AcDbDictionaryVar
  3
AutoCAD 2000
 90
        0
280
     0
281
     0
  0
CLASS
  1
RASTERVARIABLES
  2
AcDbRasterVariables
  3
ISM
 90
        0
280
     0
281
     0
  0
CLASS
  1
IMAGEDEF
  2
AcDbRasterImageDef
  3
ISM
 90
        0
280
     0
281
     0
  0
CLASS
  1
IMAGEDEF_REACTOR
  2
AcDbRasterImageDefReactor
  3
ISM
 90
        1
280
     0
281
     0
  0
CLASS
  1
IDBUFFER
  2
AcDbIdBuffer
  3
AutoCAD 2000
 90
        0
280
     0
281
     0
  0
CLASS
  1
SPATIAL_FILTER
  2
AcDbSpatialFilter
  3
AutoCAD 2000
 90
        0
280
     0
281
     0
  0
CLASS
  1
XRECORD
  2
AcDbXrecord
  3
AutoCAD 2000
 90
        0
280
     0
281
     0
  0
CLASS
  1
SORTENTSTABLE
  2
AcDbSortentsTable
  3
AutoCAD 2000
 90
        0
280
     0
281
     0
  0
CLASS
  1
LAYER_INDEX
  2
AcDbLayerIndex
  3
AutoCAD 2000
 90
        0
280
     0
281
     0
  0
CLASS
  1
SPATIAL_INDEX
  2
AcDbSpatialIndex
  3
AutoCAD 2000
 90
        0
280
     0
281
     0
  0
CLASS
  1
OBJECT_PTR
  2
CAseDLPNTableRecord
  3
ASE-LPNTableRecord
 90
        1
280
     1
281
     0
  0
CLASS
  1
LAYOUT
  2
AcDbLayout
  3
ObjectDBX Classes
 90
        0
280
     0
281
     0
  0
CLASS
  1
PLOTSETTINGS
  2
AcDbPlotSettings
  3
AutoCAD 2000
 90
        0
280
     0
281
     0
  0
CLASS
  1
ACDBDICTIONARYWDFLT
  2
AcDbDictionaryWithDefault
  3
AutoCAD 2000
 90
        0
280
     0
281
     0
  0
CLASS
  1
ACDBPLACEHOLDER
  2
AcDbPlaceHolder
  3
ObjectDBX Classes
 90
        0
280
     0
281
     0
  0
CLASS
  1
VBAPROJECT
  2
AcDbVbaProject
  3
ObjectDBX Classes
 90
        0
280
     0
281
     0
  0
CLASS
  1
WIPEOUT
  2
AcDbWipeout
  3
WipeOut|AutoCAD Express Tool|expresstools@autodesk.com
 90
      127
280
     0
281
     1
  0
CLASS
  1
WIPEOUTVARIABLES
  2
AcDbWipeoutVariables
  3
WipeOut|AutoCAD Express Tool|expresstools@autodesk.com
 90
        0
280
     0
281
     0
  0
CLASS
  1
RTEXT
  2
RText
  3
RText|AutoCAD Express Tool|expresstools@autodesk.com
 90
        0
280
     0
281
     1
  0
CLASS
  1
ARCALIGNEDTEXT
  2
AcDbArcAlignedText
  3
ATEXT|AutoCAD Express Tool|expresstools@autodesk.com
 90
        0
280
     0
281
     1
  0
CLASS
  1
LONG_TRANSACTION
  2
AcDbLongTransaction
  3
AutoCAD 2000
 90
        0
280
     1
281
     0
  0
CLASS
  1
LWPOLYLINE
  2
AcDbPolyline
  3
AutoCAD 2000
 90
        0
280
     0
281
     1
  0
CLASS
  1
HATCH
  2
AcDbHatch
  3
AutoCAD 2000
 90
        0
280
     0
281
     1
  0
CLASS
  1
XRECORD
  2
AcDbXrecord
  3
AutoCAD 2000
 90
        0
280
     0
281
     0
  0
ENDSEC
  0
SECTION
  2
TABLES
  0
TABLE
  2
VPORT
  5
7
330
0
100
AcDbSymbolTable
 70
     2
  0
VPORT
  5
21E
330
7
100
AcDbSymbolTableRecord
100
AcDbViewportTableRecord
  2
*Active
 70
     0
 10
0.0
 20
0.0
 11
1.0
 21
1.0
 12
9.899390039885608
 22
12.73163419212414
 13
0.0
 23
0.0
 14
1.0
 24
1.0
 15
0.0
 25
0.0
 16
0.0
 26
0.0
 36
1.0
 17
0.0
 27
0.0
 37
0.0
 40
91.34148536165262
 41
1.836842105263158
 42
50.0
 43
0.0
 44
0.0
 50
0.0
 51
0.0
 71
     0
 72
   100
 73
     1
 74
     1
 75
     0
 76
     0
 77
     0
 78
     0
281
     0
 65
     1
110
0.0
120
0.0
130
0.0
111
1.0
121
0.0
131
0.0
112
0.0
122
1.0
132
0.0
 79
     0
146
0.0
  0
ENDTAB
  0
TABLE
  2
LTYPE
  5
4
330
0
100
AcDbSymbolTable
 70
     1
  0
LTYPE
  5
11
330
4
100
AcDbSymbolTableRecord
100
AcDbLinetypeTableRecord
  2
BYBLOCK
 70
     0
  3

 72
    65
 73
     0
 40
0.0
  0
LTYPE
  5
12
330
4
100
AcDbSymbolTableRecord
100
AcDbLinetypeTableRecord
  2
BYLAYER
 70
     0
  3

 72
    65
 73
     0
 40
0.0
  0
LTYPE
  5
13
330
4
100
AcDbSymbolTableRecord
100
AcDbLinetypeTableRecord
  2
CONTINUOUS
 70
     0
  3
Solid line
 72
    65
 73
     0
 40
0.0
  0
ENDTAB
  0
TABLE
  2
LAYER
  5
2
330
0
100
AcDbSymbolTable
 70
     2
  0
LAYER
  5
14
330
2
100
AcDbSymbolTableRecord
100
AcDbLayerTableRecord
  2
0
 70
     0
 62
     7
  6
CONTINUOUS
370
    -3
390
0
  0
LAYER
  5
21
330
2
100
AcDbSymbolTableRecord
100
AcDbLayerTableRecord
  2
NAILS
 70
     0
 62
     3
  6
CONTINUOUS
370
    -3
390
0
  0
ENDTAB
  0
TABLE
  2
STYLE
  5
3
330
0
100
AcDbSymbolTable
 70
     5
  0
STYLE
  5
17
330
3
100
AcDbSymbolTableRecord
100
AcDbTextStyleTableRecord
  2
STANDARD
 70
     0
 40
0.0
 41
1.0
 50
0.0
 71
     0
 42
0.2
  3
txt
  4

  0
STYLE
  5
1D
330
3
100
AcDbSymbolTableRecord
100
AcDbTextStyleTableRecord
  2
STD
 70
     0
 40
0.0
 41
1.0
 50
0.0
 71
     0
 42
0.2
  3
txt
  4

  0
STYLE
  5
1E
330
3
100
AcDbSymbolTableRecord
100
AcDbTextStyleTableRecord
  2
TATESTD
 70
     4
 40
0.0
 41
1.0
 50
0.0
 71
     0
 42
0.2
  3
txt
  4

  0
STYLE
  5
1F
330
3
100
AcDbSymbolTableRecord
100
AcDbTextStyleTableRecord
  2
KANJISTD
 70
     0
 40
0.0
 41
1.0
 50
0.0
 71
     0
 42
0.2
  3
txt
  4
extfont
  0
STYLE
  5
20
330
3
100
AcDbSymbolTableRecord
100
AcDbTextStyleTableRecord
  2
KANJITATE
 70
     4
 40
0.0
 41
1.0
 50
0.0
 71
     0
 42
0.2
  3
txt
  4
extfont
  0
ENDTAB
  0
TABLE
  2
VIEW
  5
5
330
0
100
AcDbSymbolTable
 70
     0
  0
ENDTAB
  0
TABLE
  2
UCS
  5
6
330
0
100
AcDbSymbolTable
 70
     0
  0
ENDTAB
  0
TABLE
  2
APPID
  5
8
330
0
100
AcDbSymbolTable
 70
     1
  0
APPID
  5
16
330
8
100
AcDbSymbolTableRecord
100
AcDbRegAppTableRecord
  2
ACAD
 70
     0
  0
ENDTAB
  0
TABLE
  2
DIMSTYLE
  5
9
330
0
100
AcDbSymbolTable
 70
     1
100
AcDbDimStyleTable
  0
DIMSTYLE
105
18
330
9
100
AcDbSymbolTableRecord
100
AcDbDimStyleTableRecord
  2
STANDARD
 70
     0
  3

  4

289
     0
340
17
  0
ENDTAB
  0
TABLE
  2
BLOCK_RECORD
  5
1
330
0
100
AcDbSymbolTable
 70
    26
  0
BLOCK_RECORD
  5
A
330
1
100
AcDbSymbolTableRecord
100
AcDbBlockTableRecord
  2
*MODEL_SPACE
340
219
  0
BLOCK_RECORD
  5
B
330
1
100
AcDbSymbolTableRecord
100
AcDbBlockTableRecord
  2
*PAPER_SPACE
340
21A
  0
BLOCK_RECORD
  5
22
330
1
100
AcDbSymbolTableRecord
100
AcDbBlockTableRecord
  2
AI9-BLK1
340
0
102
{BLKREFS
331
23
102
}
  0
BLOCK_RECORD
  5
39
330
1
100
AcDbSymbolTableRecord
100
AcDbBlockTableRecord
  2
AI9-BLK2
340
0
102
{BLKREFS
331
3A
102
}
  0
BLOCK_RECORD
  5
43
330
1
100
AcDbSymbolTableRecord
100
AcDbBlockTableRecord
  2
AI9-BLK3
340
0
102
{BLKREFS
331
44
102
}
  0
BLOCK_RECORD
  5
50
330
1
100
AcDbSymbolTableRecord
100
AcDbBlockTableRecord
  2
AI9-BLK4
340
0
102
{BLKREFS
331
51
102
}
  0
BLOCK_RECORD
  5
56
330
1
100
AcDbSymbolTableRecord
100
AcDbBlockTableRecord
  2
AI9-BLK5
340
0
102
{BLKREFS
331
57
102
}
  0
BLOCK_RECORD
  5
60
330
1
100
AcDbSymbolTableRecord
100
AcDbBlockTableRecord
  2
AI9-BLK6
340
0
102
{BLKREFS
331
61
102
}
  0
BLOCK_RECORD
  5
64
330
1
100
AcDbSymbolTableRecord
100
AcDbBlockTableRecord
  2
AI9-BLK7
340
0
102
{BLKREFS
331
65
102
}
  0
BLOCK_RECORD
  5
6F
330
1
100
AcDbSymbolTableRecord
100
AcDbBlockTableRecord
  2
AI9-BLK8
340
0
102
{BLKREFS
331
70
102
}
  0
BLOCK_RECORD
  5
72
330
1
100
AcDbSymbolTableRecord
100
AcDbBlockTableRecord
  2
AI9-BLK9
340
0
102
{BLKREFS
331
73
102
}
  0
BLOCK_RECORD
  5
79
330
1
100
AcDbSymbolTableRecord
100
AcDbBlockTableRecord
  2
AI9-BLK10
340
0
102
{BLKREFS
331
7A
102
}
  0
BLOCK_RECORD
  5
7C
330
1
100
AcDbSymbolTableRecord
100
AcDbBlockTableRecord
  2
AI9-BLK11
340
0
102
{BLKREFS
331
7D
102
}
  0
BLOCK_RECORD
  5
EC
330
1
100
AcDbSymbolTableRecord
100
AcDbBlockTableRecord
  2
AI9-BLK12
340
0
102
{BLKREFS
331
ED
102
}
  0
BLOCK_RECORD
  5
F6
330
1
100
AcDbSymbolTableRecord
100
AcDbBlockTableRecord
  2
AI9-BLK13
340
0
102
{BLKREFS
331
F7
102
}
  0
BLOCK_RECORD
  5
15A
330
1
100
AcDbSymbolTableRecord
100
AcDbBlockTableRecord
  2
AI9-BLK14
340
0
102
{BLKREFS
331
15B
102
}
  0
BLOCK_RECORD
  5
164
330
1
100
AcDbSymbolTableRecord
100
AcDbBlockTableRecord
  2
AI9-BLK15
340
0
102
{BLKREFS
331
165
102
}
  0
BLOCK_RECORD
  5
16E
330
1
100
AcDbSymbolTableRecord
100
AcDbBlockTableRecord
  2
AI9-BLK16
340
0
102
{BLKREFS
331
16F
102
}
  0
BLOCK_RECORD
  5
178
330
1
100
AcDbSymbolTableRecord
100
AcDbBlockTableRecord
  2
AI9-BLK17
340
0
102
{BLKREFS
331
179
102
}
  0
BLOCK_RECORD
  5
182
330
1
100
AcDbSymbolTableRecord
100
AcDbBlockTableRecord
  2
AI9-BLK18
340
0
102
{BLKREFS
331
183
102
}
  0
BLOCK_RECORD
  5
18C
330
1
100
AcDbSymbolTableRecord
100
AcDbBlockTableRecord
  2
AI9-BLK19
340
0
102
{BLKREFS
331
18D
102
}
  0
BLOCK_RECORD
  5
196
330
1
100
AcDbSymbolTableRecord
100
AcDbBlockTableRecord
  2
AI9-BLK20
340
0
102
{BLKREFS
331
197
102
}
  0
BLOCK_RECORD
  5
1A0
330
1
100
AcDbSymbolTableRecord
100
AcDbBlockTableRecord
  2
AI9-BLK21
340
0
102
{BLKREFS
331
1A1
102
}
  0
BLOCK_RECORD
  5
1AA
330
1
100
AcDbSymbolTableRecord
100
AcDbBlockTableRecord
  2
AI9-BLK22
340
0
102
{BLKREFS
331
1AB
102
}
  0
BLOCK_RECORD
  5
1B4
330
1
100
AcDbSymbolTableRecord
100
AcDbBlockTableRecord
  2
AI9-BLK23
340
0
102
{BLKREFS
331
1B5
102
}
  0
BLOCK_RECORD
  5
1BE
330
1
100
AcDbSymbolTableRecord
100
AcDbBlockTableRecord
  2
AI9-BLK24
340
0
102
{BLKREFS
331
1BF
102
}
  0
BLOCK_RECORD
  5
1C8
330
1
100
AcDbSymbolTableRecord
100
AcDbBlockTableRecord
  2
AI9-BLK25
340
0
102
{BLKREFS
331
1C9
102
}
  0
BLOCK_RECORD
  5
1D2
330
1
100
AcDbSymbolTableRecord
100
AcDbBlockTableRecord
  2
AI9-BLK26
340
0
102
{BLKREFS
331
1D3
102
}
  0
ENDTAB
  0
ENDSEC
  0
SECTION
  2
BLOCKS
  0
BLOCK
  5
D
330
A
100
AcDbEntity
  8
0
100
AcDbBlockBegin
  2
*MODEL_SPACE
 70
     0
 10
0.0
 20
0.0
 30
0.0
  3
*MODEL_SPACE
  1

  4

  0
ENDBLK
  5
E
330
A
100
AcDbEntity
  8
0
100
AcDbBlockEnd
  0
BLOCK
  5
F
330
B
100
AcDbEntity
 67
     1
  8
0
100
AcDbBlockBegin
  2
*PAPER_SPACE
 70
     0
 10
0.0
 20
0.0
 30
0.0
  3
*PAPER_SPACE
  1

  4

  0
ENDBLK
  5
10
330
B
100
AcDbEntity
 67
     1
  8
0
100
AcDbBlockEnd
  0
BLOCK
  5
24
330
22
100
AcDbEntity
  8
NAILS
 62
     7
100
AcDbBlockBegin
  2
AI9-BLK1
 70
     0
 10
0.0
 20
0.0
 30
0.0
  3
AI9-BLK1
  1

  4

  0
HATCH
  5
37
330
22
100
AcDbEntity
  8
NAILS
 62
     7
100
AcDbHatch
 10
0.0
 20
0.0
 30
0.0
210
0.0
220
0.0
230
1.0
  2
SOLID
 70
     1
 71
     0
 91
        3
 92
       16
 93
        1
 72
     4
 94
        3
 73
     0
 74
     0
 95
       20
 96
       16
 40
0.0
 40
0.0
 40
0.0
 40
0.0
 40
1.0
 40
1.0
 40
1.0
 40
2.0
 40
2.0
 40
2.0
 40
3.0
 40
3.0
 40
3.0
 40
4.0
 40
4.0
 40
4.0
 40
5.0
 40
5.0
 40
5.0
 40
5.0
 10
-8.869570583767361
 20
7.205589463975694
 10
-8.329724121093749
 20
7.199560546875
 10
-8.131975640190971
 20
7.46345486111111
 10
-8.131975640190971
 20
8.051188151041666
 10
-8.125774468315971
 20
8.938817003038194
 10
-8.701794433593749
 20
8.878872341579861
 10
-9.211324055989582
 20
8.878872341579861
 10
-9.211324055989582
 20
8.878872341579861
 10
-9.655052354600693
 20
8.878872341579861
 10
-9.655052354600693
 20
8.878872341579861
 10
-9.655052354600693
 20
8.878872341579861
 10
-9.655052354600693
 20
7.205589463975694
 10
-9.655052354600693
 20
7.205589463975694
 10
-9.655052354600693
 20
7.205589463975694
 10
-8.869570583767361
 20
7.205589463975694
 10
-8.869570583767361
 20
7.205589463975694
 97
        0
 92
       16
 93
        1
 72
     4
 94
        3
 73
     0
 74
     0
 95
       20
 96
       16
 40
0.0
 40
0.0
 40
0.0
 40
0.0
 40
1.0
 40
1.0
 40
1.0
 40
2.0
 40
2.0
 40
2.0
 40
3.0
 40
3.0
 40
3.0
 40
4.0
 40
4.0
 40
4.0
 40
5.0
 40
5.0
 40
5.0
 40
5.0
 10
-9.655052354600693
 20
9.328629557291666
 10
-9.655052354600693
 20
9.328629557291666
 10
-9.211324055989582
 20
9.328629557291666
 10
-9.211324055989582
 20
9.328629557291666
 10
-8.60567626953125
 20
9.298657226562499
 10
-8.251864963107638
 20
9.406660970052082
 10
-8.257721625434026
 20
10.09636908637153
 10
-8.257721625434026
 20
10.65413004557292
 10
-8.461671278211805
 20
10.81604953342014
 10
-9.217525227864583
 20
10.80399169921875
 10
-9.217525227864583
 20
10.80399169921875
 10
-9.655052354600693
 20
10.80399169921875
 10
-9.655052354600693
 20
10.80399169921875
 10
-9.655052354600693
 20
10.80399169921875
 10
-9.655052354600693
 20
9.328629557291666
 10
-9.655052354600693
 20
9.328629557291666
 97
        0
 92
        1
 93
        1
 72
     4
 94
        3
 73
     0
 74
     0
 95
       29
 96
       25
 40
0.0
 40
0.0
 40
0.0
 40
0.0
 40
1.0
 40
1.0
 40
1.0
 40
2.0
 40
2.0
 40
2.0
 40
3.0
 40
3.0
 40
3.0
 40
4.0
 40
4.0
 40
4.0
 40
5.0
 40
5.0
 40
5.0
 40
6.0
 40
6.0
 40
6.0
 40
7.0
 40
7.0
 40
7.0
 40
8.0
 40
8.0
 40
8.0
 40
8.0
 10
-10.15286865234375
 20
6.755832248263888
 10
-10.15286865234375
 20
6.755832248263888
 10
-10.15286865234375
 20
11.25374891493055
 10
-10.15286865234375
 20
11.25374891493055
 10
-10.15286865234375
 20
11.25374891493055
 10
-8.869570583767361
 20
11.25374891493055
 10
-8.869570583767361
 20
11.25374891493055
 10
-8.05377197265625
 20
11.27786458333333
 10
-7.748192003038194
 20
10.81002061631944
 10
-7.724076334635416
 20
10.13822699652778
 10
-7.706161838107638
 20
9.640582953559028
 10
-7.868081325954861
 20
9.328629557291666
 10
-8.395869954427083
 20
9.148795572916665
 10
-8.395869954427083
 20
9.148795572916665
 10
-8.395869954427083
 20
9.136737738715278
 10
-8.395869954427083
 20
9.136737738715278
 10
-7.801935492621527
 20
9.064735243055555
 10
-7.622101508246527
 20
8.633064778645833
 10
-7.616244845920138
 20
8.081160481770832
 10
-7.610043674045138
 20
7.187674967447916
 10
-8.102003309461805
 20
6.719831000434027
 10
-8.96568874782986
 20
6.755832248263888
 10
-8.96568874782986
 20
6.755832248263888
 10
-10.15286865234375
 20
6.755832248263888
 10
-10.15286865234375
 20
6.755832248263888
 97
        0
 75
     0
 76
     1
 98
        1
 10
0.0
 20
0.0
  0
HATCH
  5
36
330
22
100
AcDbEntity
  8
NAILS
 62
     7
100
AcDbHatch
 10
0.0
 20
0.0
 30
0.0
210
0.0
220
0.0
230
1.0
  2
SOLID
 70
     1
 71
     0
 91
        2
 92
       16
 93
        1
 72
     4
 94
        3
 73
     0
 74
     0
 95
       17
 96
       13
 40
0.0
 40
0.0
 40
0.0
 40
0.0
 40
1.0
 40
1.0
 40
1.0
 40
2.0
 40
2.0
 40
2.0
 40
3.0
 40
3.0
 40
3.0
 40
4.0
 40
4.0
 40
4.0
 40
4.0
 10
-5.37796630859375
 20
10.89390869140625
 10
-5.37796630859375
 20
10.89390869140625
 10
-5.390024142795139
 20
10.89390869140625
 10
-5.390024142795139
 20
10.89390869140625
 10
-5.390024142795139
 20
10.89390869140625
 10
-5.983958604600694
 20
8.501117621527778
 10
-5.983958604600694
 20
8.501117621527778
 10
-5.983958604600694
 20
8.501117621527778
 10
-4.796434190538194
 20
8.501117621527778
 10
-4.796434190538194
 20
8.501117621527778
 10
-4.796434190538194
 20
8.501117621527778
 10
-5.37796630859375
 20
10.89390869140625
 10
-5.37796630859375
 20
10.89390869140625
 97
        0
 92
        1
 93
        1
 72
     4
 94
        3
 73
     0
 74
     0
 95
       29
 96
       25
 40
0.0
 40
0.0
 40
0.0
 40
0.0
 40
1.0
 40
1.0
 40
1.0
 40
2.0
 40
2.0
 40
2.0
 40
3.0
 40
3.0
 40
3.0
 40
4.0
 40
4.0
 40
4.0
 40
5.0
 40
5.0
 40
5.0
 40
6.0
 40
6.0
 40
6.0
 40
7.0
 40
7.0
 40
7.0
 40
8.0
 40
8.0
 40
8.0
 40
8.0
 10
-5.702149793836805
 20
11.25374891493055
 10
-5.702149793836805
 20
11.25374891493055
 10
-5.042414008246527
 20
11.25374891493055
 10
-5.042414008246527
 20
11.25374891493055
 10
-5.042414008246527
 20
11.25374891493055
 10
-3.776685926649305
 20
6.755832248263888
 10
-3.776685926649305
 20
6.755832248263888
 10
-3.776685926649305
 20
6.755832248263888
 10
-4.328590223524305
 20
6.755832248263888
 10
-4.328590223524305
 20
6.755832248263888
 10
-4.328590223524305
 20
6.755832248263888
 10
-4.682401529947916
 20
8.051188151041666
 10
-4.682401529947916
 20
8.051188151041666
 10
-4.682401529947916
 20
8.051188151041666
 10
-6.103847927517361
 20
8.051188151041666
 10
-6.103847927517361
 20
8.051188151041666
 10
-6.103847927517361
 20
8.051188151041666
 10
-6.433543565538194
 20
6.755832248263888
 10
-6.433543565538194
 20
6.755832248263888
 10
-6.433543565538194
 20
6.755832248263888
 10
-6.985447862413194
 20
6.755832248263888
 10
-6.985447862413194
 20
6.755832248263888
 10
-6.985447862413194
 20
6.755832248263888
 10
-5.702149793836805
 20
11.25374891493055
 10
-5.702149793836805
 20
11.25374891493055
 97
        0
 75
     0
 76
     1
 98
        1
 10
0.0
 20
0.0
  0
HATCH
  5
35
330
22
100
AcDbEntity
  8
NAILS
 62
     7
100
AcDbHatch
 10
0.0
 20
0.0
 30
0.0
210
0.0
220
0.0
230
1.0
  2
SOLID
 70
     1
 71
     0
 91
        1
 92
        1
 93
        1
 72
     4
 94
        3
 73
     0
 74
     0
 95
       44
 96
       40
 40
0.0
 40
0.0
 40
0.0
 40
0.0
 40
1.0
 40
1.0
 40
1.0
 40
2.0
 40
2.0
 40
2.0
 40
3.0
 40
3.0
 40
3.0
 40
4.0
 40
4.0
 40
4.0
 40
5.0
 40
5.0
 40
5.0
 40
6.0
 40
6.0
 40
6.0
 40
7.0
 40
7.0
 40
7.0
 40
8.0
 40
8.0
 40
8.0
 40
9.0
 40
9.0
 40
9.0
 40
10.0
 40
10.0
 40
10.0
 40
11.0
 40
11.0
 40
11.0
 40
12.0
 40
12.0
 40
12.0
 40
13.0
 40
13.0
 40
13.0
 40
13.0
 10
-0.9510186089409721
 20
9.904477267795137
 10
-0.9630764431423611
 20
10.43812255859375
 10
-1.137053765190972
 20
10.89390869140625
 10
-1.760616048177083
 20
10.89390869140625
 10
-2.624301486545139
 20
10.89390869140625
 10
-2.636359320746528
 20
9.664526367187499
 10
-2.636359320746528
 20
9.07076416015625
 10
-2.660474989149305
 20
8.459087456597221
 10
-2.672188313802083
 20
7.097757975260416
 10
-1.760616048177083
 20
7.097757975260416
 10
-1.167026095920139
 20
7.097757975260416
 10
-1.040935601128472
 20
7.583516438802083
 10
-0.9809909396701388
 20
8.075303819444443
 10
-0.969277615017361
 20
8.177106391059027
 10
-0.9630764431423611
 20
8.279081217447915
 10
-0.9510186089409721
 20
8.381056043836805
 10
-0.9510186089409721
 20
8.381056043836805
 10
-0.4532023111979167
 20
8.381056043836805
 10
-0.4532023111979167
 20
8.381056043836805
 10
-0.4652601453993055
 20
8.291139051649305
 10
-0.4652601453993055
 20
8.195193142361111
 10
-0.4773179796006944
 20
8.10527615017361
 10
-0.5072903103298611
 20
7.739407009548611
 10
-0.5252048068576388
 20
7.46345486111111
 10
-0.7412122938368055
 20
7.151673719618055
 10
-0.9751342773437499
 20
6.827834743923611
 10
-1.286915418836806
 20
6.647828504774305
 10
-1.718930392795139
 20
6.647828504774305
 10
-3.104203287760416
 20
6.647828504774305
 10
-3.152090115017361
 20
7.985214572482638
 10
-3.152090115017361
 20
9.05870632595486
 10
-3.152090115017361
 20
10.07225341796875
 10
-3.002228461371527
 20
11.34383816189236
 10
-1.724787055121528
 20
11.34383816189236
 10
-0.873159450954861
 20
11.34383816189236
 10
-0.42943115234375
 20
10.70804578993056
 10
-0.4532023111979167
 20
9.904477267795137
 10
-0.4532023111979167
 20
9.904477267795137
 10
-0.9510186089409721
 20
9.904477267795137
 10
-0.9510186089409721
 20
9.904477267795137
 97
        0
 75
     0
 76
     1
 98
        1
 10
0.0
 20
0.0
  0
HATCH
  5
34
330
22
100
AcDbEntity
  8
NAILS
 62
     7
100
AcDbHatch
 10
0.0
 20
0.0
 30
0.0
210
0.0
220
0.0
230
1.0
  2
SOLID
 70
     1
 71
     0
 91
        1
 92
        1
 93
        1
 72
     4
 94
        3
 73
     0
 74
     0
 95
       44
 96
       40
 40
0.0
 40
0.0
 40
0.0
 40
0.0
 40
1.0
 40
1.0
 40
1.0
 40
2.0
 40
2.0
 40
2.0
 40
3.0
 40
3.0
 40
3.0
 40
4.0
 40
4.0
 40
4.0
 40
5.0
 40
5.0
 40
5.0
 40
6.0
 40
6.0
 40
6.0
 40
7.0
 40
7.0
 40
7.0
 40
8.0
 40
8.0
 40
8.0
 40
9.0
 40
9.0
 40
9.0
 40
10.0
 40
10.0
 40
10.0
 40
11.0
 40
11.0
 40
11.0
 40
12.0
 40
12.0
 40
12.0
 40
13.0
 40
13.0
 40
13.0
 40
13.0
 10
0.5851494683159721
 20
6.755832248263888
 10
0.5851494683159721
 20
6.755832248263888
 10
0.5851494683159721
 20
11.25374891493055
 10
0.5851494683159721
 20
11.25374891493055
 10
0.5851494683159721
 20
11.25374891493055
 10
1.082965766059028
 20
11.25374891493055
 10
1.082965766059028
 20
11.25374891493055
 10
1.082965766059028
 20
11.25374891493055
 10
1.082965766059028
 20
8.944845920138889
 10
1.082965766059028
 20
8.944845920138889
 10
1.082965766059028
 20
8.944845920138889
 10
1.095023600260417
 20
8.944845920138889
 10
1.095023600260417
 20
8.944845920138889
 10
1.095023600260417
 20
8.944845920138889
 10
2.720075141059028
 20
11.25374891493055
 10
2.720075141059028
 20
11.25374891493055
 10
2.720075141059028
 20
11.25374891493055
 10
3.34398193359375
 20
11.25374891493055
 10
3.34398193359375
 20
11.25374891493055
 10
3.34398193359375
 20
11.25374891493055
 10
1.910477701822916
 20
9.370659722222221
 10
1.910477701822916
 20
9.370659722222221
 10
1.910477701822916
 20
9.370659722222221
 10
3.386012098524305
 20
6.755832248263888
 10
3.386012098524305
 20
6.755832248263888
 10
3.386012098524305
 20
6.755832248263888
 10
2.774163140190972
 20
6.755832248263888
 10
2.774163140190972
 20
6.755832248263888
 10
2.774163140190972
 20
6.755832248263888
 10
1.556666395399305
 20
8.92693142361111
 10
1.556666395399305
 20
8.92693142361111
 10
1.556666395399305
 20
8.92693142361111
 10
1.088822428385417
 20
8.315082465277778
 10
1.088822428385417
 20
8.315082465277778
 10
1.088822428385417
 20
8.315082465277778
 10
1.088822428385417
 20
6.755832248263888
 10
1.088822428385417
 20
6.755832248263888
 10
1.088822428385417
 20
6.755832248263888
 10
0.5851494683159721
 20
6.755832248263888
 10
0.5851494683159721
 20
6.755832248263888
 97
        0
 75
     0
 76
     1
 98
        1
 10
0.0
 20
0.0
  0
HATCH
  5
33
330
22
100
AcDbEntity
  8
NAILS
 62
     7
100
AcDbHatch
 10
0.0
 20
0.0
 30
0.0
210
0.0
220
0.0
230
1.0
  2
SOLID
 70
     1
 71
     0
 91
        1
 92
        1
 93
        1
 72
     4
 94
        3
 73
     0
 74
     0
 95
       41
 96
       37
 40
0.0
 40
0.0
 40
0.0
 40
0.0
 40
1.0
 40
1.0
 40
1.0
 40
2.0
 40
2.0
 40
2.0
 40
3.0
 40
3.0
 40
3.0
 40
4.0
 40
4.0
 40
4.0
 40
5.0
 40
5.0
 40
5.0
 40
6.0
 40
6.0
 40
6.0
 40
7.0
 40
7.0
 40
7.0
 40
8.0
 40
8.0
 40
8.0
 40
9.0
 40
9.0
 40
9.0
 40
10.0
 40
10.0
 40
10.0
 40
11.0
 40
11.0
 40
11.0
 40
12.0
 40
12.0
 40
12.0
 40
12.0
 10
4.136698404947916
 20
6.755832248263888
 10
4.136698404947916
 20
6.755832248263888
 10
4.136698404947916
 20
11.25374891493055
 10
4.136698404947916
 20
11.25374891493055
 10
4.136698404947916
 20
11.25374891493055
 10
6.38565673828125
 20
11.25374891493055
 10
6.38565673828125
 20
11.25374891493055
 10
6.38565673828125
 20
11.25374891493055
 10
6.38565673828125
 20
10.80399169921875
 10
6.38565673828125
 20
10.80399169921875
 10
6.38565673828125
 20
10.80399169921875
 10
4.634514702690971
 20
10.80399169921875
 10
4.634514702690971
 20
10.80399169921875
 10
4.634514702690971
 20
10.80399169921875
 10
4.634514702690971
 20
9.316743977864583
 10
4.634514702690971
 20
9.316743977864583
 10
4.634514702690971
 20
9.316743977864583
 10
6.277825249565971
 20
9.316743977864583
 10
6.277825249565971
 20
9.316743977864583
 10
6.277825249565971
 20
9.316743977864583
 10
6.277825249565971
 20
8.866814507378471
 10
6.277825249565971
 20
8.866814507378471
 10
6.277825249565971
 20
8.866814507378471
 10
4.634514702690971
 20
8.866814507378471
 10
4.634514702690971
 20
8.866814507378471
 10
4.634514702690971
 20
8.866814507378471
 10
4.634514702690971
 20
7.205589463975694
 10
4.634514702690971
 20
7.205589463975694
 10
4.634514702690971
 20
7.205589463975694
 10
6.397714572482639
 20
7.205589463975694
 10
6.397714572482639
 20
7.205589463975694
 10
6.397714572482639
 20
7.205589463975694
 10
6.397714572482639
 20
6.755832248263888
 10
6.397714572482639
 20
6.755832248263888
 10
6.397714572482639
 20
6.755832248263888
 10
4.136698404947916
 20
6.755832248263888
 10
4.136698404947916
 20
6.755832248263888
 97
        0
 75
     0
 76
     1
 98
        1
 10
0.0
 20
0.0
  0
HATCH
  5
32
330
22
100
AcDbEntity
  8
NAILS
 62
     7
100
AcDbHatch
 10
0.0
 20
0.0
 30
0.0
210
0.0
220
0.0
230
1.0
  2
SOLID
 70
     1
 71
     0
 91
        2
 92
       16
 93
        1
 72
     4
 94
        3
 73
     0
 74
     0
 95
       20
 96
       16
 40
0.0
 40
0.0
 40
0.0
 40
0.0
 40
1.0
 40
1.0
 40
1.0
 40
2.0
 40
2.0
 40
2.0
 40
3.0
 40
3.0
 40
3.0
 40
4.0
 40
4.0
 40
4.0
 40
5.0
 40
5.0
 40
5.0
 40
5.0
 10
7.95179714626736
 20
9.184796820746527
 10
7.95179714626736
 20
9.184796820746527
 10
8.737623426649305
 20
9.184796820746527
 10
8.737623426649305
 20
9.184796820746527
 10
8.971545410156249
 20
9.190653483072916
 10
9.619223361545139
 20
9.226654730902776
 10
9.607165527343749
 20
10.01230875651042
 10
9.59510769314236
 20
10.78607720269097
 10
8.989459906684028
 20
10.80399169921875
 10
8.653563096788194
 20
10.80399169921875
 10
8.653563096788194
 20
10.80399169921875
 10
7.95179714626736
 20
10.80399169921875
 10
7.95179714626736
 20
10.80399169921875
 10
7.95179714626736
 20
10.80399169921875
 10
7.95179714626736
 20
9.184796820746527
 10
7.95179714626736
 20
9.184796820746527
 97
        0
 92
        1
 93
        1
 72
     4
 94
        3
 73
     0
 74
     0
 95
       50
 96
       46
 40
0.0
 40
0.0
 40
0.0
 40
0.0
 40
1.0
 40
1.0
 40
1.0
 40
2.0
 40
2.0
 40
2.0
 40
3.0
 40
3.0
 40
3.0
 40
4.0
 40
4.0
 40
4.0
 40
5.0
 40
5.0
 40
5.0
 40
6.0
 40
6.0
 40
6.0
 40
7.0
 40
7.0
 40
7.0
 40
8.0
 40
8.0
 40
8.0
 40
9.0
 40
9.0
 40
9.0
 40
10.0
 40
10.0
 40
10.0
 40
11.0
 40
11.0
 40
11.0
 40
12.0
 40
12.0
 40
12.0
 40
13.0
 40
13.0
 40
13.0
 40
14.0
 40
14.0
 40
14.0
 40
15.0
 40
15.0
 40
15.0
 40
15.0
 10
7.95179714626736
 20
6.755832248263888
 10
7.95179714626736
 20
6.755832248263888
 10
7.453980848524305
 20
6.755832248263888
 10
7.453980848524305
 20
6.755832248263888
 10
7.453980848524305
 20
6.755832248263888
 10
7.453980848524305
 20
11.25374891493055
 10
7.453980848524305
 20
11.25374891493055
 10
7.453980848524305
 20
11.25374891493055
 10
8.611532931857639
 20
11.25374891493055
 10
8.611532931857639
 20
11.25374891493055
 10
9.553077528211805
 20
11.25374891493055
 10
10.15286865234375
 20
11.00794135199653
 10
10.12289632161458
 20
9.970450846354165
 10
10.10498182508681
 20
9.442662217881944
 10
9.78114284939236
 20
9.064735243055555
 10
9.259210883246526
 20
8.992905002170138
 10
9.259210883246526
 20
8.992905002170138
 10
9.259210883246526
 20
8.980847167968749
 10
9.259210883246526
 20
8.980847167968749
 10
9.841087510850693
 20
8.92693142361111
 10
9.985092502170138
 20
8.74089626736111
 10
10.05709499782986
 20
8.141277398003471
 10
10.07500949435764
 20
7.805380588107639
 10
10.10498182508681
 20
7.475512695312499
 10
10.15286865234375
 20
7.139615885416666
 10
10.17078314887153
 20
7.05572781032986
 10
10.20695665147569
 20
6.857807074652778
 10
10.32684597439236
 20
6.857807074652778
 10
10.32684597439236
 20
6.857807074652778
 10
10.32684597439236
 20
6.755832248263888
 10
10.32684597439236
 20
6.755832248263888
 10
10.32684597439236
 20
6.755832248263888
 10
9.744969346788194
 20
6.755832248263888
 10
9.744969346788194
 20
6.755832248263888
 10
9.637137858072915
 20
7.043669976128472
 10
9.589251030815971
 20
7.60143093532986
 10
9.589251030815971
 20
7.901326497395833
 10
9.589251030815971
 20
8.351083713107638
 10
9.409417046440971
 20
8.734867350260416
 10
8.821683756510415
 20
8.734867350260416
 10
8.821683756510415
 20
8.734867350260416
 10
7.95179714626736
 20
8.734867350260416
 10
7.95179714626736
 20
8.734867350260416
 10
7.95179714626736
 20
8.734867350260416
 10
7.95179714626736
 20
6.755832248263888
 10
7.95179714626736
 20
6.755832248263888
 97
        0
 75
     0
 76
     1
 98
        1
 10
0.0
 20
0.0
  0
HATCH
  5
31
330
22
100
AcDbEntity
  8
NAILS
 62
     7
100
AcDbHatch
 10
0.0
 20
0.0
 30
0.0
210
0.0
220
0.0
230
1.0
  2
SOLID
 70
     1
 71
     0
 91
        3
 92
       16
 93
        1
 72
     4
 94
        3
 73
     0
 74
     0
 95
       20
 96
       16
 40
0.0
 40
0.0
 40
0.0
 40
0.0
 40
1.0
 40
1.0
 40
1.0
 40
2.0
 40
2.0
 40
2.0
 40
3.0
 40
3.0
 40
3.0
 40
4.0
 40
4.0
 40
4.0
 40
5.0
 40
5.0
 40
5.0
 40
5.0
 10
-8.869570583767361
 20
1.208367241753472
 10
-8.329724121093749
 20
1.202338324652778
 10
-8.131975640190971
 20
1.466232638888889
 10
-8.131975640190971
 20
2.053965928819444
 10
-8.125774468315971
 20
2.941594780815972
 10
-8.701794433593749
 20
2.881650119357639
 10
-9.211324055989582
 20
2.881650119357639
 10
-9.211324055989582
 20
2.881650119357639
 10
-9.655052354600693
 20
2.881650119357639
 10
-9.655052354600693
 20
2.881650119357639
 10
-9.655052354600693
 20
2.881650119357639
 10
-9.655052354600693
 20
1.208367241753472
 10
-9.655052354600693
 20
1.208367241753472
 10
-9.655052354600693
 20
1.208367241753472
 10
-8.869570583767361
 20
1.208367241753472
 10
-8.869570583767361
 20
1.208367241753472
 97
        0
 92
       16
 93
        1
 72
     4
 94
        3
 73
     0
 74
     0
 95
       20
 96
       16
 40
0.0
 40
0.0
 40
0.0
 40
0.0
 40
1.0
 40
1.0
 40
1.0
 40
2.0
 40
2.0
 40
2.0
 40
3.0
 40
3.0
 40
3.0
 40
4.0
 40
4.0
 40
4.0
 40
5.0
 40
5.0
 40
5.0
 40
5.0
 10
-9.655052354600693
 20
3.331407335069444
 10
-9.655052354600693
 20
3.331407335069444
 10
-9.211324055989582
 20
3.331407335069444
 10
-9.211324055989582
 20
3.331407335069444
 10
-8.60567626953125
 20
3.301435004340278
 10
-8.251864963107638
 20
3.409438747829861
 10
-8.257721625434026
 20
4.099146864149305
 10
-8.257721625434026
 20
4.656907823350694
 10
-8.461671278211805
 20
4.818827311197916
 10
-9.217525227864583
 20
4.806769476996528
 10
-9.217525227864583
 20
4.806769476996528
 10
-9.655052354600693
 20
4.806769476996528
 10
-9.655052354600693
 20
4.806769476996528
 10
-9.655052354600693
 20
4.806769476996528
 10
-9.655052354600693
 20
3.331407335069444
 10
-9.655052354600693
 20
3.331407335069444
 97
        0
 92
        1
 93
        1
 72
     4
 94
        3
 73
     0
 74
     0
 95
       29
 96
       25
 40
0.0
 40
0.0
 40
0.0
 40
0.0
 40
1.0
 40
1.0
 40
1.0
 40
2.0
 40
2.0
 40
2.0
 40
3.0
 40
3.0
 40
3.0
 40
4.0
 40
4.0
 40
4.0
 40
5.0
 40
5.0
 40
5.0
 40
6.0
 40
6.0
 40
6.0
 40
7.0
 40
7.0
 40
7.0
 40
8.0
 40
8.0
 40
8.0
 40
8.0
 10
-10.15286865234375
 20
0.7586100260416666
 10
-10.15286865234375
 20
0.7586100260416666
 10
-10.15286865234375
 20
5.256526692708333
 10
-10.15286865234375
 20
5.256526692708333
 10
-10.15286865234375
 20
5.256526692708333
 10
-8.869570583767361
 20
5.256526692708333
 10
-8.869570583767361
 20
5.256526692708333
 10
-8.05377197265625
 20
5.280642361111111
 10
-7.748192003038194
 20
4.812798394097221
 10
-7.724076334635416
 20
4.141004774305555
 10
-7.706161838107638
 20
3.643360731336805
 10
-7.868081325954861
 20
3.331407335069444
 10
-8.395869954427083
 20
3.151573350694444
 10
-8.395869954427083
 20
3.151573350694444
 10
-8.395869954427083
 20
3.139515516493055
 10
-8.395869954427083
 20
3.139515516493055
 10
-7.801935492621527
 20
3.067513020833333
 10
-7.622101508246527
 20
2.635842556423611
 10
-7.616244845920138
 20
2.083938259548611
 10
-7.610043674045138
 20
1.190452745225694
 10
-8.102003309461805
 20
0.7226087782118055
 10
-8.96568874782986
 20
0.7586100260416666
 10
-8.96568874782986
 20
0.7586100260416666
 10
-10.15286865234375
 20
0.7586100260416666
 10
-10.15286865234375
 20
0.7586100260416666
 97
        0
 75
     0
 76
     1
 98
        1
 10
0.0
 20
0.0
  0
HATCH
  5
30
330
22
100
AcDbEntity
  8
NAILS
 62
     7
100
AcDbHatch
 10
0.0
 20
0.0
 30
0.0
210
0.0
220
0.0
230
1.0
  2
SOLID
 70
     1
 71
     0
 91
        1
 92
        1
 93
        1
 72
     4
 94
        3
 73
     0
 74
     0
 95
       23
 96
       19
 40
0.0
 40
0.0
 40
0.0
 40
0.0
 40
1.0
 40
1.0
 40
1.0
 40
2.0
 40
2.0
 40
2.0
 40
3.0
 40
3.0
 40
3.0
 40
4.0
 40
4.0
 40
4.0
 40
5.0
 40
5.0
 40
5.0
 40
6.0
 40
6.0
 40
6.0
 40
6.0
 10
-6.553432888454861
 20
0.7586100260416666
 10
-6.553432888454861
 20
0.7586100260416666
 10
-6.553432888454861
 20
5.256526692708333
 10
-6.553432888454861
 20
5.256526692708333
 10
-6.553432888454861
 20
5.256526692708333
 10
-6.055961100260416
 20
5.256526692708333
 10
-6.055961100260416
 20
5.256526692708333
 10
-6.055961100260416
 20
5.256526692708333
 10
-6.055961100260416
 20
1.208367241753472
 10
-6.055961100260416
 20
1.208367241753472
 10
-6.055961100260416
 20
1.208367241753472
 10
-4.220758734809027
 20
1.208367241753472
 10
-4.220758734809027
 20
1.208367241753472
 10
-4.220758734809027
 20
1.208367241753472
 10
-4.220758734809027
 20
0.7586100260416666
 10
-4.220758734809027
 20
0.7586100260416666
 10
-4.220758734809027
 20
0.7586100260416666
 10
-6.553432888454861
 20
0.7586100260416666
 10
-6.553432888454861
 20
0.7586100260416666
 97
        0
 75
     0
 76
     1
 98
        1
 10
0.0
 20
0.0
  0
HATCH
  5
2F
330
22
100
AcDbEntity
  8
NAILS
 62
     7
100
AcDbHatch
 10
0.0
 20
0.0
 30
0.0
210
0.0
220
0.0
230
1.0
  2
SOLID
 70
     1
 71
     0
 91
        2
 92
       16
 93
        1
 72
     4
 94
        3
 73
     0
 74
     0
 95
       17
 96
       13
 40
0.0
 40
0.0
 40
0.0
 40
0.0
 40
1.0
 40
1.0
 40
1.0
 40
2.0
 40
2.0
 40
2.0
 40
3.0
 40
3.0
 40
3.0
 40
4.0
 40
4.0
 40
4.0
 40
4.0
 10
-2.335257975260416
 20
4.896686469184028
 10
-3.103169759114583
 20
4.896686469184028
 10
-3.295061577690972
 20
4.093117947048611
 10
-3.288860405815972
 20
3.091628689236111
 10
-3.283003743489583
 20
1.790071614583333
 10
-3.151056586371527
 20
1.100535753038194
 10
-2.323544650607639
 20
1.100535753038194
 10
-1.495688205295139
 20
1.100535753038194
 10
-1.363741048177083
 20
1.790071614583333
 10
-1.357884385850694
 20
3.091628689236111
 10
-1.352027723524305
 20
4.093117947048611
 10
-1.543919542100694
 20
4.896686469184028
 10
-2.335257975260416
 20
4.896686469184028
 97
        0
 92
        1
 93
        1
 72
     4
 94
        3
 73
     0
 74
     0
 95
       17
 96
       13
 40
0.0
 40
0.0
 40
0.0
 40
0.0
 40
1.0
 40
1.0
 40
1.0
 40
2.0
 40
2.0
 40
2.0
 40
3.0
 40
3.0
 40
3.0
 40
4.0
 40
4.0
 40
4.0
 40
4.0
 10
-2.31148681640625
 20
5.346615939670138
 10
-0.9978719075520832
 20
5.346615939670138
 10
-0.835952419704861
 20
4.135148111979166
 10
-0.842153591579861
 20
3.103514268663194
 10
-0.84801025390625
 20
1.856045193142361
 10
-1.009929741753472
 20
0.6506062825520833
 10
-2.323544650607639
 20
0.6506062825520833
 10
-3.636815049913194
 20
0.6506062825520833
 10
-3.792877875434027
 20
1.856045193142361
 10
-3.804591200086805
 20
3.103514268663194
 10
-3.804591200086805
 20
4.135148111979166
 10
-3.648872884114583
 20
5.346615939670138
 10
-2.31148681640625
 20
5.346615939670138
 97
        0
 75
     0
 76
     1
 98
        1
 10
0.0
 20
0.0
  0
HATCH
  5
2E
330
22
100
AcDbEntity
  8
NAILS
 62
     7
100
AcDbHatch
 10
0.0
 20
0.0
 30
0.0
210
0.0
220
0.0
230
1.0
  2
SOLID
 70
     1
 71
     0
 91
        1
 92
        1
 93
        1
 72
     4
 94
        3
 73
     0
 74
     0
 95
       44
 96
       40
 40
0.0
 40
0.0
 40
0.0
 40
0.0
 40
1.0
 40
1.0
 40
1.0
 40
2.0
 40
2.0
 40
2.0
 40
3.0
 40
3.0
 40
3.0
 40
4.0
 40
4.0
 40
4.0
 40
5.0
 40
5.0
 40
5.0
 40
6.0
 40
6.0
 40
6.0
 40
7.0
 40
7.0
 40
7.0
 40
8.0
 40
8.0
 40
8.0
 40
9.0
 40
9.0
 40
9.0
 40
10.0
 40
10.0
 40
10.0
 40
11.0
 40
11.0
 40
11.0
 40
12.0
 40
12.0
 40
12.0
 40
13.0
 40
13.0
 40
13.0
 40
13.0
 10
2.271523708767361
 20
3.907255045572916
 10
2.259465874565972
 20
4.440900336371527
 10
2.085488552517361
 20
4.896686469184028
 10
1.46192626953125
 20
4.896686469184028
 10
0.5982408311631944
 20
4.896686469184028
 10
0.5861829969618055
 20
3.667304144965277
 10
0.5861829969618055
 20
3.073541937934027
 10
0.5620673285590278
 20
2.461865234375
 10
0.55035400390625
 20
1.100535753038194
 10
1.46192626953125
 20
1.100535753038194
 10
2.055516221788194
 20
1.100535753038194
 10
2.181606716579861
 20
1.586294216579861
 10
2.241551378038194
 20
2.078081597222222
 10
2.253609212239583
 20
2.179884168836805
 10
2.259465874565972
 20
2.281858995225694
 10
2.271523708767361
 20
2.383833821614583
 10
2.271523708767361
 20
2.383833821614583
 10
2.769340006510416
 20
2.383833821614583
 10
2.769340006510416
 20
2.383833821614583
 10
2.757282172309028
 20
2.293916829427083
 10
2.757282172309028
 20
2.197970920138889
 10
2.745224338107639
 20
2.108053927951389
 10
2.715252007378472
 20
1.742184787326389
 10
2.697337510850694
 20
1.466232638888889
 10
2.481330023871528
 20
1.154451497395833
 10
2.247408040364583
 20
0.8306125217013888
 10
1.935626898871528
 20
0.6506062825520833
 10
1.503956434461806
 20
0.6506062825520833
 10
0.1183390299479167
 20
0.6506062825520833
 10
0.0704522026909722
 20
1.987992350260416
 10
0.0704522026909722
 20
3.061484103732639
 10
0.0704522026909722
 20
4.075031195746528
 10
0.2203138563368055
 20
5.346615939670138
 10
1.497755262586805
 20
5.346615939670138
 10
2.349382866753472
 20
5.346615939670138
 10
2.793111165364583
 20
4.710823567708333
 10
2.769340006510416
 20
3.907255045572916
 10
2.769340006510416
 20
3.907255045572916
 10
2.271523708767361
 20
3.907255045572916
 10
2.271523708767361
 20
3.907255045572916
 97
        0
 75
     0
 76
     1
 98
        1
 10
0.0
 20
0.0
  0
HATCH
  5
2D
330
22
100
AcDbEntity
  8
NAILS
 62
     7
100
AcDbHatch
 10
0.0
 20
0.0
 30
0.0
210
0.0
220
0.0
230
1.0
  2
SOLID
 70
     1
 71
     0
 91
        1
 92
        1
 93
        1
 72
     4
 94
        3
 73
     0
 74
     0
 95
       44
 96
       40
 40
0.0
 40
0.0
 40
0.0
 40
0.0
 40
1.0
 40
1.0
 40
1.0
 40
2.0
 40
2.0
 40
2.0
 40
3.0
 40
3.0
 40
3.0
 40
4.0
 40
4.0
 40
4.0
 40
5.0
 40
5.0
 40
5.0
 40
6.0
 40
6.0
 40
6.0
 40
7.0
 40
7.0
 40
7.0
 40
8.0
 40
8.0
 40
8.0
 40
9.0
 40
9.0
 40
9.0
 40
10.0
 40
10.0
 40
10.0
 40
11.0
 40
11.0
 40
11.0
 40
12.0
 40
12.0
 40
12.0
 40
13.0
 40
13.0
 40
13.0
 40
13.0
 10
3.807691786024305
 20
0.7586100260416666
 10
3.807691786024305
 20
0.7586100260416666
 10
3.807691786024305
 20
5.256526692708333
 10
3.807691786024305
 20
5.256526692708333
 10
3.807691786024305
 20
5.256526692708333
 10
4.305508083767361
 20
5.256526692708333
 10
4.305508083767361
 20
5.256526692708333
 10
4.305508083767361
 20
5.256526692708333
 10
4.305508083767361
 20
2.947623697916666
 10
4.305508083767361
 20
2.947623697916666
 10
4.305508083767361
 20
2.947623697916666
 10
4.31756591796875
 20
2.947623697916666
 10
4.31756591796875
 20
2.947623697916666
 10
4.31756591796875
 20
2.947623697916666
 10
5.942961968315972
 20
5.256526692708333
 10
5.942961968315972
 20
5.256526692708333
 10
5.942961968315972
 20
5.256526692708333
 10
6.566524251302083
 20
5.256526692708333
 10
6.566524251302083
 20
5.256526692708333
 10
6.566524251302083
 20
5.256526692708333
 10
5.133364529079861
 20
3.3734375
 10
5.133364529079861
 20
3.3734375
 10
5.133364529079861
 20
3.3734375
 10
6.608554416232638
 20
0.7586100260416666
 10
6.608554416232638
 20
0.7586100260416666
 10
6.608554416232638
 20
0.7586100260416666
 10
5.996705457899305
 20
0.7586100260416666
 10
5.996705457899305
 20
0.7586100260416666
 10
5.996705457899305
 20
0.7586100260416666
 10
4.779208713107638
 20
2.929709201388889
 10
4.779208713107638
 20
2.929709201388889
 10
4.779208713107638
 20
2.929709201388889
 10
4.311709255642361
 20
2.317860243055555
 10
4.311709255642361
 20
2.317860243055555
 10
4.311709255642361
 20
2.317860243055555
 10
4.311709255642361
 20
0.7586100260416666
 10
4.311709255642361
 20
0.7586100260416666
 10
4.311709255642361
 20
0.7586100260416666
 10
3.807691786024305
 20
0.7586100260416666
 10
3.807691786024305
 20
0.7586100260416666
 97
        0
 75
     0
 76
     1
 98
        1
 10
0.0
 20
0.0
  0
HATCH
  5
2C
330
22
100
AcDbEntity
  8
NAILS
 62
     7
100
AcDbHatch
 10
0.0
 20
0.0
 30
0.0
210
0.0
220
0.0
230
1.0
  2
SOLID
 70
     1
 71
     0
 91
        1
 92
        1
 93
        1
 72
     4
 94
        3
 73
     0
 74
     0
 95
       41
 96
       37
 40
0.0
 40
0.0
 40
0.0
 40
0.0
 40
1.0
 40
1.0
 40
1.0
 40
2.0
 40
2.0
 40
2.0
 40
3.0
 40
3.0
 40
3.0
 40
4.0
 40
4.0
 40
4.0
 40
5.0
 40
5.0
 40
5.0
 40
6.0
 40
6.0
 40
6.0
 40
7.0
 40
7.0
 40
7.0
 40
8.0
 40
8.0
 40
8.0
 40
9.0
 40
9.0
 40
9.0
 40
10.0
 40
10.0
 40
10.0
 40
11.0
 40
11.0
 40
11.0
 40
12.0
 40
12.0
 40
12.0
 40
12.0
 10
-10.18904215494792
 20
-5.238612196180555
 10
-10.18904215494792
 20
-5.238612196180555
 10
-10.18904215494792
 20
-0.7406955295138888
 10
-10.18904215494792
 20
-0.7406955295138888
 10
-10.18904215494792
 20
-0.7406955295138888
 10
-7.940083821614583
 20
-0.7406955295138888
 10
-7.940083821614583
 20
-0.7406955295138888
 10
-7.940083821614583
 20
-0.7406955295138888
 10
-7.940083821614583
 20
-1.190452745225694
 10
-7.940083821614583
 20
-1.190452745225694
 10
-7.940083821614583
 20
-1.190452745225694
 10
-9.691225857204861
 20
-1.190452745225694
 10
-9.691225857204861
 20
-1.190452745225694
 10
-9.691225857204861
 20
-1.190452745225694
 10
-9.691225857204861
 20
-2.677700466579861
 10
-9.691225857204861
 20
-2.677700466579861
 10
-9.691225857204861
 20
-2.677700466579861
 10
-8.047915310329861
 20
-2.677700466579861
 10
-8.047915310329861
 20
-2.677700466579861
 10
-8.047915310329861
 20
-2.677700466579861
 10
-8.047915310329861
 20
-3.127629937065972
 10
-8.047915310329861
 20
-3.127629937065972
 10
-8.047915310329861
 20
-3.127629937065972
 10
-9.691225857204861
 20
-3.127629937065972
 10
-9.691225857204861
 20
-3.127629937065972
 10
-9.691225857204861
 20
-3.127629937065972
 10
-9.691225857204861
 20
-4.78885498046875
 10
-9.691225857204861
 20
-4.78885498046875
 10
-9.691225857204861
 20
-4.78885498046875
 10
-7.928025987413194
 20
-4.78885498046875
 10
-7.928025987413194
 20
-4.78885498046875
 10
-7.928025987413194
 20
-4.78885498046875
 10
-7.928025987413194
 20
-5.238612196180555
 10
-7.928025987413194
 20
-5.238612196180555
 10
-7.928025987413194
 20
-5.238612196180555
 10
-10.18904215494792
 20
-5.238612196180555
 10
-10.18904215494792
 20
-5.238612196180555
 97
        0
 75
     0
 76
     1
 98
        1
 10
0.0
 20
0.0
  0
HATCH
  5
2B
330
22
100
AcDbEntity
  8
NAILS
 62
     7
100
AcDbHatch
 10
0.0
 20
0.0
 30
0.0
210
0.0
220
0.0
230
1.0
  2
SOLID
 70
     1
 71
     0
 91
        2
 92
       16
 93
        1
 72
     4
 94
        3
 73
     0
 74
     0
 95
       17
 96
       13
 40
0.0
 40
0.0
 40
0.0
 40
0.0
 40
1.0
 40
1.0
 40
1.0
 40
2.0
 40
2.0
 40
2.0
 40
3.0
 40
3.0
 40
3.0
 40
4.0
 40
4.0
 40
4.0
 40
4.0
 10
-5.713863118489583
 20
-1.100535753038194
 10
-5.713863118489583
 20
-1.100535753038194
 10
-5.725920952690972
 20
-1.100535753038194
 10
-5.725920952690972
 20
-1.100535753038194
 10
-5.725920952690972
 20
-1.100535753038194
 10
-6.319855414496527
 20
-3.493326822916667
 10
-6.319855414496527
 20
-3.493326822916667
 10
-6.319855414496527
 20
-3.493326822916667
 10
-5.132331000434028
 20
-3.493326822916667
 10
-5.132331000434028
 20
-3.493326822916667
 10
-5.132331000434028
 20
-3.493326822916667
 10
-5.713863118489583
 20
-1.100535753038194
 10
-5.713863118489583
 20
-1.100535753038194
 97
        0
 92
        1
 93
        1
 72
     4
 94
        3
 73
     0
 74
     0
 95
       29
 96
       25
 40
0.0
 40
0.0
 40
0.0
 40
0.0
 40
1.0
 40
1.0
 40
1.0
 40
2.0
 40
2.0
 40
2.0
 40
3.0
 40
3.0
 40
3.0
 40
4.0
 40
4.0
 40
4.0
 40
5.0
 40
5.0
 40
5.0
 40
6.0
 40
6.0
 40
6.0
 40
7.0
 40
7.0
 40
7.0
 40
8.0
 40
8.0
 40
8.0
 40
8.0
 10
-6.037702094184027
 20
-0.7406955295138888
 10
-6.037702094184027
 20
-0.7406955295138888
 10
-5.37796630859375
 20
-0.7406955295138888
 10
-5.37796630859375
 20
-0.7406955295138888
 10
-5.37796630859375
 20
-0.7406955295138888
 10
-4.112582736545138
 20
-5.238612196180555
 10
-4.112582736545138
 20
-5.238612196180555
 10
-4.112582736545138
 20
-5.238612196180555
 10
-4.664487033420138
 20
-5.238612196180555
 10
-4.664487033420138
 20
-5.238612196180555
 10
-4.664487033420138
 20
-5.238612196180555
 10
-5.018298339843749
 20
-3.943256293402778
 10
-5.018298339843749
 20
-3.943256293402778
 10
-5.018298339843749
 20
-3.943256293402778
 10
-6.439744737413194
 20
-3.943256293402778
 10
-6.439744737413194
 20
-3.943256293402778
 10
-6.439744737413194
 20
-3.943256293402778
 10
-6.769440375434027
 20
-5.238612196180555
 10
-6.769440375434027
 20
-5.238612196180555
 10
-6.769440375434027
 20
-5.238612196180555
 10
-7.321344672309027
 20
-5.238612196180555
 10
-7.321344672309027
 20
-5.238612196180555
 10
-7.321344672309027
 20
-5.238612196180555
 10
-6.037702094184027
 20
-0.7406955295138888
 10
-6.037702094184027
 20
-0.7406955295138888
 97
        0
 75
     0
 76
     1
 98
        1
 10
0.0
 20
0.0
  0
HATCH
  5
2A
330
22
100
AcDbEntity
  8
NAILS
 62
     7
100
AcDbHatch
 10
0.0
 20
0.0
 30
0.0
210
0.0
220
0.0
230
1.0
  2
SOLID
 70
     1
 71
     0
 91
        1
 92
        1
 93
        1
 72
     4
 94
        3
 73
     0
 74
     0
 95
       44
 96
       40
 40
0.0
 40
0.0
 40
0.0
 40
0.0
 40
1.0
 40
1.0
 40
1.0
 40
2.0
 40
2.0
 40
2.0
 40
3.0
 40
3.0
 40
3.0
 40
4.0
 40
4.0
 40
4.0
 40
5.0
 40
5.0
 40
5.0
 40
6.0
 40
6.0
 40
6.0
 40
7.0
 40
7.0
 40
7.0
 40
8.0
 40
8.0
 40
8.0
 40
9.0
 40
9.0
 40
9.0
 40
10.0
 40
10.0
 40
10.0
 40
11.0
 40
11.0
 40
11.0
 40
12.0
 40
12.0
 40
12.0
 40
13.0
 40
13.0
 40
13.0
 40
13.0
 10
-1.286915418836806
 20
-2.089967176649306
 10
-1.298973253038194
 20
-1.556321885850694
 10
-1.472950575086806
 20
-1.100535753038194
 10
-2.096512858072916
 20
-1.100535753038194
 10
-2.960198296440972
 20
-1.100535753038194
 10
-2.972256130642361
 20
-2.329918077256944
 10
-2.972256130642361
 20
-2.923680284288194
 10
-2.996027289496527
 20
-3.535356987847222
 10
-3.008085123697916
 20
-4.896686469184028
 10
-2.096512858072916
 20
-4.896686469184028
 10
-1.502922905815972
 20
-4.896686469184028
 10
-1.376832411024306
 20
-4.410928005642361
 10
-1.316887749565972
 20
-3.919140625
 10
-1.304829915364583
 20
-3.817338053385416
 10
-1.298973253038194
 20
-3.715363226996527
 10
-1.286915418836806
 20
-3.613388400607639
 10
-1.286915418836806
 20
-3.613388400607639
 10
-0.7890991210937499
 20
-3.613388400607639
 10
-0.7890991210937499
 20
-3.613388400607639
 10
-0.8011569552951389
 20
-3.703305392795139
 10
-0.8011569552951389
 20
-3.799251302083333
 10
-0.8132147894965277
 20
-3.889168294270833
 10
-0.8431871202256944
 20
-4.255037434895833
 10
-0.8611016167534722
 20
-4.530989583333333
 10
-1.077109103732639
 20
-4.842770724826388
 10
-1.311031087239583
 20
-5.166609700520833
 10
-1.622812228732639
 20
-5.346615939670138
 10
-2.054482693142361
 20
-5.346615939670138
 10
-3.44010009765625
 20
-5.346615939670138
 10
-3.487986924913194
 20
-4.009229871961805
 10
-3.487986924913194
 20
-2.935738118489583
 10
-3.487986924913194
 20
-1.922191026475694
 10
-3.338125271267361
 20
-0.6506062825520833
 10
-2.060683865017361
 20
-0.6506062825520833
 10
-1.209056260850694
 20
-0.6506062825520833
 10
-0.7653279622395832
 20
-1.286398654513889
 10
-0.7890991210937499
 20
-2.089967176649306
 10
-0.7890991210937499
 20
-2.089967176649306
 10
-1.286915418836806
 20
-2.089967176649306
 10
-1.286915418836806
 20
-2.089967176649306
 97
        0
 75
     0
 76
     1
 98
        1
 10
0.0
 20
0.0
  0
HATCH
  5
29
330
22
100
AcDbEntity
  8
NAILS
 62
     7
100
AcDbHatch
 10
0.0
 20
0.0
 30
0.0
210
0.0
220
0.0
230
1.0
  2
SOLID
 70
     1
 71
     0
 91
        1
 92
        1
 93
        1
 72
     4
 94
        3
 73
     0
 74
     0
 95
       41
 96
       37
 40
0.0
 40
0.0
 40
0.0
 40
0.0
 40
1.0
 40
1.0
 40
1.0
 40
2.0
 40
2.0
 40
2.0
 40
3.0
 40
3.0
 40
3.0
 40
4.0
 40
4.0
 40
4.0
 40
5.0
 40
5.0
 40
5.0
 40
6.0
 40
6.0
 40
6.0
 40
7.0
 40
7.0
 40
7.0
 40
8.0
 40
8.0
 40
8.0
 40
9.0
 40
9.0
 40
9.0
 40
10.0
 40
10.0
 40
10.0
 40
11.0
 40
11.0
 40
11.0
 40
12.0
 40
12.0
 40
12.0
 40
12.0
 10
0.2492526584201389
 20
-5.238612196180555
 10
0.2492526584201389
 20
-5.238612196180555
 10
0.2492526584201389
 20
-0.7406955295138888
 10
0.2492526584201389
 20
-0.7406955295138888
 10
0.2492526584201389
 20
-0.7406955295138888
 10
0.7470689561631944
 20
-0.7406955295138888
 10
0.7470689561631944
 20
-0.7406955295138888
 10
0.7470689561631944
 20
-0.7406955295138888
 10
0.7470689561631944
 20
-2.617755805121528
 10
0.7470689561631944
 20
-2.617755805121528
 10
0.7470689561631944
 20
-2.617755805121528
 10
2.468238661024305
 20
-2.617755805121528
 10
2.468238661024305
 20
-2.617755805121528
 10
2.468238661024305
 20
-2.617755805121528
 10
2.468238661024305
 20
-0.7406955295138888
 10
2.468238661024305
 20
-0.7406955295138888
 10
2.468238661024305
 20
-0.7406955295138888
 10
2.966054958767361
 20
-0.7406955295138888
 10
2.966054958767361
 20
-0.7406955295138888
 10
2.966054958767361
 20
-0.7406955295138888
 10
2.966054958767361
 20
-5.238612196180555
 10
2.966054958767361
 20
-5.238612196180555
 10
2.966054958767361
 20
-5.238612196180555
 10
2.468238661024305
 20
-5.238612196180555
 10
2.468238661024305
 20
-5.238612196180555
 10
2.468238661024305
 20
-5.238612196180555
 10
2.468238661024305
 20
-3.067513020833333
 10
2.468238661024305
 20
-3.067513020833333
 10
2.468238661024305
 20
-3.067513020833333
 10
0.7470689561631944
 20
-3.067513020833333
 10
0.7470689561631944
 20
-3.067513020833333
 10
0.7470689561631944
 20
-3.067513020833333
 10
0.7470689561631944
 20
-5.238612196180555
 10
0.7470689561631944
 20
-5.238612196180555
 10
0.7470689561631944
 20
-5.238612196180555
 10
0.2492526584201389
 20
-5.238612196180555
 10
0.2492526584201389
 20
-5.238612196180555
 97
        0
 75
     0
 76
     1
 98
        1
 10
0.0
 20
0.0
  0
HATCH
  5
28
330
22
100
AcDbEntity
  8
NAILS
 62
     7
100
AcDbHatch
 10
0.0
 20
0.0
 30
0.0
210
0.0
220
0.0
230
1.0
  2
SOLID
 70
     1
 71
     0
 91
        1
 92
        1
 93
        1
 72
     4
 94
        3
 73
     0
 74
     0
 95
       56
 96
       52
 40
0.0
 40
0.0
 40
0.0
 40
0.0
 40
1.0
 40
1.0
 40
1.0
 40
2.0
 40
2.0
 40
2.0
 40
3.0
 40
3.0
 40
3.0
 40
4.0
 40
4.0
 40
4.0
 40
5.0
 40
5.0
 40
5.0
 40
6.0
 40
6.0
 40
6.0
 40
7.0
 40
7.0
 40
7.0
 40
8.0
 40
8.0
 40
8.0
 40
9.0
 40
9.0
 40
9.0
 40
10.0
 40
10.0
 40
10.0
 40
11.0
 40
11.0
 40
11.0
 40
12.0
 40
12.0
 40
12.0
 40
13.0
 40
13.0
 40
13.0
 40
14.0
 40
14.0
 40
14.0
 40
15.0
 40
15.0
 40
15.0
 40
16.0
 40
16.0
 40
16.0
 40
17.0
 40
17.0
 40
17.0
 40
17.0
 10
-8.233950466579861
 20
-7.919413248697916
 10
-8.197776963975693
 20
-7.451569281684027
 10
-8.449613444010415
 20
-7.097757975260416
 10
-8.947429741753471
 20
-7.097757975260416
 10
-9.673311360677083
 20
-7.097757975260416
 10
-9.751170518663194
 20
-7.553544108072916
 10
-9.751170518663194
 20
-7.901498752170138
 10
-9.751170518663194
 20
-8.213279893663193
 10
-9.61336669921875
 20
-8.405171712239582
 10
-9.32535671657986
 20
-8.513003200954861
 10
-9.32535671657986
 20
-8.513003200954861
 10
-8.611532931857639
 20
-8.783098687065971
 10
-8.611532931857639
 20
-8.783098687065971
 10
-7.759905327690971
 20
-9.100736490885415
 10
-7.604187011718749
 20
-9.400804307725693
 10
-7.604187011718749
 20
-9.994394259982638
 10
-7.604187011718749
 20
-10.84602186414931
 10
-8.13783230251736
 20
-11.34383816189236
 10
-9.001517740885415
 20
-11.34383816189236
 10
-9.445246039496526
 20
-11.34383816189236
 10
-9.973034667968749
 20
-11.21774766710069
 10
-10.23107231987847
 20
-10.63001437717014
 10
-10.32684597439236
 20
-10.40815022786458
 10
-10.32098931206597
 20
-10.04848225911458
 10
-10.32684597439236
 20
-9.808359103732638
 10
-10.32684597439236
 20
-9.808359103732638
 10
-9.829029676649304
 20
-9.808359103732638
 10
-9.829029676649304
 20
-9.808359103732638
 10
-9.853145345052083
 20
-10.47429606119792
 10
-9.727054850260416
 20
-10.89390869140625
 10
-8.977402072482638
 20
-10.89390869140625
 10
-8.473729112413194
 20
-10.89390869140625
 10
-8.119917805989582
 20
-10.63621554904514
 10
-8.119917805989582
 20
-10.10842692057292
 10
-8.119917805989582
 20
-9.42457546657986
 10
-8.395869954427083
 20
-9.418718804253471
 10
-8.851656087239583
 20
-9.24474148220486
 10
-9.097635904947916
 20
-9.148623318142361
 10
-9.493132866753472
 20
-9.022877332899304
 10
-9.733256022135416
 20
-8.896786838107639
 10
-10.15906982421875
 20
-8.681123860677083
 10
-10.26690131293403
 20
-8.321111382378472
 10
-10.26690131293403
 20
-7.87738308376736
 10
-10.26690131293403
 20
-7.133759223090277
 10
-9.745313856336805
 20
-6.647828504774305
 10
-9.013575575086804
 20
-6.647828504774305
 10
-8.191920301649304
 20
-6.647828504774305
 10
-7.68824734157986
 20
-7.073642306857638
 10
-7.736134168836805
 20
-7.919413248697916
 10
-7.736134168836805
 20
-7.919413248697916
 10
-8.233950466579861
 20
-7.919413248697916
 10
-8.233950466579861
 20
-7.919413248697916
 97
        0
 75
     0
 76
     1
 98
        1
 10
0.0
 20
0.0
  0
HATCH
  5
27
330
22
100
AcDbEntity
  8
NAILS
 62
     7
100
AcDbHatch
 10
0.0
 20
0.0
 30
0.0
210
0.0
220
0.0
230
1.0
  2
SOLID
 70
     1
 71
     0
 91
        1
 92
        1
 93
        1
 72
     4
 94
        3
 73
     0
 74
     0
 95
       17
 96
       13
 40
0.0
 40
0.0
 40
0.0
 40
0.0
 40
1.0
 40
1.0
 40
1.0
 40
2.0
 40
2.0
 40
2.0
 40
3.0
 40
3.0
 40
3.0
 40
4.0
 40
4.0
 40
4.0
 40
4.0
 10
-6.463515896267361
 20
-11.23566216362847
 10
-6.463515896267361
 20
-11.23566216362847
 10
-6.463515896267361
 20
-6.73791775173611
 10
-6.463515896267361
 20
-6.73791775173611
 10
-6.463515896267361
 20
-6.73791775173611
 10
-5.965699598524305
 20
-6.73791775173611
 10
-5.965699598524305
 20
-6.73791775173611
 10
-5.965699598524305
 20
-6.73791775173611
 10
-5.965699598524305
 20
-11.23566216362847
 10
-5.965699598524305
 20
-11.23566216362847
 10
-5.965699598524305
 20
-11.23566216362847
 10
-6.463515896267361
 20
-11.23566216362847
 10
-6.463515896267361
 20
-11.23566216362847
 97
        0
 75
     0
 76
     1
 98
        1
 10
0.0
 20
0.0
  0
HATCH
  5
26
330
22
100
AcDbEntity
  8
NAILS
 62
     7
100
AcDbHatch
 10
0.0
 20
0.0
 30
0.0
210
0.0
220
0.0
230
1.0
  2
SOLID
 70
     1
 71
     0
 91
        2
 92
       16
 93
        1
 72
     4
 94
        3
 73
     0
 74
     0
 95
       20
 96
       16
 40
0.0
 40
0.0
 40
0.0
 40
0.0
 40
1.0
 40
1.0
 40
1.0
 40
2.0
 40
2.0
 40
2.0
 40
3.0
 40
3.0
 40
3.0
 40
4.0
 40
4.0
 40
4.0
 40
5.0
 40
5.0
 40
5.0
 40
5.0
 10
-4.147722710503472
 20
-10.78607720269097
 10
-4.147722710503472
 20
-10.78607720269097
 10
-3.349838595920139
 20
-10.78607720269097
 10
-3.349838595920139
 20
-10.78607720269097
 10
-2.61844482421875
 20
-10.78607720269097
 10
-2.318377007378472
 20
-10.24037407769097
 10
-2.366608344184028
 20
-8.896786838107639
 10
-2.402437337239583
 20
-7.871181911892361
 10
-2.546442328559027
 20
-7.187674967447916
 10
-3.349838595920139
 20
-7.187674967447916
 10
-3.349838595920139
 20
-7.187674967447916
 10
-4.147722710503472
 20
-7.187674967447916
 10
-4.147722710503472
 20
-7.187674967447916
 10
-4.147722710503472
 20
-7.187674967447916
 10
-4.147722710503472
 20
-10.78607720269097
 10
-4.147722710503472
 20
-10.78607720269097
 97
        0
 92
        1
 93
        1
 72
     4
 94
        3
 73
     0
 74
     0
 95
       20
 96
       16
 40
0.0
 40
0.0
 40
0.0
 40
0.0
 40
1.0
 40
1.0
 40
1.0
 40
2.0
 40
2.0
 40
2.0
 40
3.0
 40
3.0
 40
3.0
 40
4.0
 40
4.0
 40
4.0
 40
5.0
 40
5.0
 40
5.0
 40
5.0
 10
-4.645539008246527
 20
-11.23566216362847
 10
-4.645539008246527
 20
-11.23566216362847
 10
-4.645539008246527
 20
-6.73791775173611
 10
-4.645539008246527
 20
-6.73791775173611
 10
-4.645539008246527
 20
-6.73791775173611
 10
-3.410127766927083
 20
-6.73791775173611
 10
-3.410127766927083
 20
-6.73791775173611
 10
-2.006595865885417
 20
-6.73791775173611
 10
-1.814704047309028
 20
-7.87738308376736
 10
-1.850533040364583
 20
-8.986703830295138
 10
-1.88670654296875
 20
-10.08431125217014
 10
-2.102714029947916
 20
-11.23566216362847
 10
-3.319866265190972
 20
-11.23566216362847
 10
-3.319866265190972
 20
-11.23566216362847
 10
-4.645539008246527
 20
-11.23566216362847
 10
-4.645539008246527
 20
-11.23566216362847
 97
        0
 75
     0
 76
     1
 98
        1
 10
0.0
 20
0.0
  0
HATCH
  5
25
330
22
100
AcDbEntity
  8
NAILS
 62
     7
100
AcDbHatch
 10
0.0
 20
0.0
 30
0.0
210
0.0
220
0.0
230
1.0
  2
SOLID
 70
     1
 71
     0
 91
        1
 92
        1
 93
        1
 72
     4
 94
        3
 73
     0
 74
     0
 95
       41
 96
       37
 40
0.0
 40
0.0
 40
0.0
 40
0.0
 40
1.0
 40
1.0
 40
1.0
 40
2.0
 40
2.0
 40
2.0
 40
3.0
 40
3.0
 40
3.0
 40
4.0
 40
4.0
 40
4.0
 40
5.0
 40
5.0
 40
5.0
 40
6.0
 40
6.0
 40
6.0
 40
7.0
 40
7.0
 40
7.0
 40
8.0
 40
8.0
 40
8.0
 40
9.0
 40
9.0
 40
9.0
 40
10.0
 40
10.0
 40
10.0
 40
11.0
 40
11.0
 40
11.0
 40
12.0
 40
12.0
 40
12.0
 40
12.0
 10
-0.7822089301215277
 20
-11.23566216362847
 10
-0.7822089301215277
 20
-11.23566216362847
 10
-0.7822089301215277
 20
-6.73791775173611
 10
-0.7822089301215277
 20
-6.73791775173611
 10
-0.7822089301215277
 20
-6.73791775173611
 10
1.466749403211805
 20
-6.73791775173611
 10
1.466749403211805
 20
-6.73791775173611
 10
1.466749403211805
 20
-6.73791775173611
 10
1.466749403211805
 20
-7.187674967447916
 10
1.466749403211805
 20
-7.187674967447916
 10
1.466749403211805
 20
-7.187674967447916
 10
-0.2843926323784722
 20
-7.187674967447916
 10
-0.2843926323784722
 20
-7.187674967447916
 10
-0.2843926323784722
 20
-7.187674967447916
 10
-0.2843926323784722
 20
-8.674922688802083
 10
-0.2843926323784722
 20
-8.674922688802083
 10
-0.2843926323784722
 20
-8.674922688802083
 10
1.358917914496528
 20
-8.674922688802083
 10
1.358917914496528
 20
-8.674922688802083
 10
1.358917914496528
 20
-8.674922688802083
 10
1.358917914496528
 20
-9.124852159288194
 10
1.358917914496528
 20
-9.124852159288194
 10
1.358917914496528
 20
-9.124852159288194
 10
-0.2843926323784722
 20
-9.124852159288194
 10
-0.2843926323784722
 20
-9.124852159288194
 10
-0.2843926323784722
 20
-9.124852159288194
 10
-0.2843926323784722
 20
-10.78607720269097
 10
-0.2843926323784722
 20
-10.78607720269097
 10
-0.2843926323784722
 20
-10.78607720269097
 10
1.478807237413194
 20
-10.78607720269097
 10
1.478807237413194
 20
-10.78607720269097
 10
1.478807237413194
 20
-10.78607720269097
 10
1.478807237413194
 20
-11.23566216362847
 10
1.478807237413194
 20
-11.23566216362847
 10
1.478807237413194
 20
-11.23566216362847
 10
-0.7822089301215277
 20
-11.23566216362847
 10
-0.7822089301215277
 20
-11.23566216362847
 97
        0
 75
     0
 76
     1
 98
        1
 10
0.0
 20
0.0
  0
ENDBLK
  5
38
330
22
100
AcDbEntity
  8
NAILS
100
AcDbBlockEnd
  0
BLOCK
  5
3B
330
39
100
AcDbEntity
  8
NAILS
 62
     7
100
AcDbBlockBegin
  2
AI9-BLK2
 70
     0
 10
0.0
 20
0.0
 30
0.0
  3
AI9-BLK2
  1

  4

  0
HATCH
  5
41
330
39
100
AcDbEntity
  8
NAILS
 62
     7
100
AcDbHatch
 10
0.0
 20
0.0
 30
0.0
210
0.0
220
0.0
230
1.0
  2
SOLID
 70
     1
 71
     0
 91
        1
 92
        1
 93
        1
 72
     4
 94
        3
 73
     0
 74
     0
 95
       26
 96
       22
 40
0.0
 40
0.0
 40
0.0
 40
0.0
 40
1.0
 40
1.0
 40
1.0
 40
2.0
 40
2.0
 40
2.0
 40
3.0
 40
3.0
 40
3.0
 40
4.0
 40
4.0
 40
4.0
 40
5.0
 40
5.0
 40
5.0
 40
6.0
 40
6.0
 40
6.0
 40
7.0
 40
7.0
 40
7.0
 40
7.0
 10
-7.332541232638889
 20
1.070563422309028
 10
-7.332541232638889
 20
1.070563422309028
 10
-8.292344835069443
 20
1.070563422309028
 10
-8.292344835069443
 20
1.070563422309028
 10
-8.292344835069443
 20
1.070563422309028
 10
-8.292344835069443
 20
1.4603759765625
 10
-8.292344835069443
 20
1.4603759765625
 10
-7.650179036458333
 20
1.472261555989583
 10
-7.296367730034722
 20
1.592323133680555
 10
-7.224365234374999
 20
2.293916829427083
 10
-7.224365234374999
 20
2.293916829427083
 10
-6.834724934895832
 20
2.293916829427083
 10
-6.834724934895832
 20
2.293916829427083
 10
-6.834724934895832
 20
2.293916829427083
 10
-6.834724934895832
 20
-2.203999837239583
 10
-6.834724934895832
 20
-2.203999837239583
 10
-6.834724934895832
 20
-2.203999837239583
 10
-7.332541232638889
 20
-2.203999837239583
 10
-7.332541232638889
 20
-2.203999837239583
 10
-7.332541232638889
 20
-2.203999837239583
 10
-7.332541232638889
 20
1.070563422309028
 10
-7.332541232638889
 20
1.070563422309028
 97
        0
 75
     0
 76
     1
 98
        1
 10
0.0
 20
0.0
  0
HATCH
  5
40
330
39
100
AcDbEntity
  8
NAILS
 62
     7
100
AcDbHatch
 10
0.0
 20
0.0
 30
0.0
210
0.0
220
0.0
230
1.0
  2
SOLID
 70
     1
 71
     0
 91
        2
 92
       16
 93
        1
 72
     4
 94
        3
 73
     0
 74
     0
 95
       17
 96
       13
 40
0.0
 40
0.0
 40
0.0
 40
0.0
 40
1.0
 40
1.0
 40
1.0
 40
2.0
 40
2.0
 40
2.0
 40
3.0
 40
3.0
 40
3.0
 40
4.0
 40
4.0
 40
4.0
 40
4.0
 10
-4.696354166666667
 20
-1.844159613715278
 10
-3.9532470703125
 20
-1.844159613715278
 10
-3.982874891493055
 20
-0.77669677734375
 10
-3.982874891493055
 20
0.0869886610243056
 10
-3.982874891493055
 20
0.7226087782118055
 10
-3.916729058159722
 20
1.790243869357639
 10
-4.696354166666667
 20
1.844159613715278
 10
-5.488037109374999
 20
1.892218695746528
 10
-5.4043212890625
 20
0.5007446289062499
 10
-5.4043212890625
 20
0.0869886610243056
 10
-5.4043212890625
 20
-0.77669677734375
 10
-5.523866102430555
 20
-1.844159613715278
 10
-4.696354166666667
 20
-1.844159613715278
 97
        0
 92
        1
 93
        1
 72
     4
 94
        3
 73
     0
 74
     0
 95
       17
 96
       13
 40
0.0
 40
0.0
 40
0.0
 40
0.0
 40
1.0
 40
1.0
 40
1.0
 40
2.0
 40
2.0
 40
2.0
 40
3.0
 40
3.0
 40
3.0
 40
4.0
 40
4.0
 40
4.0
 40
4.0
 10
-5.920052083333333
 20
0.0089572482638889
 10
-5.920052083333333
 20
0.8486992730034721
 10
-5.865964084201388
 20
2.293916829427083
 10
-4.696354166666667
 20
2.293916829427083
 10
-3.437171766493055
 20
2.293916829427083
 10
-3.466799587673611
 20
0.8666137695312499
 10
-3.466799587673611
 20
0.0089572482638889
 10
-3.466799587673611
 20
-1.010618760850694
 10
-3.521232096354166
 20
-2.293916829427083
 10
-4.696354166666667
 20
-2.293916829427083
 10
-5.896280924479166
 20
-2.293916829427083
 10
-5.920052083333333
 20
-0.7885823567708332
 10
-5.920052083333333
 20
0.0089572482638889
 97
        0
 75
     0
 76
     1
 98
        1
 10
0.0
 20
0.0
  0
HATCH
  5
3F
330
39
100
AcDbEntity
  8
NAILS
 62
     7
100
AcDbHatch
 10
0.0
 20
0.0
 30
0.0
210
0.0
220
0.0
230
1.0
  2
SOLID
 70
     1
 71
     0
 91
        1
 92
        1
 93
        1
 72
     4
 94
        3
 73
     0
 74
     0
 95
       17
 96
       13
 40
0.0
 40
0.0
 40
0.0
 40
0.0
 40
1.0
 40
1.0
 40
1.0
 40
2.0
 40
2.0
 40
2.0
 40
3.0
 40
3.0
 40
3.0
 40
4.0
 40
4.0
 40
4.0
 40
4.0
 10
-2.345421006944444
 20
-0.5546603732638888
 10
-2.345421006944444
 20
-0.5546603732638888
 10
-2.345421006944444
 20
-0.0570163302951389
 10
-2.345421006944444
 20
-0.0570163302951389
 10
-2.345421006944444
 20
-0.0570163302951389
 10
-0.8881456163194443
 20
-0.0570163302951389
 10
-0.8881456163194443
 20
-0.0570163302951389
 10
-0.8881456163194443
 20
-0.0570163302951389
 10
-0.8881456163194443
 20
-0.5546603732638888
 10
-0.8881456163194443
 20
-0.5546603732638888
 10
-0.8881456163194443
 20
-0.5546603732638888
 10
-2.345421006944444
 20
-0.5546603732638888
 10
-2.345421006944444
 20
-0.5546603732638888
 97
        0
 75
     0
 76
     1
 98
        1
 10
0.0
 20
0.0
  0
HATCH
  5
3E
330
39
100
AcDbEntity
  8
NAILS
 62
     7
100
AcDbHatch
 10
0.0
 20
0.0
 30
0.0
210
0.0
220
0.0
230
1.0
  2
SOLID
 70
     1
 71
     0
 91
        1
 92
        1
 93
        1
 72
     4
 94
        3
 73
     0
 74
     0
 95
       26
 96
       22
 40
0.0
 40
0.0
 40
0.0
 40
0.0
 40
1.0
 40
1.0
 40
1.0
 40
2.0
 40
2.0
 40
2.0
 40
3.0
 40
3.0
 40
3.0
 40
4.0
 40
4.0
 40
4.0
 40
5.0
 40
5.0
 40
5.0
 40
6.0
 40
6.0
 40
6.0
 40
7.0
 40
7.0
 40
7.0
 40
7.0
 10
1.014580620659722
 20
1.070563422309028
 10
1.014580620659722
 20
1.070563422309028
 10
0.0551215277777778
 20
1.070563422309028
 10
0.0551215277777778
 20
1.070563422309028
 10
0.0551215277777778
 20
1.070563422309028
 10
0.0551215277777778
 20
1.4603759765625
 10
0.0551215277777778
 20
1.4603759765625
 10
0.6965983072916666
 20
1.472261555989583
 10
1.050409613715278
 20
1.592323133680555
 10
1.122412109375
 20
2.293916829427083
 10
1.122412109375
 20
2.293916829427083
 10
1.512052408854167
 20
2.293916829427083
 10
1.512052408854167
 20
2.293916829427083
 10
1.512052408854167
 20
2.293916829427083
 10
1.512052408854167
 20
-2.203999837239583
 10
1.512052408854167
 20
-2.203999837239583
 10
1.512052408854167
 20
-2.203999837239583
 10
1.014580620659722
 20
-2.203999837239583
 10
1.014580620659722
 20
-2.203999837239583
 10
1.014580620659722
 20
-2.203999837239583
 10
1.014580620659722
 20
1.070563422309028
 10
1.014580620659722
 20
1.070563422309028
 97
        0
 75
     0
 76
     1
 98
        1
 10
0.0
 20
0.0
  0
HATCH
  5
3D
330
39
100
AcDbEntity
  8
NAILS
 62
     7
100
AcDbHatch
 10
0.0
 20
0.0
 30
0.0
210
0.0
220
0.0
230
1.0
  2
SOLID
 70
     1
 71
     0
 91
        2
 92
       16
 93
        1
 72
     4
 94
        3
 73
     0
 74
     0
 95
       17
 96
       13
 40
0.0
 40
0.0
 40
0.0
 40
0.0
 40
1.0
 40
1.0
 40
1.0
 40
2.0
 40
2.0
 40
2.0
 40
3.0
 40
3.0
 40
3.0
 40
4.0
 40
4.0
 40
4.0
 40
4.0
 10
3.650423177083333
 20
-1.844159613715278
 10
4.394219292534721
 20
-1.844159613715278
 10
4.364246961805555
 20
-0.77669677734375
 10
4.364246961805555
 20
0.0869886610243056
 10
4.364246961805555
 20
0.7226087782118055
 10
4.430392795138888
 20
1.790243869357639
 10
3.650423177083333
 20
1.844159613715278
 10
2.858740234375
 20
1.892218695746528
 10
2.942800564236111
 20
0.5007446289062499
 10
2.942800564236111
 20
0.0869886610243056
 10
2.942800564236111
 20
-0.77669677734375
 10
2.822911241319444
 20
-1.844159613715278
 10
3.650423177083333
 20
-1.844159613715278
 97
        0
 92
        1
 93
        1
 72
     4
 94
        3
 73
     0
 74
     0
 95
       17
 96
       13
 40
0.0
 40
0.0
 40
0.0
 40
0.0
 40
1.0
 40
1.0
 40
1.0
 40
2.0
 40
2.0
 40
2.0
 40
3.0
 40
3.0
 40
3.0
 40
4.0
 40
4.0
 40
4.0
 40
4.0
 10
2.427069769965278
 20
0.0089572482638889
 10
2.427069769965278
 20
0.8486992730034721
 10
2.480813259548611
 20
2.293916829427083
 10
3.650423177083333
 20
2.293916829427083
 10
4.909950086805555
 20
2.293916829427083
 10
4.879633246527777
 20
0.8666137695312499
 10
4.879633246527777
 20
0.0089572482638889
 10
4.879633246527777
 20
-1.010618760850694
 10
4.826234266493056
 20
-2.293916829427083
 10
3.650423177083333
 20
-2.293916829427083
 10
2.450840928819444
 20
-2.293916829427083
 10
2.427069769965278
 20
-0.7885823567708332
 10
2.427069769965278
 20
0.0089572482638889
 97
        0
 75
     0
 76
     1
 98
        1
 10
0.0
 20
0.0
  0
HATCH
  5
3C
330
39
100
AcDbEntity
  8
NAILS
 62
     7
100
AcDbHatch
 10
0.0
 20
0.0
 30
0.0
210
0.0
220
0.0
230
1.0
  2
SOLID
 70
     1
 71
     0
 91
        2
 92
       16
 93
        1
 72
     4
 94
        3
 73
     0
 74
     0
 95
       20
 96
       16
 40
0.0
 40
0.0
 40
0.0
 40
0.0
 40
1.0
 40
1.0
 40
1.0
 40
2.0
 40
2.0
 40
2.0
 40
3.0
 40
3.0
 40
3.0
 40
4.0
 40
4.0
 40
4.0
 40
5.0
 40
5.0
 40
5.0
 40
5.0
 10
7.818299696180555
 20
-0.4828301323784722
 10
7.818299696180555
 20
-0.0270439995659722
 10
7.806241861979166
 20
0.8185546874999999
 10
7.170966254340277
 20
0.8185546874999999
 10
6.775124782986111
 20
0.8185546874999999
 10
6.517087131076388
 20
0.5067735460069444
 10
6.517087131076388
 20
-0.5188313802083333
 10
6.517087131076388
 20
-1.238511827256944
 10
6.540858289930555
 20
-1.892218695746528
 10
7.188536241319444
 20
-1.892218695746528
 10
7.680840386284721
 20
-1.892218695746528
 10
7.818299696180555
 20
-1.2743408203125
 10
7.818299696180555
 20
-0.8965861002604166
 10
7.818299696180555
 20
-0.8965861002604166
 10
7.818299696180555
 20
-0.4828301323784722
 10
7.818299696180555
 20
-0.4828301323784722
 97
        0
 92
        1
 93
        1
 72
     4
 94
        3
 73
     0
 74
     0
 95
       38
 96
       34
 40
0.0
 40
0.0
 40
0.0
 40
0.0
 40
1.0
 40
1.0
 40
1.0
 40
2.0
 40
2.0
 40
2.0
 40
3.0
 40
3.0
 40
3.0
 40
4.0
 40
4.0
 40
4.0
 40
5.0
 40
5.0
 40
5.0
 40
6.0
 40
6.0
 40
6.0
 40
7.0
 40
7.0
 40
7.0
 40
8.0
 40
8.0
 40
8.0
 40
9.0
 40
9.0
 40
9.0
 40
10.0
 40
10.0
 40
10.0
 40
11.0
 40
11.0
 40
11.0
 40
11.0
 10
7.818299696180555
 20
2.293916829427083
 10
7.818299696180555
 20
2.293916829427083
 10
8.292344835069443
 20
2.293916829427083
 10
8.292344835069443
 20
2.293916829427083
 10
8.292344835069443
 20
2.293916829427083
 10
8.292344835069443
 20
-2.203999837239583
 10
8.292344835069443
 20
-2.203999837239583
 10
8.292344835069443
 20
-2.203999837239583
 10
7.836558702256943
 20
-2.203999837239583
 10
7.836558702256943
 20
-2.203999837239583
 10
7.836558702256943
 20
-2.203999837239583
 10
7.836558702256943
 20
-1.766128200954861
 10
7.836558702256943
 20
-1.766128200954861
 10
7.836558702256943
 20
-1.766128200954861
 10
7.824845377604166
 20
-1.766128200954861
 10
7.824845377604166
 20
-1.766128200954861
 10
7.620551215277777
 20
-2.161969672309028
 10
7.4166015625
 20
-2.293916829427083
 10
7.014903428819443
 20
-2.293916829427083
 10
5.96552734375
 20
-2.293916829427083
 10
6.049243164062499
 20
-0.8245836046006944
 10
6.037529839409721
 20
-0.5307169596354167
 10
6.001011827256944
 20
0.4468288845486111
 10
6.325539822048611
 20
1.220425075954861
 10
7.038674587673611
 20
1.220425075954861
 10
7.380772569444444
 20
1.220425075954861
 10
7.584722222222221
 20
1.076592339409722
 10
7.806241861979166
 20
0.7885823567708332
 10
7.806241861979166
 20
0.7885823567708332
 10
7.818299696180555
 20
0.7885823567708332
 10
7.818299696180555
 20
0.7885823567708332
 10
7.818299696180555
 20
0.7885823567708332
 10
7.818299696180555
 20
2.293916829427083
 10
7.818299696180555
 20
2.293916829427083
 97
        0
 75
     0
 76
     1
 98
        1
 10
0.0
 20
0.0
  0
ENDBLK
  5
42
330
39
100
AcDbEntity
  8
NAILS
100
AcDbBlockEnd
  0
BLOCK
  5
45
330
43
100
AcDbEntity
  8
NAILS
 62
     7
100
AcDbBlockBegin
  2
AI9-BLK3
 70
     0
 10
0.0
 20
0.0
 30
0.0
  3
AI9-BLK3
  1

  4

  0
HATCH
  5
4E
330
43
100
AcDbEntity
  8
NAILS
 62
     7
100
AcDbHatch
 10
0.0
 20
0.0
 30
0.0
210
0.0
220
0.0
230
1.0
  2
SOLID
 70
     1
 71
     0
 91
        1
 92
        1
 93
        1
 72
     4
 94
        3
 73
     0
 74
     0
 95
       53
 96
       49
 40
0.0
 40
0.0
 40
0.0
 40
0.0
 40
1.0
 40
1.0
 40
1.0
 40
2.0
 40
2.0
 40
2.0
 40
3.0
 40
3.0
 40
3.0
 40
4.0
 40
4.0
 40
4.0
 40
5.0
 40
5.0
 40
5.0
 40
6.0
 40
6.0
 40
6.0
 40
7.0
 40
7.0
 40
7.0
 40
8.0
 40
8.0
 40
8.0
 40
9.0
 40
9.0
 40
9.0
 40
10.0
 40
10.0
 40
10.0
 40
11.0
 40
11.0
 40
11.0
 40
12.0
 40
12.0
 40
12.0
 40
13.0
 40
13.0
 40
13.0
 40
14.0
 40
14.0
 40
14.0
 40
15.0
 40
15.0
 40
15.0
 40
16.0
 40
16.0
 40
16.0
 40
16.0
 10
-8.952080620659721
 20
-2.663144938151041
 10
-8.952080620659721
 20
-2.663144938151041
 10
-9.335864257812499
 20
-2.663144938151041
 10
-9.335864257812499
 20
-2.663144938151041
 10
-9.335864257812499
 20
-2.663144938151041
 10
-9.335864257812499
 20
-1.961378987630208
 10
-9.335864257812499
 20
-1.961378987630208
 10
-9.335864257812499
 20
-1.961378987630208
 10
-9.347922092013889
 20
-1.961378987630208
 10
-9.347922092013889
 20
-1.961378987630208
 10
-9.479869249131944
 20
-2.471253119574653
 10
-9.881567382812499
 20
-2.735147433810764
 10
-10.37938368055555
 20
-2.735147433810764
 10
-11.7171142578125
 20
-2.735147433810764
 10
-11.81874457465278
 20
-1.403618028428819
 10
-11.81874457465278
 20
-0.3482130262586805
 10
-11.81874457465278
 20
0.7013353135850694
 10
-11.63305392795139
 20
1.960862223307291
 10
-10.33149685329861
 20
1.960862223307291
 10
-9.474012586805555
 20
1.960862223307291
 10
-8.982052951388889
 20
1.403101264105903
 10
-8.994455295138888
 20
0.5633592393663194
 10
-8.994455295138888
 20
0.5633592393663194
 10
-9.497783745659721
 20
0.5633592393663194
 10
-9.497783745659721
 20
0.5633592393663194
 10
-9.50364040798611
 20
1.115091281467014
 10
-9.737562391493055
 20
1.499047173394097
 10
-10.30738118489583
 20
1.51093275282118
 10
-11.29095594618056
 20
1.529019504123264
 10
-11.30301378038194
 20
0.4014397515190972
 10
-11.30301378038194
 20
-0.3661275227864583
 10
-11.30301378038194
 20
-1.049806722005208
 10
-11.33918728298611
 20
-2.243360053168403
 10
-10.45138617621528
 20
-2.285217963324653
 10
-9.5281005859375
 20
-2.327248128255208
 10
-9.444040256076388
 20
-1.481649441189236
 10
-9.450241427951388
 20
-0.7679979112413193
 10
-9.450241427951388
 20
-0.7679979112413193
 10
-10.45138617621528
 20
-0.7679979112413193
 10
-10.45138617621528
 20
-0.7679979112413193
 10
-10.45138617621528
 20
-0.7679979112413193
 10
-10.45138617621528
 20
-0.3182406955295138
 10
-10.45138617621528
 20
-0.3182406955295138
 10
-10.45138617621528
 20
-0.3182406955295138
 10
-8.952080620659721
 20
-0.3182406955295138
 10
-8.952080620659721
 20
-0.3182406955295138
 10
-8.952080620659721
 20
-0.3182406955295138
 10
-8.952080620659721
 20
-2.663144938151041
 10
-8.952080620659721
 20
-2.663144938151041
 97
        0
 75
     0
 76
     1
 98
        1
 10
0.0
 20
0.0
  0
HATCH
  5
4D
330
43
100
AcDbEntity
  8
NAILS
 62
     7
100
AcDbHatch
 10
0.0
 20
0.0
 30
0.0
210
0.0
220
0.0
230
1.0
  2
SOLID
 70
     1
 71
     0
 91
        2
 92
       16
 93
        1
 72
     4
 94
        3
 73
     0
 74
     0
 95
       17
 96
       13
 40
0.0
 40
0.0
 40
0.0
 40
0.0
 40
1.0
 40
1.0
 40
1.0
 40
2.0
 40
2.0
 40
2.0
 40
3.0
 40
3.0
 40
3.0
 40
4.0
 40
4.0
 40
4.0
 40
4.0
 10
-6.805097113715277
 20
1.51093275282118
 10
-6.805097113715277
 20
1.51093275282118
 10
-6.817499457465277
 20
1.51093275282118
 10
-6.817499457465277
 20
1.51093275282118
 10
-6.817499457465277
 20
1.51093275282118
 10
-7.410744900173611
 20
-0.8818583170572916
 10
-7.410744900173611
 20
-0.8818583170572916
 10
-7.410744900173611
 20
-0.8818583170572916
 10
-6.223564995659721
 20
-0.8818583170572916
 10
-6.223564995659721
 20
-0.8818583170572916
 10
-6.223564995659721
 20
-0.8818583170572916
 10
-6.805097113715277
 20
1.51093275282118
 10
-6.805097113715277
 20
1.51093275282118
 97
        0
 92
        1
 93
        1
 72
     4
 94
        3
 73
     0
 74
     0
 95
       29
 96
       25
 40
0.0
 40
0.0
 40
0.0
 40
0.0
 40
1.0
 40
1.0
 40
1.0
 40
2.0
 40
2.0
 40
2.0
 40
3.0
 40
3.0
 40
3.0
 40
4.0
 40
4.0
 40
4.0
 40
5.0
 40
5.0
 40
5.0
 40
6.0
 40
6.0
 40
6.0
 40
7.0
 40
7.0
 40
7.0
 40
8.0
 40
8.0
 40
8.0
 40
8.0
 10
-7.129280598958332
 20
1.870772976345486
 10
-7.129280598958332
 20
1.870772976345486
 10
-6.469544813368055
 20
1.870772976345486
 10
-6.469544813368055
 20
1.870772976345486
 10
-6.469544813368055
 20
1.870772976345486
 10
-5.203816731770833
 20
-2.62714369032118
 10
-5.203816731770833
 20
-2.62714369032118
 10
-5.203816731770833
 20
-2.62714369032118
 10
-5.755721028645833
 20
-2.62714369032118
 10
-5.755721028645833
 20
-2.62714369032118
 10
-5.755721028645833
 20
-2.62714369032118
 10
-6.109532335069444
 20
-1.331787787543403
 10
-6.109532335069444
 20
-1.331787787543403
 10
-6.109532335069444
 20
-1.331787787543403
 10
-7.530634223090277
 20
-1.331787787543403
 10
-7.530634223090277
 20
-1.331787787543403
 10
-7.530634223090277
 20
-1.331787787543403
 10
-7.860674370659721
 20
-2.62714369032118
 10
-7.860674370659721
 20
-2.62714369032118
 10
-7.860674370659721
 20
-2.62714369032118
 10
-8.412578667534721
 20
-2.62714369032118
 10
-8.412578667534721
 20
-2.62714369032118
 10
-8.412578667534721
 20
-2.62714369032118
 10
-7.129280598958332
 20
1.870772976345486
 10
-7.129280598958332
 20
1.870772976345486
 97
        0
 75
     0
 76
     1
 98
        1
 10
0.0
 20
0.0
  0
HATCH
  5
4C
330
43
100
AcDbEntity
  8
NAILS
 62
     7
100
AcDbHatch
 10
0.0
 20
0.0
 30
0.0
210
0.0
220
0.0
230
1.0
  2
SOLID
 70
     1
 71
     0
 91
        2
 92
       16
 93
        1
 72
     4
 94
        3
 73
     0
 74
     0
 95
       20
 96
       16
 40
0.0
 40
0.0
 40
0.0
 40
0.0
 40
1.0
 40
1.0
 40
1.0
 40
2.0
 40
2.0
 40
2.0
 40
3.0
 40
3.0
 40
3.0
 40
4.0
 40
4.0
 40
4.0
 40
5.0
 40
5.0
 40
5.0
 40
5.0
 10
-4.130669487847221
 20
-0.2701816134982639
 10
-4.130669487847221
 20
-0.2701816134982639
 10
-3.644566514756944
 20
-0.2701816134982639
 10
-3.644566514756944
 20
-0.2701816134982639
 10
-2.960715060763889
 20
-0.2641526963975694
 10
-2.541446940104167
 20
-0.168206787109375
 10
-2.546959092881944
 20
0.6053894042968749
 10
-2.546959092881944
 20
1.33109876844618
 10
-3.009290907118055
 20
1.433073594835069
 10
-3.614938693576389
 20
1.42101576063368
 10
-3.614938693576389
 20
1.42101576063368
 10
-4.130669487847221
 20
1.42101576063368
 10
-4.130669487847221
 20
1.42101576063368
 10
-4.130669487847221
 20
1.42101576063368
 10
-4.130669487847221
 20
-0.2701816134982639
 10
-4.130669487847221
 20
-0.2701816134982639
 97
        0
 92
        1
 93
        1
 72
     4
 94
        3
 73
     0
 74
     0
 95
       32
 96
       28
 40
0.0
 40
0.0
 40
0.0
 40
0.0
 40
1.0
 40
1.0
 40
1.0
 40
2.0
 40
2.0
 40
2.0
 40
3.0
 40
3.0
 40
3.0
 40
4.0
 40
4.0
 40
4.0
 40
5.0
 40
5.0
 40
5.0
 40
6.0
 40
6.0
 40
6.0
 40
7.0
 40
7.0
 40
7.0
 40
8.0
 40
8.0
 40
8.0
 40
9.0
 40
9.0
 40
9.0
 40
9.0
 10
-4.628485785590278
 20
-2.62714369032118
 10
-4.628485785590278
 20
-2.62714369032118
 10
-4.628485785590278
 20
1.870772976345486
 10
-4.628485785590278
 20
1.870772976345486
 10
-4.628485785590278
 20
1.870772976345486
 10
-3.446818033854167
 20
1.870772976345486
 10
-3.446818033854167
 20
1.870772976345486
 10
-3.098863389756944
 20
1.870772976345486
 10
-2.660991753472222
 20
1.828915066189236
 10
-2.397441948784722
 20
1.576906331380208
 10
-2.127346462673611
 20
1.325069851345486
 10
-2.031572808159722
 20
0.9772874620225693
 10
-2.031572808159722
 20
0.6174472384982639
 10
-2.031572808159722
 20
0.1196309407552083
 10
-2.181434461805555
 20
-0.3661275227864583
 10
-2.666848415798611
 20
-0.5879916720920139
 10
-2.978974066840277
 20
-0.7199388292100694
 10
-3.488503689236111
 20
-0.7199388292100694
 10
-3.830946180555555
 20
-0.7199388292100694
 10
-3.830946180555555
 20
-0.7199388292100694
 10
-4.130669487847221
 20
-0.7199388292100694
 10
-4.130669487847221
 20
-0.7199388292100694
 10
-4.130669487847221
 20
-0.7199388292100694
 10
-4.130669487847221
 20
-2.62714369032118
 10
-4.130669487847221
 20
-2.62714369032118
 10
-4.130669487847221
 20
-2.62714369032118
 10
-4.628485785590278
 20
-2.62714369032118
 10
-4.628485785590278
 20
-2.62714369032118
 97
        0
 75
     0
 76
     1
 98
        1
 10
0.0
 20
0.0
  0
HATCH
  5
4B
330
43
100
AcDbEntity
  8
NAILS
 62
     7
100
AcDbHatch
 10
0.0
 20
0.0
 30
0.0
210
0.0
220
0.0
230
1.0
  2
SOLID
 70
     1
 71
     0
 91
        1
 92
        1
 93
        1
 72
     4
 94
        3
 73
     0
 74
     0
 95
       26
 96
       22
 40
0.0
 40
0.0
 40
0.0
 40
0.0
 40
1.0
 40
1.0
 40
1.0
 40
2.0
 40
2.0
 40
2.0
 40
3.0
 40
3.0
 40
3.0
 40
4.0
 40
4.0
 40
4.0
 40
5.0
 40
5.0
 40
5.0
 40
6.0
 40
6.0
 40
6.0
 40
7.0
 40
7.0
 40
7.0
 40
7.0
 10
0.8123535156249999
 20
1.756395806206597
 10
0.8123535156249999
 20
1.756395806206597
 10
0.0447862413194444
 20
1.756395806206597
 10
0.0447862413194444
 20
1.756395806206597
 10
0.0447862413194444
 20
1.756395806206597
 10
0.0447862413194444
 20
2.068176947699653
 10
0.0447862413194444
 20
2.068176947699653
 10
0.55810546875
 20
2.077823215060764
 10
0.8409478081597221
 20
2.173769124348958
 10
0.8988254123263888
 20
2.735147433810764
 10
0.8988254123263888
 20
2.735147433810764
 10
1.210951063368055
 20
2.735147433810764
 10
1.210951063368055
 20
2.735147433810764
 10
1.210951063368055
 20
2.735147433810764
 10
1.210951063368055
 20
-0.8632548014322916
 10
1.210951063368055
 20
-0.8632548014322916
 10
1.210951063368055
 20
-0.8632548014322916
 10
0.8123535156249999
 20
-0.8632548014322916
 10
0.8123535156249999
 20
-0.8632548014322916
 10
0.8123535156249999
 20
-0.8632548014322916
 10
0.8123535156249999
 20
1.756395806206597
 10
0.8123535156249999
 20
1.756395806206597
 97
        0
 75
     0
 76
     1
 98
        1
 10
0.0
 20
0.0
  0
HATCH
  5
4A
330
43
100
AcDbEntity
  8
NAILS
 62
     7
100
AcDbHatch
 10
0.0
 20
0.0
 30
0.0
210
0.0
220
0.0
230
1.0
  2
SOLID
 70
     1
 71
     0
 91
        1
 92
        1
 93
        1
 72
     4
 94
        3
 73
     0
 74
     0
 95
       17
 96
       13
 40
0.0
 40
0.0
 40
0.0
 40
0.0
 40
1.0
 40
1.0
 40
1.0
 40
2.0
 40
2.0
 40
2.0
 40
3.0
 40
3.0
 40
3.0
 40
4.0
 40
4.0
 40
4.0
 40
4.0
 10
2.026405164930555
 20
-2.051123725043403
 10
2.026405164930555
 20
-2.051123725043403
 10
3.192225477430555
 20
1.67681410047743
 10
3.192225477430555
 20
1.67681410047743
 10
3.192225477430555
 20
1.67681410047743
 10
3.484714084201388
 20
1.67681410047743
 10
3.484714084201388
 20
1.67681410047743
 10
3.484714084201388
 20
1.67681410047743
 10
2.31923828125
 20
-2.051123725043403
 10
2.31923828125
 20
-2.051123725043403
 10
2.31923828125
 20
-2.051123725043403
 10
2.026405164930555
 20
-2.051123725043403
 10
2.026405164930555
 20
-2.051123725043403
 97
        0
 75
     0
 76
     1
 98
        1
 10
0.0
 20
0.0
  0
HATCH
  5
49
330
43
100
AcDbEntity
  8
NAILS
 62
     7
100
AcDbHatch
 10
0.0
 20
0.0
 30
0.0
210
0.0
220
0.0
230
1.0
  2
SOLID
 70
     1
 71
     0
 91
        2
 92
       16
 93
        1
 72
     4
 94
        3
 73
     0
 74
     0
 95
       17
 96
       13
 40
0.0
 40
0.0
 40
0.0
 40
0.0
 40
1.0
 40
1.0
 40
1.0
 40
2.0
 40
2.0
 40
2.0
 40
3.0
 40
3.0
 40
3.0
 40
4.0
 40
4.0
 40
4.0
 40
4.0
 10
3.873320855034722
 20
-1.370028347439236
 10
3.873320855034722
 20
-1.370028347439236
 10
4.866541883680555
 20
-1.370028347439236
 10
4.866541883680555
 20
-1.370028347439236
 10
4.866541883680555
 20
-1.370028347439236
 10
4.866541883680555
 20
0.3475240071614583
 10
4.866541883680555
 20
0.3475240071614583
 10
4.866541883680555
 20
0.3475240071614583
 10
4.857240125868056
 20
0.3475240071614583
 10
4.857240125868056
 20
0.3475240071614583
 10
4.857240125868056
 20
0.3475240071614583
 10
3.873320855034722
 20
-1.370028347439236
 10
3.873320855034722
 20
-1.370028347439236
 97
        0
 92
        1
 93
        1
 72
     4
 94
        3
 73
     0
 74
     0
 95
       38
 96
       34
 40
0.0
 40
0.0
 40
0.0
 40
0.0
 40
1.0
 40
1.0
 40
1.0
 40
2.0
 40
2.0
 40
2.0
 40
3.0
 40
3.0
 40
3.0
 40
4.0
 40
4.0
 40
4.0
 40
5.0
 40
5.0
 40
5.0
 40
6.0
 40
6.0
 40
6.0
 40
7.0
 40
7.0
 40
7.0
 40
8.0
 40
8.0
 40
8.0
 40
9.0
 40
9.0
 40
9.0
 40
10.0
 40
10.0
 40
10.0
 40
11.0
 40
11.0
 40
11.0
 40
11.0
 10
4.900303819444444
 20
0.9712585449218749
 10
4.900303819444444
 20
0.9712585449218749
 10
5.264794921875
 20
0.9712585449218749
 10
5.264794921875
 20
0.9712585449218749
 10
5.264794921875
 20
0.9712585449218749
 10
5.264794921875
 20
-1.370028347439236
 10
5.264794921875
 20
-1.370028347439236
 10
5.264794921875
 20
-1.370028347439236
 10
5.586222330729166
 20
-1.370028347439236
 10
5.586222330729166
 20
-1.370028347439236
 10
5.586222330729166
 20
-1.370028347439236
 10
5.586222330729166
 20
-1.729868570963542
 10
5.586222330729166
 20
-1.729868570963542
 10
5.586222330729166
 20
-1.729868570963542
 10
5.264794921875
 20
-1.729868570963542
 10
5.264794921875
 20
-1.729868570963542
 10
5.264794921875
 20
-1.729868570963542
 10
5.264794921875
 20
-2.62714369032118
 10
5.264794921875
 20
-2.62714369032118
 10
5.264794921875
 20
-2.62714369032118
 10
4.866541883680555
 20
-2.62714369032118
 10
4.866541883680555
 20
-2.62714369032118
 10
4.866541883680555
 20
-2.62714369032118
 10
4.866541883680555
 20
-1.729868570963542
 10
4.866541883680555
 20
-1.729868570963542
 10
4.866541883680555
 20
-1.729868570963542
 10
3.556716579861111
 20
-1.729868570963542
 10
3.556716579861111
 20
-1.729868570963542
 10
3.556716579861111
 20
-1.729868570963542
 10
3.556716579861111
 20
-1.360554334852431
 10
3.556716579861111
 20
-1.360554334852431
 10
3.556716579861111
 20
-1.360554334852431
 10
4.900303819444444
 20
0.9712585449218749
 10
4.900303819444444
 20
0.9712585449218749
 97
        0
 75
     0
 76
     1
 98
        1
 10
0.0
 20
0.0
  0
HATCH
  5
48
330
43
100
AcDbEntity
  8
NAILS
 62
     7
100
AcDbHatch
 10
0.0
 20
0.0
 30
0.0
210
0.0
220
0.0
230
1.0
  2
SOLID
 70
     1
 71
     0
 91
        2
 92
        1
 93
        1
 72
     4
 94
        3
 73
     0
 74
     0
 95
       17
 96
       13
 40
0.0
 40
0.0
 40
0.0
 40
0.0
 40
1.0
 40
1.0
 40
1.0
 40
2.0
 40
2.0
 40
2.0
 40
3.0
 40
3.0
 40
3.0
 40
4.0
 40
4.0
 40
4.0
 40
4.0
 10
6.751009114583333
 20
1.804799397786458
 10
6.751009114583333
 20
1.804799397786458
 10
7.062445746527777
 20
1.804799397786458
 10
7.062445746527777
 20
1.804799397786458
 10
7.062445746527777
 20
1.804799397786458
 10
7.062445746527777
 20
0.4494988335503472
 10
7.062445746527777
 20
0.4494988335503472
 10
7.062445746527777
 20
0.4494988335503472
 10
6.751009114583333
 20
0.4494988335503472
 10
6.751009114583333
 20
0.4494988335503472
 10
6.751009114583333
 20
0.4494988335503472
 10
6.751009114583333
 20
1.804799397786458
 10
6.751009114583333
 20
1.804799397786458
 97
        0
 92
        1
 93
        1
 72
     4
 94
        3
 73
     0
 74
     0
 95
       17
 96
       13
 40
0.0
 40
0.0
 40
0.0
 40
0.0
 40
1.0
 40
1.0
 40
1.0
 40
2.0
 40
2.0
 40
2.0
 40
3.0
 40
3.0
 40
3.0
 40
4.0
 40
4.0
 40
4.0
 40
4.0
 10
6.085072157118055
 20
1.804799397786458
 10
6.085072157118055
 20
1.804799397786458
 10
6.39685329861111
 20
1.804799397786458
 10
6.39685329861111
 20
1.804799397786458
 10
6.39685329861111
 20
1.804799397786458
 10
6.39685329861111
 20
0.4494988335503472
 10
6.39685329861111
 20
0.4494988335503472
 10
6.39685329861111
 20
0.4494988335503472
 10
6.085072157118055
 20
0.4494988335503472
 10
6.085072157118055
 20
0.4494988335503472
 10
6.085072157118055
 20
0.4494988335503472
 10
6.085072157118055
 20
1.804799397786458
 10
6.085072157118055
 20
1.804799397786458
 97
        0
 75
     0
 76
     1
 98
        1
 10
0.0
 20
0.0
  0
HATCH
  5
47
330
43
100
AcDbEntity
  8
NAILS
 62
     7
100
AcDbHatch
 10
0.0
 20
0.0
 30
0.0
210
0.0
220
0.0
230
1.0
  2
SOLID
 70
     1
 71
     0
 91
        1
 92
        1
 93
        1
 72
     4
 94
        3
 73
     0
 74
     0
 95
       41
 96
       37
 40
0.0
 40
0.0
 40
0.0
 40
0.0
 40
1.0
 40
1.0
 40
1.0
 40
2.0
 40
2.0
 40
2.0
 40
3.0
 40
3.0
 40
3.0
 40
4.0
 40
4.0
 40
4.0
 40
5.0
 40
5.0
 40
5.0
 40
6.0
 40
6.0
 40
6.0
 40
7.0
 40
7.0
 40
7.0
 40
8.0
 40
8.0
 40
8.0
 40
9.0
 40
9.0
 40
9.0
 40
10.0
 40
10.0
 40
10.0
 40
11.0
 40
11.0
 40
11.0
 40
12.0
 40
12.0
 40
12.0
 40
12.0
 10
10.10963270399306
 20
2.165328640407986
 10
10.10963270399306
 20
2.165328640407986
 10
10.52890082465278
 20
2.165328640407986
 10
10.52890082465278
 20
2.165328640407986
 10
10.52890082465278
 20
2.165328640407986
 10
10.52890082465278
 20
0.8699727376302082
 10
10.52890082465278
 20
0.8699727376302082
 10
10.52890082465278
 20
0.8699727376302082
 10
11.56036241319444
 20
0.8699727376302082
 10
11.56036241319444
 20
0.8699727376302082
 10
11.56036241319444
 20
0.8699727376302082
 10
11.56036241319444
 20
0.4501878526475694
 10
11.56036241319444
 20
0.4501878526475694
 10
11.56036241319444
 20
0.4501878526475694
 10
10.52890082465278
 20
0.4501878526475694
 10
10.52890082465278
 20
0.4501878526475694
 10
10.52890082465278
 20
0.4501878526475694
 10
10.52890082465278
 20
-0.8632548014322916
 10
10.52890082465278
 20
-0.8632548014322916
 10
10.52890082465278
 20
-0.8632548014322916
 10
10.10963270399306
 20
-0.8632548014322916
 10
10.10963270399306
 20
-0.8632548014322916
 10
10.10963270399306
 20
-0.8632548014322916
 10
10.10963270399306
 20
0.4501878526475694
 10
10.10963270399306
 20
0.4501878526475694
 10
10.10963270399306
 20
0.4501878526475694
 10
9.083683268229166
 20
0.4501878526475694
 10
9.083683268229166
 20
0.4501878526475694
 10
9.083683268229166
 20
0.4501878526475694
 10
9.083683268229166
 20
0.8699727376302082
 10
9.083683268229166
 20
0.8699727376302082
 10
9.083683268229166
 20
0.8699727376302082
 10
10.10963270399306
 20
0.8699727376302082
 10
10.10963270399306
 20
0.8699727376302082
 10
10.10963270399306
 20
0.8699727376302082
 10
10.10963270399306
 20
2.165328640407986
 10
10.10963270399306
 20
2.165328640407986
 97
        0
 75
     0
 76
     1
 98
        1
 10
0.0
 20
0.0
  0
HATCH
  5
46
330
43
100
AcDbEntity
  8
NAILS
 62
     7
100
AcDbHatch
 10
0.0
 20
0.0
 30
0.0
210
0.0
220
0.0
230
1.0
  2
SOLID
 70
     1
 71
     0
 91
        1
 92
        1
 93
        1
 72
     4
 94
        3
 73
     0
 74
     0
 95
       17
 96
       13
 40
0.0
 40
0.0
 40
0.0
 40
0.0
 40
1.0
 40
1.0
 40
1.0
 40
2.0
 40
2.0
 40
2.0
 40
3.0
 40
3.0
 40
3.0
 40
4.0
 40
4.0
 40
4.0
 40
4.0
 10
11.81874457465278
 20
-2.018567572699653
 10
11.81874457465278
 20
-2.018567572699653
 10
11.81874457465278
 20
-2.318463134765625
 10
11.81874457465278
 20
-2.318463134765625
 10
11.81874457465278
 20
-2.318463134765625
 10
8.820133463541666
 20
-2.318463134765625
 10
8.820133463541666
 20
-2.318463134765625
 10
8.820133463541666
 20
-2.318463134765625
 10
8.820133463541666
 20
-2.018567572699653
 10
8.820133463541666
 20
-2.018567572699653
 10
8.820133463541666
 20
-2.018567572699653
 10
11.81874457465278
 20
-2.018567572699653
 10
11.81874457465278
 20
-2.018567572699653
 97
        0
 75
     0
 76
     1
 98
        1
 10
0.0
 20
0.0
  0
ENDBLK
  5
4F
330
43
100
AcDbEntity
  8
NAILS
100
AcDbBlockEnd
  0
BLOCK
  5
52
330
50
100
AcDbEntity
  8
NAILS
 62
     7
100
AcDbBlockBegin
  2
AI9-BLK4
 70
     0
 10
0.0
 20
0.0
 30
0.0
  3
AI9-BLK4
  1

  4

  0
HATCH
  5
54
330
50
100
AcDbEntity
  8
NAILS
 62
     7
100
AcDbHatch
 10
0.0
 20
0.0
 30
0.0
210
0.0
220
0.0
230
1.0
  2
SOLID
 70
     1
 71
     0
 91
        1
 92
        3
 72
     0
 73
     1
 93
        3
 10
-3.139515516493055
 20
-1.494654676649305
 10
-4.931654188368055
 20
-3.862124294704861
 10
-2.195903862847222
 20
-2.708017306857639
 97
        0
 75
     0
 76
     1
 98
        1
 10
0.0
 20
0.0
  0
LINE
  5
53
330
50
100
AcDbEntity
  8
NAILS
 62
     7
100
AcDbLine
 10
-3.087150065104166
 20
-2.415873209635417
 30
0.0
 11
4.850349934895833
 21
3.757737901475694
 31
0.0
  0
ENDBLK
  5
55
330
50
100
AcDbEntity
  8
NAILS
100
AcDbBlockEnd
  0
BLOCK
  5
58
330
56
100
AcDbEntity
  8
NAILS
 62
     7
100
AcDbBlockBegin
  2
AI9-BLK5
 70
     0
 10
0.0
 20
0.0
 30
0.0
  3
AI9-BLK5
  1

  4

  0
LWPOLYLINE
  5
5A
330
56
100
AcDbEntity
  8
NAILS
 62
     7
100
AcDbPolyline
 90
        3
 70
     0
 43
0.0
 10
-12.00133463541667
 20
-2.217005072699652
 10
8.98894314236111
 20
2.721883816189236
 10
14.28060980902778
 20
2.721883816189236
  0
HATCH
  5
59
330
56
100
AcDbEntity
  8
NAILS
 62
     7
100
AcDbHatch
 10
0.0
 20
0.0
 30
0.0
210
0.0
220
0.0
230
1.0
  2
SOLID
 70
     1
 71
     0
 91
        1
 92
        3
 72
     0
 73
     1
 93
        3
 10
-11.66474880642361
 20
-1.357970513237847
 10
-14.28060980902778
 20
-2.762880452473958
 10
-11.31300455729167
 20
-2.854175482855903
 97
        0
 75
     0
 76
     1
 98
        1
 10
0.0
 20
0.0
  0
ENDBLK
  5
5F
330
56
100
AcDbEntity
  8
NAILS
100
AcDbBlockEnd
  0
BLOCK
  5
62
330
60
100
AcDbEntity
  8
NAILS
 62
     7
100
AcDbBlockBegin
  2
AI9-BLK6
 70
     0
 10
0.0
 20
0.0
 30
0.0
  3
AI9-BLK6
  1

  4

  0
INSERT
  5
65
330
60
100
AcDbEntity
  8
NAILS
 62
     7
100
AcDbBlockReference
  2
AI9-BLK7
 10
0.0
 20
0.0
 30
0.0
  0
HATCH
  5
63
330
60
100
AcDbEntity
  8
NAILS
 62
     7
100
AcDbHatch
 10
0.0
 20
0.0
 30
0.0
210
0.0
220
0.0
230
1.0
  2
SOLID
 70
     1
 71
     0
 91
        1
 92
        3
 72
     0
 73
     1
 93
        3
 10
-6.327606879340277
 20
-1.638401285807292
 10
-8.41843532986111
 20
-3.747488742404514
 10
-5.553493923611111
 20
-2.966141086154514
 97
        0
 75
     0
 76
     1
 98
        1
 10
0.0
 20
0.0
  0
ENDBLK
  5
6E
330
60
100
AcDbEntity
  8
NAILS
100
AcDbBlockEnd
  0
BLOCK
  5
66
330
64
100
AcDbEntity
  8
NAILS
 62
     7
100
AcDbBlockBegin
  2
AI9-BLK7
 70
     0
 10
0.0
 20
0.0
 30
0.0
  3
AI9-BLK7
  1

  4

  0
LWPOLYLINE
  5
68
330
64
100
AcDbEntity
  8
NAILS
 62
     7
100
AcDbPolyline
 90
        3
 70
     0
 43
0.0
 10
-6.398231336805555
 20
-2.558414035373264
 10
4.185101996527777
 20
3.615197075737847
 10
8.41843532986111
 20
3.615197075737847
  0
HATCH
  5
67
330
64
100
AcDbEntity
  8
NAILS
 62
     7
100
AcDbHatch
 10
0.0
 20
0.0
 30
0.0
210
0.0
220
0.0
230
1.0
  2
SOLID
 70
     1
 71
     0
 91
        1
 92
        3
 72
     0
 73
     1
 93
        3
 10
-6.327606879340277
 20
-1.638401285807292
 10
-8.41843532986111
 20
-3.747488742404514
 10
-5.553493923611111
 20
-2.966141086154514
 97
        0
 75
     0
 76
     1
 98
        1
 10
0.0
 20
0.0
  0
ENDBLK
  5
6D
330
64
100
AcDbEntity
  8
NAILS
100
AcDbBlockEnd
  0
BLOCK
  5
71
330
6F
100
AcDbEntity
  8
NAILS
 62
     7
100
AcDbBlockBegin
  2
AI9-BLK8
 70
     0
 10
0.0
 20
0.0
 30
0.0
  3
AI9-BLK8
  1

  4

  0
INSERT
  5
73
330
6F
100
AcDbEntity
  8
NAILS
 62
     7
100
AcDbBlockReference
  2
AI9-BLK9
 10
0.0
 20
0.0
 30
0.0
  0
ENDBLK
  5
78
330
6F
100
AcDbEntity
  8
NAILS
100
AcDbBlockEnd
  0
BLOCK
  5
74
330
72
100
AcDbEntity
  8
NAILS
 62
     7
100
AcDbBlockBegin
  2
AI9-BLK9
 70
     0
 10
0.0
 20
0.0
 30
0.0
  3
AI9-BLK9
  1

  4

  0
LINE
  5
76
330
72
100
AcDbEntity
  8
NAILS
 62
     7
100
AcDbLine
 10
0.0096462673611111
 20
0.5919535319010416
 30
0.0
 11
0.0096462673611111
 21
-2.935824245876736
 31
0.0
  0
HATCH
  5
75
330
72
100
AcDbEntity
  8
NAILS
 62
     7
100
AcDbHatch
 10
0.0
 20
0.0
 30
0.0
210
0.0
220
0.0
230
1.0
  2
SOLID
 70
     1
 71
     0
 91
        1
 92
        3
 72
     0
 73
     1
 93
        3
 10
0.7686008029513888
 20
0.067437744140625
 10
0.0
 20
2.935824245876736
 10
-0.7686008029513888
 20
0.067437744140625
 97
        0
 75
     0
 76
     1
 98
        1
 10
0.0
 20
0.0
  0
ENDBLK
  5
77
330
72
100
AcDbEntity
  8
NAILS
100
AcDbBlockEnd
  0
BLOCK
  5
7B
330
79
100
AcDbEntity
  8
NAILS
 62
     7
100
AcDbBlockBegin
  2
AI9-BLK10
 70
     0
 10
0.0
 20
0.0
 30
0.0
  3
AI9-BLK10
  1

  4

  0
INSERT
  5
7D
330
79
100
AcDbEntity
  8
NAILS
 62
     7
100
AcDbBlockReference
  2
AI9-BLK11
 10
0.0
 20
0.0
 30
0.0
  0
ENDBLK
  5
86
330
79
100
AcDbEntity
  8
NAILS
100
AcDbBlockEnd
  0
BLOCK
  5
7E
330
7C
100
AcDbEntity
  8
NAILS
 62
     7
100
AcDbBlockBegin
  2
AI9-BLK11
 70
     0
 10
0.0
 20
0.0
 30
0.0
  3
AI9-BLK11
  1

  4

  0
LWPOLYLINE
  5
80
330
7C
100
AcDbEntity
  8
NAILS
 62
     7
100
AcDbPolyline
 90
        3
 70
     0
 43
0.0
 10
-1.683445909288194
 20
-0.658099365234375
 10
-1.683445909288194
 20
2.869678412543403
 10
2.442400444878472
 20
2.869678412543403
  0
HATCH
  5
7F
330
7C
100
AcDbEntity
  8
NAILS
 62
     7
100
AcDbHatch
 10
0.0
 20
0.0
 30
0.0
210
0.0
220
0.0
230
1.0
  2
SOLID
 70
     1
 71
     0
 91
        1
 92
        3
 72
     0
 73
     1
 93
        3
 10
-2.442400444878472
 20
-0.1335835774739583
 10
-1.674488661024306
 20
-3.001970079210069
 10
-0.9058878580729166
 20
-0.1335835774739583
 97
        0
 75
     0
 76
     1
 98
        1
 10
0.0
 20
0.0
  0
ENDBLK
  5
85
330
7C
100
AcDbEntity
  8
NAILS
100
AcDbBlockEnd
  0
BLOCK
  5
EE
330
EC
100
AcDbEntity
  8
NAILS
 62
     7
100
AcDbBlockBegin
  2
AI9-BLK12
 70
     0
 10
0.0
 20
0.0
 30
0.0
  3
AI9-BLK12
  1

  4

  0
SPLINE
  5
F4
330
EC
100
AcDbEntity
  8
NAILS
 62
     7
100
AcDbSpline
210
0.0
220
0.0
230
1.0
 70
     8
 71
     3
 72
    23
 73
    19
 74
     0
 42
0.0000000001
 43
0.0000000001
 40
0.0
 40
0.0
 40
0.0
 40
0.0
 40
1.0
 40
1.0
 40
1.0
 40
2.0
 40
2.0
 40
2.0
 40
3.0
 40
3.0
 40
3.0
 40
4.0
 40
4.0
 40
4.0
 40
5.0
 40
5.0
 40
5.0
 40
6.0
 40
6.0
 40
6.0
 40
6.0
 10
2.089450412326389
 20
7.136429172092013
 30
0.0
 10
2.089450412326389
 20
7.136429172092013
 30
0.0
 10
2.3099365234375
 20
7.577401394314236
 30
0.0
 10
1.868964301215278
 20
7.930179172092013
 30
0.0
 10
1.868964301215278
 20
7.930179172092013
 30
0.0
 10
1.207505967881944
 20
8.194762505425347
 30
0.0
 10
0.9870198567708333
 20
7.621498616536457
 30
0.0
 10
0.9870198567708333
 20
7.621498616536457
 30
0.0
 10
-2.143882921006944
 20
-1.462529161241319
 30
0.0
 10
-2.143882921006944
 20
-1.462529161241319
 30
0.0
 10
-2.143882921006944
 20
-1.462529161241319
 30
0.0
 10
-2.143882921006944
 20
-7.459751383463541
 30
0.0
 10
-2.143882921006944
 20
-7.459751383463541
 30
0.0
 10
-2.143882921006944
 20
-7.459751383463541
 30
0.0
 10
-2.0556884765625
 20
-8.121209716796875
 30
0.0
 10
-1.614716254340278
 20
-7.988918050130208
 30
0.0
 10
-1.614716254340278
 20
-7.988918050130208
 30
0.0
 10
-1.041452365451389
 20
-8.033015272352429
 30
0.0
 10
-0.9532579210069444
 20
-7.592043050130208
 30
0.0
  0
LINE
  5
F3
330
EC
100
AcDbEntity
  8
NAILS
 62
     7
100
AcDbLine
 10
1.315681966145833
 20
4.971531168619792
 30
0.0
 11
1.8882568359375
 21
6.539738633897569
 31
0.0
  0
LINE
  5
F2
330
EC
100
AcDbEntity
  8
NAILS
 62
     7
100
AcDbLine
 10
0.2125623914930555
 20
1.692144775390625
 30
0.0
 11
1.004417588975694
 21
4.045144992404514
 31
0.0
  0
LINE
  5
F1
330
EC
100
AcDbEntity
  8
NAILS
 62
     7
100
AcDbLine
 10
-0.69918212890625
 20
-1.017078314887153
 30
0.0
 11
-0.1078314887152778
 21
0.7402648925781249
 31
0.0
  0
LINE
  5
F0
330
EC
100
AcDbEntity
  8
NAILS
 62
     7
100
AcDbLine
 10
-0.9532579210069444
 20
-3.755584716796875
 30
0.0
 11
-0.9532579210069444
 21
-2.344473605685764
 31
0.0
  0
LINE
  5
EF
330
EC
100
AcDbEntity
  8
NAILS
 62
     7
100
AcDbLine
 10
-0.9532579210069444
 20
-6.621904161241319
 30
0.0
 11
-0.9532579210069444
 21
-5.210793050130208
 31
0.0
  0
ENDBLK
  5
F5
330
EC
100
AcDbEntity
  8
NAILS
100
AcDbBlockEnd
  0
BLOCK
  5
F8
330
F6
100
AcDbEntity
  8
NAILS
 62
     7
100
AcDbBlockBegin
  2
AI9-BLK13
 70
     0
 10
0.0
 20
0.0
 30
0.0
  3
AI9-BLK13
  1

  4

  0
SPLINE
  5
FE
330
F6
100
AcDbEntity
  8
NAILS
 62
     7
100
AcDbSpline
210
0.0
220
0.0
230
1.0
 70
     8
 71
     3
 72
    23
 73
    19
 74
     0
 42
0.0000000001
 43
0.0000000001
 40
0.0
 40
0.0
 40
0.0
 40
0.0
 40
1.0
 40
1.0
 40
1.0
 40
2.0
 40
2.0
 40
2.0
 40
3.0
 40
3.0
 40
3.0
 40
4.0
 40
4.0
 40
4.0
 40
5.0
 40
5.0
 40
5.0
 40
6.0
 40
6.0
 40
6.0
 40
6.0
 10
2.089450412326389
 20
7.136429172092013
 30
0.0
 10
2.089450412326389
 20
7.136429172092013
 30
0.0
 10
2.3099365234375
 20
7.577401394314236
 30
0.0
 10
1.868964301215278
 20
7.930179172092013
 30
0.0
 10
1.868964301215278
 20
7.930179172092013
 30
0.0
 10
1.207505967881944
 20
8.194762505425347
 30
0.0
 10
0.9870198567708333
 20
7.621498616536457
 30
0.0
 10
0.9870198567708333
 20
7.621498616536457
 30
0.0
 10
-2.143882921006944
 20
-1.462529161241319
 30
0.0
 10
-2.143882921006944
 20
-1.462529161241319
 30
0.0
 10
-2.143882921006944
 20
-1.462529161241319
 30
0.0
 10
-2.143882921006944
 20
-7.459751383463541
 30
0.0
 10
-2.143882921006944
 20
-7.459751383463541
 30
0.0
 10
-2.143882921006944
 20
-7.459751383463541
 30
0.0
 10
-2.0556884765625
 20
-8.121209716796875
 30
0.0
 10
-1.614716254340278
 20
-7.988918050130208
 30
0.0
 10
-1.614716254340278
 20
-7.988918050130208
 30
0.0
 10
-1.041452365451389
 20
-8.033015272352429
 30
0.0
 10
-0.9532579210069444
 20
-7.592043050130208
 30
0.0
  0
LINE
  5
FD
330
F6
100
AcDbEntity
  8
NAILS
 62
     7
100
AcDbLine
 10
1.315681966145833
 20
4.971531168619792
 30
0.0
 11
1.8882568359375
 21
6.539738633897569
 31
0.0
  0
LINE
  5
FC
330
F6
100
AcDbEntity
  8
NAILS
 62
     7
100
AcDbLine
 10
0.2125623914930555
 20
1.692144775390625
 30
0.0
 11
1.004417588975694
 21
4.045144992404514
 31
0.0
  0
LINE
  5
FB
330
F6
100
AcDbEntity
  8
NAILS
 62
     7
100
AcDbLine
 10
-0.69918212890625
 20
-1.017078314887153
 30
0.0
 11
-0.1078314887152778
 21
0.7402648925781249
 31
0.0
  0
LINE
  5
FA
330
F6
100
AcDbEntity
  8
NAILS
 62
     7
100
AcDbLine
 10
-0.9532579210069444
 20
-3.755584716796875
 30
0.0
 11
-0.9532579210069444
 21
-2.344473605685764
 31
0.0
  0
LINE
  5
F9
330
F6
100
AcDbEntity
  8
NAILS
 62
     7
100
AcDbLine
 10
-0.9532579210069444
 20
-6.621904161241319
 30
0.0
 11
-0.9532579210069444
 21
-5.210793050130208
 31
0.0
  0
ENDBLK
  5
FF
330
F6
100
AcDbEntity
  8
NAILS
100
AcDbBlockEnd
  0
BLOCK
  5
15C
330
15A
100
AcDbEntity
  8
NAILS
 62
     7
100
AcDbBlockBegin
  2
AI9-BLK14
 70
     0
 10
0.0
 20
0.0
 30
0.0
  3
AI9-BLK14
  1

  4

  0
LINE
  5
162
330
15A
100
AcDbEntity
  8
NAILS
 62
     7
100
AcDbLine
 10
0.0
 20
25.93123372395833
 30
0.0
 11
0.0
 21
31.51211615668403
 31
0.0
  0
LINE
  5
161
330
15A
100
AcDbEntity
  8
NAILS
 62
     7
100
AcDbLine
 10
0.0
 20
13.62793646918403
 30
0.0
 11
0.0
 21
25.034130859375
 31
0.0
  0
LINE
  5
160
330
15A
100
AcDbEntity
  8
NAILS
 62
     7
100
AcDbLine
 10
0.0
 20
1.3983642578125
 30
0.0
 11
0.0
 21
12.68725314670139
 31
0.0
  0
LINE
  5
15F
330
15A
100
AcDbEntity
  8
NAILS
 62
     7
100
AcDbLine
 10
0.0
 20
-10.94920247395833
 30
0.0
 11
0.0
 21
0.3396864149305555
 31
0.0
  0
LINE
  5
15E
330
15A
100
AcDbEntity
  8
NAILS
 62
     7
100
AcDbLine
 10
0.0
 20
-24.1194580078125
 30
0.0
 11
0.0
 21
-12.00753580729167
 31
0.0
  0
LINE
  5
15D
330
15A
100
AcDbEntity
  8
NAILS
 62
     7
100
AcDbLine
 10
0.0
 20
-31.51211615668403
 30
0.0
 11
0.0
 21
-25.17761908637153
 31
0.0
  0
ENDBLK
  5
163
330
15A
100
AcDbEntity
  8
NAILS
100
AcDbBlockEnd
  0
BLOCK
  5
166
330
164
100
AcDbEntity
  8
NAILS
 62
     7
100
AcDbBlockBegin
  2
AI9-BLK15
 70
     0
 10
0.0
 20
0.0
 30
0.0
  3
AI9-BLK15
  1

  4

  0
LINE
  5
16C
330
164
100
AcDbEntity
  8
NAILS
 62
     7
100
AcDbLine
 10
0.0
 20
25.93123372395833
 30
0.0
 11
0.0
 21
31.51211615668403
 31
0.0
  0
LINE
  5
16B
330
164
100
AcDbEntity
  8
NAILS
 62
     7
100
AcDbLine
 10
0.0
 20
13.62793646918403
 30
0.0
 11
0.0
 21
25.034130859375
 31
0.0
  0
LINE
  5
16A
330
164
100
AcDbEntity
  8
NAILS
 62
     7
100
AcDbLine
 10
0.0
 20
1.3983642578125
 30
0.0
 11
0.0
 21
12.68725314670139
 31
0.0
  0
LINE
  5
169
330
164
100
AcDbEntity
  8
NAILS
 62
     7
100
AcDbLine
 10
0.0
 20
-10.94920247395833
 30
0.0
 11
0.0
 21
0.3396864149305555
 31
0.0
  0
LINE
  5
168
330
164
100
AcDbEntity
  8
NAILS
 62
     7
100
AcDbLine
 10
0.0
 20
-24.1194580078125
 30
0.0
 11
0.0
 21
-12.00753580729167
 31
0.0
  0
LINE
  5
167
330
164
100
AcDbEntity
  8
NAILS
 62
     7
100
AcDbLine
 10
0.0
 20
-31.51211615668403
 30
0.0
 11
0.0
 21
-25.17761908637153
 31
0.0
  0
ENDBLK
  5
16D
330
164
100
AcDbEntity
  8
NAILS
100
AcDbBlockEnd
  0
BLOCK
  5
170
330
16E
100
AcDbEntity
  8
NAILS
 62
     7
100
AcDbBlockBegin
  2
AI9-BLK16
 70
     0
 10
0.0
 20
0.0
 30
0.0
  3
AI9-BLK16
  1

  4

  0
LINE
  5
176
330
16E
100
AcDbEntity
  8
NAILS
 62
     7
100
AcDbLine
 10
0.0
 20
25.93123372395833
 30
0.0
 11
0.0
 21
31.51211615668403
 31
0.0
  0
LINE
  5
175
330
16E
100
AcDbEntity
  8
NAILS
 62
     7
100
AcDbLine
 10
0.0
 20
13.62793646918403
 30
0.0
 11
0.0
 21
25.034130859375
 31
0.0
  0
LINE
  5
174
330
16E
100
AcDbEntity
  8
NAILS
 62
     7
100
AcDbLine
 10
0.0
 20
1.3983642578125
 30
0.0
 11
0.0
 21
12.68725314670139
 31
0.0
  0
LINE
  5
173
330
16E
100
AcDbEntity
  8
NAILS
 62
     7
100
AcDbLine
 10
0.0
 20
-10.94920247395833
 30
0.0
 11
0.0
 21
0.3396864149305555
 31
0.0
  0
LINE
  5
172
330
16E
100
AcDbEntity
  8
NAILS
 62
     7
100
AcDbLine
 10
0.0
 20
-24.1194580078125
 30
0.0
 11
0.0
 21
-12.00753580729167
 31
0.0
  0
LINE
  5
171
330
16E
100
AcDbEntity
  8
NAILS
 62
     7
100
AcDbLine
 10
0.0
 20
-31.51211615668403
 30
0.0
 11
0.0
 21
-25.17761908637153
 31
0.0
  0
ENDBLK
  5
177
330
16E
100
AcDbEntity
  8
NAILS
100
AcDbBlockEnd
  0
BLOCK
  5
17A
330
178
100
AcDbEntity
  8
NAILS
 62
     7
100
AcDbBlockBegin
  2
AI9-BLK17
 70
     0
 10
0.0
 20
0.0
 30
0.0
  3
AI9-BLK17
  1

  4

  0
LINE
  5
180
330
178
100
AcDbEntity
  8
NAILS
 62
     7
100
AcDbLine
 10
0.0
 20
25.93123372395833
 30
0.0
 11
0.0
 21
31.51211615668403
 31
0.0
  0
LINE
  5
17F
330
178
100
AcDbEntity
  8
NAILS
 62
     7
100
AcDbLine
 10
0.0
 20
13.62793646918403
 30
0.0
 11
0.0
 21
25.034130859375
 31
0.0
  0
LINE
  5
17E
330
178
100
AcDbEntity
  8
NAILS
 62
     7
100
AcDbLine
 10
0.0
 20
1.3983642578125
 30
0.0
 11
0.0
 21
12.68725314670139
 31
0.0
  0
LINE
  5
17D
330
178
100
AcDbEntity
  8
NAILS
 62
     7
100
AcDbLine
 10
0.0
 20
-10.94920247395833
 30
0.0
 11
0.0
 21
0.3396864149305555
 31
0.0
  0
LINE
  5
17C
330
178
100
AcDbEntity
  8
NAILS
 62
     7
100
AcDbLine
 10
0.0
 20
-24.1194580078125
 30
0.0
 11
0.0
 21
-12.00753580729167
 31
0.0
  0
LINE
  5
17B
330
178
100
AcDbEntity
  8
NAILS
 62
     7
100
AcDbLine
 10
0.0
 20
-31.51211615668403
 30
0.0
 11
0.0
 21
-25.17761908637153
 31
0.0
  0
ENDBLK
  5
181
330
178
100
AcDbEntity
  8
NAILS
100
AcDbBlockEnd
  0
BLOCK
  5
184
330
182
100
AcDbEntity
  8
NAILS
 62
     7
100
AcDbBlockBegin
  2
AI9-BLK18
 70
     0
 10
0.0
 20
0.0
 30
0.0
  3
AI9-BLK18
  1

  4

  0
LINE
  5
18A
330
182
100
AcDbEntity
  8
NAILS
 62
     7
100
AcDbLine
 10
0.0
 20
25.93123372395833
 30
0.0
 11
0.0
 21
31.51211615668403
 31
0.0
  0
LINE
  5
189
330
182
100
AcDbEntity
  8
NAILS
 62
     7
100
AcDbLine
 10
0.0
 20
13.62793646918403
 30
0.0
 11
0.0
 21
25.034130859375
 31
0.0
  0
LINE
  5
188
330
182
100
AcDbEntity
  8
NAILS
 62
     7
100
AcDbLine
 10
0.0
 20
1.3983642578125
 30
0.0
 11
0.0
 21
12.68725314670139
 31
0.0
  0
LINE
  5
187
330
182
100
AcDbEntity
  8
NAILS
 62
     7
100
AcDbLine
 10
0.0
 20
-10.94920247395833
 30
0.0
 11
0.0
 21
0.3396864149305555
 31
0.0
  0
LINE
  5
186
330
182
100
AcDbEntity
  8
NAILS
 62
     7
100
AcDbLine
 10
0.0
 20
-24.1194580078125
 30
0.0
 11
0.0
 21
-12.00753580729167
 31
0.0
  0
LINE
  5
185
330
182
100
AcDbEntity
  8
NAILS
 62
     7
100
AcDbLine
 10
0.0
 20
-31.51211615668403
 30
0.0
 11
0.0
 21
-25.17761908637153
 31
0.0
  0
ENDBLK
  5
18B
330
182
100
AcDbEntity
  8
NAILS
100
AcDbBlockEnd
  0
BLOCK
  5
18E
330
18C
100
AcDbEntity
  8
NAILS
 62
     7
100
AcDbBlockBegin
  2
AI9-BLK19
 70
     0
 10
0.0
 20
0.0
 30
0.0
  3
AI9-BLK19
  1

  4

  0
LINE
  5
194
330
18C
100
AcDbEntity
  8
NAILS
 62
     7
100
AcDbLine
 10
0.0
 20
25.93123372395833
 30
0.0
 11
0.0
 21
31.51211615668403
 31
0.0
  0
LINE
  5
193
330
18C
100
AcDbEntity
  8
NAILS
 62
     7
100
AcDbLine
 10
0.0
 20
13.62793646918403
 30
0.0
 11
0.0
 21
25.034130859375
 31
0.0
  0
LINE
  5
192
330
18C
100
AcDbEntity
  8
NAILS
 62
     7
100
AcDbLine
 10
0.0
 20
1.3983642578125
 30
0.0
 11
0.0
 21
12.68725314670139
 31
0.0
  0
LINE
  5
191
330
18C
100
AcDbEntity
  8
NAILS
 62
     7
100
AcDbLine
 10
0.0
 20
-10.94920247395833
 30
0.0
 11
0.0
 21
0.3396864149305555
 31
0.0
  0
LINE
  5
190
330
18C
100
AcDbEntity
  8
NAILS
 62
     7
100
AcDbLine
 10
0.0
 20
-24.1194580078125
 30
0.0
 11
0.0
 21
-12.00753580729167
 31
0.0
  0
LINE
  5
18F
330
18C
100
AcDbEntity
  8
NAILS
 62
     7
100
AcDbLine
 10
0.0
 20
-31.51211615668403
 30
0.0
 11
0.0
 21
-25.17761908637153
 31
0.0
  0
ENDBLK
  5
195
330
18C
100
AcDbEntity
  8
NAILS
100
AcDbBlockEnd
  0
BLOCK
  5
198
330
196
100
AcDbEntity
  8
NAILS
 62
     7
100
AcDbBlockBegin
  2
AI9-BLK20
 70
     0
 10
0.0
 20
0.0
 30
0.0
  3
AI9-BLK20
  1

  4

  0
LINE
  5
19E
330
196
100
AcDbEntity
  8
NAILS
 62
     7
100
AcDbLine
 10
0.0
 20
25.93123372395833
 30
0.0
 11
0.0
 21
31.51211615668403
 31
0.0
  0
LINE
  5
19D
330
196
100
AcDbEntity
  8
NAILS
 62
     7
100
AcDbLine
 10
0.0
 20
13.62793646918403
 30
0.0
 11
0.0
 21
25.034130859375
 31
0.0
  0
LINE
  5
19C
330
196
100
AcDbEntity
  8
NAILS
 62
     7
100
AcDbLine
 10
0.0
 20
1.3983642578125
 30
0.0
 11
0.0
 21
12.68725314670139
 31
0.0
  0
LINE
  5
19B
330
196
100
AcDbEntity
  8
NAILS
 62
     7
100
AcDbLine
 10
0.0
 20
-10.94920247395833
 30
0.0
 11
0.0
 21
0.3396864149305555
 31
0.0
  0
LINE
  5
19A
330
196
100
AcDbEntity
  8
NAILS
 62
     7
100
AcDbLine
 10
0.0
 20
-24.1194580078125
 30
0.0
 11
0.0
 21
-12.00753580729167
 31
0.0
  0
LINE
  5
199
330
196
100
AcDbEntity
  8
NAILS
 62
     7
100
AcDbLine
 10
0.0
 20
-31.51211615668403
 30
0.0
 11
0.0
 21
-25.17761908637153
 31
0.0
  0
ENDBLK
  5
19F
330
196
100
AcDbEntity
  8
NAILS
100
AcDbBlockEnd
  0
BLOCK
  5
1A2
330
1A0
100
AcDbEntity
  8
NAILS
 62
     7
100
AcDbBlockBegin
  2
AI9-BLK21
 70
     0
 10
0.0
 20
0.0
 30
0.0
  3
AI9-BLK21
  1

  4

  0
LINE
  5
1A8
330
1A0
100
AcDbEntity
  8
NAILS
 62
     7
100
AcDbLine
 10
0.0
 20
25.93123372395833
 30
0.0
 11
0.0
 21
31.51211615668403
 31
0.0
  0
LINE
  5
1A7
330
1A0
100
AcDbEntity
  8
NAILS
 62
     7
100
AcDbLine
 10
0.0
 20
13.62793646918403
 30
0.0
 11
0.0
 21
25.034130859375
 31
0.0
  0
LINE
  5
1A6
330
1A0
100
AcDbEntity
  8
NAILS
 62
     7
100
AcDbLine
 10
0.0
 20
1.3983642578125
 30
0.0
 11
0.0
 21
12.68725314670139
 31
0.0
  0
LINE
  5
1A5
330
1A0
100
AcDbEntity
  8
NAILS
 62
     7
100
AcDbLine
 10
0.0
 20
-10.94920247395833
 30
0.0
 11
0.0
 21
0.3396864149305555
 31
0.0
  0
LINE
  5
1A4
330
1A0
100
AcDbEntity
  8
NAILS
 62
     7
100
AcDbLine
 10
0.0
 20
-24.1194580078125
 30
0.0
 11
0.0
 21
-12.00753580729167
 31
0.0
  0
LINE
  5
1A3
330
1A0
100
AcDbEntity
  8
NAILS
 62
     7
100
AcDbLine
 10
0.0
 20
-31.51211615668403
 30
0.0
 11
0.0
 21
-25.17761908637153
 31
0.0
  0
ENDBLK
  5
1A9
330
1A0
100
AcDbEntity
  8
NAILS
100
AcDbBlockEnd
  0
BLOCK
  5
1AC
330
1AA
100
AcDbEntity
  8
NAILS
 62
     7
100
AcDbBlockBegin
  2
AI9-BLK22
 70
     0
 10
0.0
 20
0.0
 30
0.0
  3
AI9-BLK22
  1

  4

  0
LINE
  5
1B2
330
1AA
100
AcDbEntity
  8
NAILS
 62
     7
100
AcDbLine
 10
0.0
 20
25.93123372395833
 30
0.0
 11
0.0
 21
31.51211615668403
 31
0.0
  0
LINE
  5
1B1
330
1AA
100
AcDbEntity
  8
NAILS
 62
     7
100
AcDbLine
 10
0.0
 20
13.62793646918403
 30
0.0
 11
0.0
 21
25.034130859375
 31
0.0
  0
LINE
  5
1B0
330
1AA
100
AcDbEntity
  8
NAILS
 62
     7
100
AcDbLine
 10
0.0
 20
1.3983642578125
 30
0.0
 11
0.0
 21
12.68725314670139
 31
0.0
  0
LINE
  5
1AF
330
1AA
100
AcDbEntity
  8
NAILS
 62
     7
100
AcDbLine
 10
0.0
 20
-10.94920247395833
 30
0.0
 11
0.0
 21
0.3396864149305555
 31
0.0
  0
LINE
  5
1AE
330
1AA
100
AcDbEntity
  8
NAILS
 62
     7
100
AcDbLine
 10
0.0
 20
-24.1194580078125
 30
0.0
 11
0.0
 21
-12.00753580729167
 31
0.0
  0
LINE
  5
1AD
330
1AA
100
AcDbEntity
  8
NAILS
 62
     7
100
AcDbLine
 10
0.0
 20
-31.51211615668403
 30
0.0
 11
0.0
 21
-25.17761908637153
 31
0.0
  0
ENDBLK
  5
1B3
330
1AA
100
AcDbEntity
  8
NAILS
100
AcDbBlockEnd
  0
BLOCK
  5
1B6
330
1B4
100
AcDbEntity
  8
NAILS
 62
     7
100
AcDbBlockBegin
  2
AI9-BLK23
 70
     0
 10
0.0
 20
0.0
 30
0.0
  3
AI9-BLK23
  1

  4

  0
LINE
  5
1BC
330
1B4
100
AcDbEntity
  8
NAILS
 62
     7
100
AcDbLine
 10
0.0
 20
25.93123372395833
 30
0.0
 11
0.0
 21
31.51211615668403
 31
0.0
  0
LINE
  5
1BB
330
1B4
100
AcDbEntity
  8
NAILS
 62
     7
100
AcDbLine
 10
0.0
 20
13.62793646918403
 30
0.0
 11
0.0
 21
25.034130859375
 31
0.0
  0
LINE
  5
1BA
330
1B4
100
AcDbEntity
  8
NAILS
 62
     7
100
AcDbLine
 10
0.0
 20
1.3983642578125
 30
0.0
 11
0.0
 21
12.68725314670139
 31
0.0
  0
LINE
  5
1B9
330
1B4
100
AcDbEntity
  8
NAILS
 62
     7
100
AcDbLine
 10
0.0
 20
-10.94920247395833
 30
0.0
 11
0.0
 21
0.3396864149305555
 31
0.0
  0
LINE
  5
1B8
330
1B4
100
AcDbEntity
  8
NAILS
 62
     7
100
AcDbLine
 10
0.0
 20
-24.1194580078125
 30
0.0
 11
0.0
 21
-12.00753580729167
 31
0.0
  0
LINE
  5
1B7
330
1B4
100
AcDbEntity
  8
NAILS
 62
     7
100
AcDbLine
 10
0.0
 20
-31.51211615668403
 30
0.0
 11
0.0
 21
-25.17761908637153
 31
0.0
  0
ENDBLK
  5
1BD
330
1B4
100
AcDbEntity
  8
NAILS
100
AcDbBlockEnd
  0
BLOCK
  5
1C0
330
1BE
100
AcDbEntity
  8
NAILS
 62
     7
100
AcDbBlockBegin
  2
AI9-BLK24
 70
     0
 10
0.0
 20
0.0
 30
0.0
  3
AI9-BLK24
  1

  4

  0
LINE
  5
1C6
330
1BE
100
AcDbEntity
  8
NAILS
 62
     7
100
AcDbLine
 10
0.0
 20
25.93123372395833
 30
0.0
 11
0.0
 21
31.51211615668403
 31
0.0
  0
LINE
  5
1C5
330
1BE
100
AcDbEntity
  8
NAILS
 62
     7
100
AcDbLine
 10
0.0
 20
13.62793646918403
 30
0.0
 11
0.0
 21
25.034130859375
 31
0.0
  0
LINE
  5
1C4
330
1BE
100
AcDbEntity
  8
NAILS
 62
     7
100
AcDbLine
 10
0.0
 20
1.3983642578125
 30
0.0
 11
0.0
 21
12.68725314670139
 31
0.0
  0
LINE
  5
1C3
330
1BE
100
AcDbEntity
  8
NAILS
 62
     7
100
AcDbLine
 10
0.0
 20
-10.94920247395833
 30
0.0
 11
0.0
 21
0.3396864149305555
 31
0.0
  0
LINE
  5
1C2
330
1BE
100
AcDbEntity
  8
NAILS
 62
     7
100
AcDbLine
 10
0.0
 20
-24.1194580078125
 30
0.0
 11
0.0
 21
-12.00753580729167
 31
0.0
  0
LINE
  5
1C1
330
1BE
100
AcDbEntity
  8
NAILS
 62
     7
100
AcDbLine
 10
0.0
 20
-31.51211615668403
 30
0.0
 11
0.0
 21
-25.17761908637153
 31
0.0
  0
ENDBLK
  5
1C7
330
1BE
100
AcDbEntity
  8
NAILS
100
AcDbBlockEnd
  0
BLOCK
  5
1CA
330
1C8
100
AcDbEntity
  8
NAILS
 62
     7
100
AcDbBlockBegin
  2
AI9-BLK25
 70
     0
 10
0.0
 20
0.0
 30
0.0
  3
AI9-BLK25
  1

  4

  0
LINE
  5
1D0
330
1C8
100
AcDbEntity
  8
NAILS
 62
     7
100
AcDbLine
 10
0.0
 20
25.93123372395833
 30
0.0
 11
0.0
 21
31.51211615668403
 31
0.0
  0
LINE
  5
1CF
330
1C8
100
AcDbEntity
  8
NAILS
 62
     7
100
AcDbLine
 10
0.0
 20
13.62793646918403
 30
0.0
 11
0.0
 21
25.034130859375
 31
0.0
  0
LINE
  5
1CE
330
1C8
100
AcDbEntity
  8
NAILS
 62
     7
100
AcDbLine
 10
0.0
 20
1.3983642578125
 30
0.0
 11
0.0
 21
12.68725314670139
 31
0.0
  0
LINE
  5
1CD
330
1C8
100
AcDbEntity
  8
NAILS
 62
     7
100
AcDbLine
 10
0.0
 20
-10.94920247395833
 30
0.0
 11
0.0
 21
0.3396864149305555
 31
0.0
  0
LINE
  5
1CC
330
1C8
100
AcDbEntity
  8
NAILS
 62
     7
100
AcDbLine
 10
0.0
 20
-24.1194580078125
 30
0.0
 11
0.0
 21
-12.00753580729167
 31
0.0
  0
LINE
  5
1CB
330
1C8
100
AcDbEntity
  8
NAILS
 62
     7
100
AcDbLine
 10
0.0
 20
-31.51211615668403
 30
0.0
 11
0.0
 21
-25.17761908637153
 31
0.0
  0
ENDBLK
  5
1D1
330
1C8
100
AcDbEntity
  8
NAILS
100
AcDbBlockEnd
  0
BLOCK
  5
1D4
330
1D2
100
AcDbEntity
  8
NAILS
 62
     7
100
AcDbBlockBegin
  2
AI9-BLK26
 70
     0
 10
0.0
 20
0.0
 30
0.0
  3
AI9-BLK26
  1

  4

  0
LINE
  5
1DA
330
1D2
100
AcDbEntity
  8
NAILS
 62
     7
100
AcDbLine
 10
0.0
 20
25.93123372395833
 30
0.0
 11
0.0
 21
31.51211615668403
 31
0.0
  0
LINE
  5
1D9
330
1D2
100
AcDbEntity
  8
NAILS
 62
     7
100
AcDbLine
 10
0.0
 20
13.62793646918403
 30
0.0
 11
0.0
 21
25.034130859375
 31
0.0
  0
LINE
  5
1D8
330
1D2
100
AcDbEntity
  8
NAILS
 62
     7
100
AcDbLine
 10
0.0
 20
1.3983642578125
 30
0.0
 11
0.0
 21
12.68725314670139
 31
0.0
  0
LINE
  5
1D7
330
1D2
100
AcDbEntity
  8
NAILS
 62
     7
100
AcDbLine
 10
0.0
 20
-10.94920247395833
 30
0.0
 11
0.0
 21
0.3396864149305555
 31
0.0
  0
LINE
  5
1D6
330
1D2
100
AcDbEntity
  8
NAILS
 62
     7
100
AcDbLine
 10
0.0
 20
-24.1194580078125
 30
0.0
 11
0.0
 21
-12.00753580729167
 31
0.0
  0
LINE
  5
1D5
330
1D2
100
AcDbEntity
  8
NAILS
 62
     7
100
AcDbLine
 10
0.0
 20
-31.51211615668403
 30
0.0
 11
0.0
 21
-25.17761908637153
 31
0.0
  0
ENDBLK
  5
1DB
330
1D2
100
AcDbEntity
  8
NAILS
100
AcDbBlockEnd
  0
ENDSEC
  0
SECTION
  2
ENTITIES
  0
LINE
  5
213
330
A
100
AcDbEntity
  8
NAILS
 62
     7
100
AcDbLine
 10
19.00693630642361
 20
12.12105170355903
 30
0.0
 11
19.00693630642361
 21
6.568246799045138
 31
0.0
  0
LINE
  5
212
330
A
100
AcDbEntity
  8
NAILS
 62
     7
100
AcDbLine
 10
19.00693630642361
 20
24.35062391493056
 30
0.0
 11
19.00693630642361
 21
13.29686279296875
 31
0.0
  0
LINE
  5
211
330
A
100
AcDbEntity
  8
NAILS
 62
     7
100
AcDbLine
 10
19.00693630642361
 20
36.69784613715277
 30
0.0
 11
19.00693630642361
 21
25.40912950303819
 31
0.0
  0
LWPOLYLINE
  5
20B
330
A
100
AcDbEntity
  8
NAILS
 62
     7
100
AcDbPolyline
 90
        4
 70
     0
 43
0.0
 10
22.975341796875
 20
37.7560072157118
 10
22.975341796875
 20
50.12941216362847
 10
19.00693630642361
 20
50.12545030381944
 10
19.00693630642361
 20
37.75617947048611
  0
LINE
  5
20A
330
A
100
AcDbEntity
  8
NAILS
 62
     7
100
AcDbLine
 10
22.975341796875
 20
25.2914794921875
 30
0.0
 11
22.975341796875
 21
36.69801839192708
 31
0.0
  0
LINE
  5
209
330
A
100
AcDbEntity
  8
NAILS
 62
     7
100
AcDbLine
 10
22.975341796875
 20
13.17921278211805
 30
0.0
 11
22.975341796875
 21
24.23314615885417
 31
0.0
  0
LINE
  5
208
330
A
100
AcDbEntity
  8
NAILS
 62
     7
100
AcDbLine
 10
22.975341796875
 20
7.276041666666666
 30
0.0
 11
22.975341796875
 21
12.12087944878472
 31
0.0
  0
LINE
  5
207
330
A
100
AcDbEntity
  8
NAILS
 62
     7
100
AcDbLine
 10
22.975341796875
 20
0.7143405490451388
 30
0.0
 11
22.975341796875
 21
6.65230712890625
 31
0.0
  0
LINE
  5
206
330
A
100
AcDbEntity
  8
NAILS
 62
     7
100
AcDbLine
 10
22.975341796875
 20
-12.33809271918403
 30
0.0
 11
22.975341796875
 21
-0.2263427734375
 31
0.0
  0
LWPOLYLINE
  5
200
330
A
100
AcDbEntity
  8
NAILS
 62
     7
100
AcDbPolyline
 90
        4
 70
     0
 43
0.0
 10
19.00693630642361
 20
-13.39642605251736
 10
19.00693630642361
 20
-23.90310601128472
 10
22.975341796875
 20
-23.62749837239583
 10
22.975341796875
 20
-13.27894829644097
  0
LINE
  5
1FF
330
A
100
AcDbEntity
  8
NAILS
 62
     7
100
AcDbLine
 10
19.00693630642361
 20
-0.1085205078125
 30
0.0
 11
19.00693630642361
 21
-12.33809271918403
 31
0.0
  0
LINE
  5
1FE
330
A
100
AcDbEntity
  8
NAILS
 62
     7
100
AcDbLine
 10
19.00693630642361
 20
5.031389702690972
 30
0.0
 11
19.00693630642361
 21
0.8318183051215277
 31
0.0
  0
LWPOLYLINE
  5
1F9
330
A
100
AcDbEntity
  8
NAILS
 62
     7
100
AcDbPolyline
 90
        3
 70
     0
 43
0.0
 10
9.414412434895832
 20
-17.54190945095486
 10
9.414412434895832
 20
-29.56546495225694
 10
8.091668023003471
 20
-29.56546495225694
  0
LWPOLYLINE
  5
1EE
330
A
100
AcDbEntity
  8
NAILS
 62
     7
100
AcDbPolyline
 90
        9
 70
     0
 43
0.0
 10
-4.961282009548611
 20
-29.56546495225694
 10
-45.85387641059027
 20
-29.56546495225694
 10
-45.85387641059027
 20
12.3930419921875
 10
-43.73720974392361
 20
14.01206461588542
 10
-47.97054307725694
 20
15.76699625651042
 10
-45.85387641059027
 20
17.791162109375
 10
-45.85387641059027
 20
55.57490234375
 10
9.414412434895832
 20
55.57490234375
 10
9.414412434895832
 20
50.36781277126736
  0
LWPOLYLINE
  5
1E9
330
A
100
AcDbEntity
  8
NAILS
 62
     7
100
AcDbPolyline
 90
        3
 70
     0
 43
0.0
 10
22.95777180989583
 20
43.29382595486111
 10
31.54777289496527
 20
43.29382595486111
 10
31.54777289496527
 20
28.85009087456597
  0
LINE
  5
1E8
330
A
100
AcDbEntity
  8
NAILS
 62
     7
100
AcDbLine
 10
30.48943956163194
 20
8.449957953559027
 30
0.0
 11
30.48943956163194
 21
-19.57813313802083
 31
0.0
  0
LINE
  5
1E7
330
A
100
AcDbEntity
  8
NAILS
 62
     7
100
AcDbLine
 10
30.48943956163194
 20
26.35032958984375
 30
0.0
 11
30.48943956163194
 21
9.109865993923611
 31
0.0
  0
LINE
  5
1E6
330
A
100
AcDbEntity
  8
NAILS
 62
     7
100
AcDbLine
 10
30.48943956163194
 20
43.29382595486111
 30
0.0
 11
30.48943956163194
 21
27.89080403645833
 31
0.0
  0
LWPOLYLINE
  5
1DE
330
A
100
AcDbEntity
  8
NAILS
 62
     7
100
AcDbPolyline
 90
        6
 70
     0
 43
0.0
 10
19.09926486545139
 20
45.60565728081597
 10
10.374560546875
 20
45.60565728081597
 10
10.374560546875
 20
55.57231852213541
 10
31.54777289496527
 20
55.57231852213541
 10
31.54777289496527
 20
45.60565728081597
 10
22.89886067708333
 20
45.60565728081597
  0
LINE
  5
1DD
330
A
100
AcDbEntity
  8
NAILS
 62
     7
100
AcDbLine
 10
1.284159342447917
 20
45.60565728081597
 30
0.0
 11
-45.85387641059027
 21
45.60565728081597
 31
0.0
  0
LINE
  5
1DC
330
A
100
AcDbEntity
  8
NAILS
 62
     7
100
AcDbLine
 10
10.374560546875
 20
-19.73109537760417
 30
0.0
 11
10.374560546875
 21
43.29313693576388
 31
0.0
  0
INSERT
  5
1D3
330
A
100
AcDbEntity
  8
NAILS
 62
     7
100
AcDbBlockReference
  2
AI9-BLK26
 10
11.48112521701389
 20
11.78102077907986
 30
0.0
  0
INSERT
  5
1C9
330
A
100
AcDbEntity
  8
NAILS
 62
     7
100
AcDbBlockReference
  2
AI9-BLK25
 10
12.53945855034722
 20
11.78102077907986
 30
0.0
  0
INSERT
  5
1BF
330
A
100
AcDbEntity
  8
NAILS
 62
     7
100
AcDbBlockReference
  2
AI9-BLK24
 10
13.59779188368055
 20
11.78102077907986
 30
0.0
  0
INSERT
  5
1B5
330
A
100
AcDbEntity
  8
NAILS
 62
     7
100
AcDbBlockReference
  2
AI9-BLK23
 10
14.65612521701389
 20
11.78102077907986
 30
0.0
  0
INSERT
  5
1AB
330
A
100
AcDbEntity
  8
NAILS
 62
     7
100
AcDbBlockReference
  2
AI9-BLK22
 10
15.71445855034722
 20
11.78102077907986
 30
0.0
  0
INSERT
  5
1A1
330
A
100
AcDbEntity
  8
NAILS
 62
     7
100
AcDbBlockReference
  2
AI9-BLK21
 10
16.77279188368055
 20
11.78102077907986
 30
0.0
  0
INSERT
  5
197
330
A
100
AcDbEntity
  8
NAILS
 62
     7
100
AcDbBlockReference
  2
AI9-BLK20
 10
17.83112521701389
 20
11.78102077907986
 30
0.0
  0
INSERT
  5
18D
330
A
100
AcDbEntity
  8
NAILS
 62
     7
100
AcDbBlockReference
  2
AI9-BLK19
 10
24.18112521701389
 20
11.78102077907986
 30
0.0
  0
INSERT
  5
183
330
A
100
AcDbEntity
  8
NAILS
 62
     7
100
AcDbBlockReference
  2
AI9-BLK18
 10
25.23945855034722
 20
11.78102077907986
 30
0.0
  0
INSERT
  5
179
330
A
100
AcDbEntity
  8
NAILS
 62
     7
100
AcDbBlockReference
  2
AI9-BLK17
 10
26.29779188368055
 20
11.78102077907986
 30
0.0
  0
INSERT
  5
16F
330
A
100
AcDbEntity
  8
NAILS
 62
     7
100
AcDbBlockReference
  2
AI9-BLK16
 10
27.35612521701389
 20
11.78102077907986
 30
0.0
  0
INSERT
  5
165
330
A
100
AcDbEntity
  8
NAILS
 62
     7
100
AcDbBlockReference
  2
AI9-BLK15
 10
28.41445855034722
 20
11.78102077907986
 30
0.0
  0
INSERT
  5
15B
330
A
100
AcDbEntity
  8
NAILS
 62
     7
100
AcDbBlockReference
  2
AI9-BLK14
 10
29.47279188368055
 20
11.78102077907986
 30
0.0
  0
LINE
  5
159
330
A
100
AcDbEntity
  8
NAILS
 62
     7
100
AcDbLine
 10
19.08582899305555
 20
-19.57847764756944
 30
0.0
 11
10.6133056640625
 21
-19.57847764756944
 31
0.0
  0
LINE
  5
158
330
A
100
AcDbEntity
  8
NAILS
 62
     7
100
AcDbLine
 10
-5.049476453993055
 20
-19.57847764756944
 30
0.0
 11
-45.85387641059027
 21
-19.57847764756944
 31
0.0
  0
LINE
  5
157
330
A
100
AcDbEntity
  8
NAILS
 62
     7
100
AcDbLine
 10
9.297623697916666
 20
-19.57847764756944
 30
0.0
 11
8.091495768229166
 21
-19.57847764756944
 31
0.0
  0
LINE
  5
156
330
A
100
AcDbEntity
  8
NAILS
 62
     7
100
AcDbLine
 10
31.54777289496527
 20
-19.57847764756944
 30
0.0
 11
23.0404541015625
 21
-19.57847764756944
 31
0.0
  0
LINE
  5
155
330
A
100
AcDbEntity
  8
NAILS
 62
     7
100
AcDbLine
 10
-45.85387641059027
 20
54.65781792534722
 30
0.0
 11
-45.85387641059027
 21
57.69156901041666
 31
0.0
  0
LINE
  5
154
330
A
100
AcDbEntity
  8
NAILS
 62
     7
100
AcDbLine
 10
-45.85387641059027
 20
-31.90020616319444
 30
0.0
 11
-45.85387641059027
 21
-28.866455078125
 31
0.0
  0
LINE
  5
153
330
A
100
AcDbEntity
  8
NAILS
 62
     7
100
AcDbLine
 10
18.94905870225694
 20
45.65147705078125
 30
0.0
 11
18.94905870225694
 21
43.2657484266493
 31
0.0
  0
LINE
  5
152
330
A
100
AcDbEntity
  8
NAILS
 62
     7
100
AcDbLine
 10
23.01840549045139
 20
45.60737982855903
 30
0.0
 11
23.01840549045139
 21
43.22165120442708
 31
0.0
  0
SPLINE
  5
151
330
A
100
AcDbEntity
  8
NAILS
 62
     7
100
AcDbSpline
210
0.0
220
0.0
230
1.0
 70
     8
 71
     3
 72
    11
 73
     7
 74
     0
 42
0.0000000001
 43
0.0000000001
 40
0.0
 40
0.0
 40
0.0
 40
0.0
 40
1.0
 40
1.0
 40
1.0
 40
2.0
 40
2.0
 40
2.0
 40
2.0
 10
10.36663682725694
 20
-20.42390407986111
 30
0.0
 10
10.6133056640625
 20
-20.42390407986111
 30
0.0
 10
14.15004069010417
 20
-20.0948974609375
 30
0.0
 10
14.15004069010417
 20
-20.0948974609375
 30
0.0
 10
14.15004069010417
 20
-20.0948974609375
 30
0.0
 10
18.01612684461805
 20
-19.51922200520833
 30
0.0
 10
18.01612684461805
 20
-19.51922200520833
 30
0.0
  0
LWPOLYLINE
  5
14C
330
A
100
AcDbEntity
  8
NAILS
 62
     7
100
AcDbPolyline
 90
        3
 70
     0
 43
0.0
 10
22.97086317274306
 20
-20.35913628472222
 10
26.07696126302083
 20
-20.0948974609375
 10
28.0510009765625
 20
-19.70732421875
  0
LINE
  5
14B
330
A
100
AcDbEntity
  8
NAILS
 62
     7
100
AcDbLine
 10
10.6133056640625
 20
-21.41092393663194
 30
0.0
 11
19.08617350260417
 21
-20.68986545138889
 31
0.0
  0
LWPOLYLINE
  5
146
330
A
100
AcDbEntity
  8
NAILS
 62
     7
100
AcDbPolyline
 90
        3
 70
     0
 43
0.0
 10
22.87508951822916
 20
-21.1739013671875
 10
26.65298122829861
 20
-20.67057291666666
 10
31.50574273003472
 20
-20.67057291666666
  0
LINE
  5
145
330
A
100
AcDbEntity
  8
NAILS
 62
     7
100
AcDbLine
 10
10.6133056640625
 20
-22.80928819444444
 30
0.0
 11
18.88067355685764
 21
-21.86309271918402
 31
0.0
  0
SPLINE
  5
144
330
A
100
AcDbEntity
  8
NAILS
 62
     7
100
AcDbSpline
210
0.0
220
0.0
230
1.0
 70
     8
 71
     3
 72
    11
 73
     7
 74
     0
 42
0.0000000001
 43
0.0000000001
 40
0.0
 40
0.0
 40
0.0
 40
0.0
 40
1.0
 40
1.0
 40
1.0
 40
2.0
 40
2.0
 40
2.0
 40
2.0
 10
22.90333930121528
 20
-22.01622721354167
 30
0.0
 10
24.68617621527778
 20
-21.70065646701389
 30
0.0
 10
25.94777018229166
 20
-21.50531955295139
 30
0.0
 10
25.99462348090277
 20
-21.57559950086806
 30
0.0
 10
26.15929904513889
 20
-21.82226833767361
 30
0.0
 10
31.58808051215278
 20
-21.24659288194444
 30
0.0
 10
31.58808051215278
 20
-21.49326171875
 30
0.0
  0
SPLINE
  5
143
330
A
100
AcDbEntity
  8
NAILS
 62
     7
100
AcDbSpline
210
0.0
220
0.0
230
1.0
 70
     8
 71
     3
 72
     8
 73
     4
 74
     0
 42
0.0000000001
 43
0.0000000001
 40
0.0
 40
0.0
 40
0.0
 40
0.0
 40
1.0
 40
1.0
 40
1.0
 40
1.0
 10
10.6133056640625
 20
-24.37198350694444
 30
0.0
 10
10.6133056640625
 20
-24.37198350694444
 30
0.0
 10
14.77480875651042
 20
-23.58116183810764
 30
0.0
 10
18.88067355685764
 20
-22.80394829644097
 30
0.0
  0
SPLINE
  5
142
330
A
100
AcDbEntity
  8
NAILS
 62
     7
100
AcDbSpline
210
0.0
220
0.0
230
1.0
 70
     8
 71
     3
 72
    11
 73
     7
 74
     0
 42
0.0000000001
 43
0.0000000001
 40
0.0
 40
0.0
 40
0.0
 40
0.0
 40
1.0
 40
1.0
 40
1.0
 40
2.0
 40
2.0
 40
2.0
 40
2.0
 10
22.99635687934028
 20
-23.14828559027778
 30
0.0
 10
23.83592664930555
 20
-23.02839626736111
 30
0.0
 10
24.69375542534722
 20
-22.90643988715278
 30
0.0
 10
24.84361707899305
 20
-23.05595703125
 30
0.0
 10
25.09028591579861
 20
-23.30297037760417
 30
0.0
 10
31.63941243489583
 20
-24.02402886284722
 30
0.0
 10
31.63941243489583
 20
-24.02402886284722
 30
0.0
  0
SPLINE
  5
141
330
A
100
AcDbEntity
  8
NAILS
 62
     7
100
AcDbSpline
210
0.0
220
0.0
230
1.0
 70
     8
 71
     3
 72
     8
 73
     4
 74
     0
 42
0.0000000001
 43
0.0000000001
 40
0.0
 40
0.0
 40
0.0
 40
0.0
 40
1.0
 40
1.0
 40
1.0
 40
1.0
 10
10.53096788194444
 20
-25.6883544921875
 30
0.0
 10
10.53096788194444
 20
-25.6883544921875
 30
0.0
 10
16.39365912543403
 20
-24.41814778645833
 30
0.0
 10
19.58622911241319
 20
-23.74463161892361
 30
0.0
  0
SPLINE
  5
140
330
A
100
AcDbEntity
  8
NAILS
 62
     7
100
AcDbSpline
210
0.0
220
0.0
230
1.0
 70
     8
 71
     3
 72
    14
 73
    10
 74
     0
 42
0.0000000001
 43
0.0000000001
 40
0.0
 40
0.0
 40
0.0
 40
0.0
 40
1.0
 40
1.0
 40
1.0
 40
2.0
 40
2.0
 40
2.0
 40
3.0
 40
3.0
 40
3.0
 40
3.0
 10
10.53096788194444
 20
-26.83970540364583
 30
0.0
 10
10.77798122829861
 20
-26.83970540364583
 30
0.0
 10
22.45788845486111
 20
-24.78332790798611
 30
0.0
 10
22.45788845486111
 20
-24.78332790798611
 30
0.0
 10
22.45788845486111
 20
-24.78332790798611
 30
0.0
 10
24.43192816840278
 20
-24.94800347222222
 30
0.0
 10
24.43192816840278
 20
-24.94800347222222
 30
0.0
 10
24.43192816840278
 20
-24.94800347222222
 30
0.0
 10
31.67041829427083
 20
-25.44134114583333
 30
0.0
 10
31.67041829427083
 20
-25.44134114583333
 30
0.0
  0
LWPOLYLINE
  5
13A
330
A
100
AcDbEntity
  8
NAILS
 62
     7
100
AcDbPolyline
 90
        4
 70
     0
 43
0.0
 10
10.6133056640625
 20
-27.82672526041667
 10
19.99016655815972
 20
-26.51069878472222
 10
28.54502766927083
 20
-27.16871202256944
 10
31.56430935329861
 20
-26.92204318576389
  0
SPLINE
  5
139
330
A
100
AcDbEntity
  8
NAILS
 62
     7
100
AcDbSpline
210
0.0
220
0.0
230
1.0
 70
     8
 71
     3
 72
    14
 73
    10
 74
     0
 42
0.0000000001
 43
0.0000000001
 40
0.0
 40
0.0
 40
0.0
 40
0.0
 40
1.0
 40
1.0
 40
1.0
 40
2.0
 40
2.0
 40
2.0
 40
3.0
 40
3.0
 40
3.0
 40
3.0
 10
10.44863009982639
 20
-29.22508951822917
 30
0.0
 10
10.44863009982639
 20
-29.22508951822917
 30
0.0
 10
20.07250434027777
 20
-28.07373860677083
 30
0.0
 10
20.07250434027777
 20
-28.07373860677083
 30
0.0
 10
20.07250434027777
 20
-28.07373860677083
 30
0.0
 10
24.76093478732639
 20
-28.6494140625
 30
0.0
 10
25.00794813368055
 20
-28.6494140625
 30
0.0
 10
25.25496148003472
 20
-28.6494140625
 30
0.0
 10
31.58808051215278
 20
-28.6494140625
 30
0.0
 10
31.58808051215278
 20
-28.6494140625
 30
0.0
  0
LWPOLYLINE
  5
133
330
A
100
AcDbEntity
  8
NAILS
 62
     7
100
AcDbPolyline
 90
        4
 70
     0
 43
0.0
 10
10.47274576822917
 20
54.04286838107638
 10
19.93883463541667
 20
54.51329616970486
 10
23.11383463541667
 20
53.92521837022569
 10
27.34716796875
 20
55.45397949218749
  0
SPLINE
  5
132
330
A
100
AcDbEntity
  8
NAILS
 62
     7
100
AcDbSpline
210
0.0
220
0.0
230
1.0
 70
     8
 71
     3
 72
    17
 73
    13
 74
     0
 42
0.0000000001
 43
0.0000000001
 40
0.0
 40
0.0
 40
0.0
 40
0.0
 40
1.0
 40
1.0
 40
1.0
 40
2.0
 40
2.0
 40
2.0
 40
3.0
 40
3.0
 40
3.0
 40
4.0
 40
4.0
 40
4.0
 40
4.0
 10
10.41383463541667
 20
52.74940728081597
 30
0.0
 10
10.41383463541667
 20
52.74940728081597
 30
0.0
 10
18.64554578993056
 20
53.04327392578124
 30
0.0
 10
18.64554578993056
 20
53.04327392578124
 30
0.0
 10
18.64554578993056
 20
53.04327392578124
 30
0.0
 10
25.11302354600694
 20
52.69049614800347
 30
0.0
 10
25.11302354600694
 20
52.69049614800347
 30
0.0
 10
25.11302354600694
 20
52.69049614800347
 30
0.0
 10
29.22887912326389
 20
54.63077392578125
 30
0.0
 10
29.58165690104167
 20
54.63077392578125
 30
0.0
 10
29.93443467881944
 20
54.63077392578125
 30
0.0
 10
31.58050130208333
 20
54.98355170355902
 30
0.0
 10
31.58050130208333
 20
54.98355170355902
 30
0.0
  0
LWPOLYLINE
  5
12C
330
A
100
AcDbEntity
  8
NAILS
 62
     7
100
AcDbPolyline
 90
        4
 70
     0
 43
0.0
 10
10.47274576822917
 20
51.57342393663194
 10
14.23582356770833
 20
52.04385172526041
 10
28.40550130208333
 20
51.63216281467013
 10
31.58050130208333
 20
52.98453504774305
  0
LWPOLYLINE
  5
127
330
A
100
AcDbEntity
  8
NAILS
 62
     7
100
AcDbPolyline
 90
        3
 70
     0
 43
0.0
 10
22.90678439670139
 20
49.6097195095486
 10
28.81719021267361
 20
49.51549614800346
 10
31.63941243489583
 20
50.16231282552083
  0
LWPOLYLINE
  5
121
330
A
100
AcDbEntity
  8
NAILS
 62
     7
100
AcDbPolyline
 90
        4
 70
     0
 43
0.0
 10
10.41383463541667
 20
49.75079616970486
 10
12.70689019097222
 20
50.33870171440972
 10
17.76360134548611
 20
49.69188503689236
 10
19.04655490451389
 20
49.67121446397569
  0
LWPOLYLINE
  5
11C
330
A
100
AcDbEntity
  8
NAILS
 62
     7
100
AcDbPolyline
 90
        3
 70
     0
 43
0.0
 10
22.92642144097222
 20
48.39239501953124
 10
26.75943467881944
 20
48.10438503689236
 10
31.63941243489583
 20
47.69286838107639
  0
LWPOLYLINE
  5
117
330
A
100
AcDbEntity
  8
NAILS
 62
     7
100
AcDbPolyline
 90
        3
 70
     0
 43
0.0
 10
10.41383463541667
 20
48.28077392578125
 10
14.23582356770833
 20
49.0452406141493
 10
19.02588433159722
 20
48.685400390625
  0
LWPOLYLINE
  5
112
330
A
100
AcDbEntity
  8
NAILS
 62
     7
100
AcDbPolyline
 90
        3
 70
     0
 43
0.0
 10
22.92504340277777
 20
46.52308620876736
 10
24.76024576822917
 20
46.34049614800347
 10
31.52193467881944
 20
46.10536838107638
  0
SPLINE
  5
111
330
A
100
AcDbEntity
  8
NAILS
 62
     7
100
AcDbSpline
210
0.0
220
0.0
230
1.0
 70
     8
 71
     3
 72
    11
 73
     7
 74
     0
 42
0.0000000001
 43
0.0000000001
 40
0.0
 40
0.0
 40
0.0
 40
0.0
 40
1.0
 40
1.0
 40
1.0
 40
2.0
 40
2.0
 40
2.0
 40
2.0
 10
10.47274576822917
 20
46.75218505859375
 30
0.0
 10
10.64913465711805
 20
46.75218505859375
 30
0.0
 10
14.7060791015625
 20
47.34009060329861
 30
0.0
 10
14.7060791015625
 20
47.34009060329861
 30
0.0
 10
14.7060791015625
 20
47.34009060329861
 30
0.0
 10
19.08169487847222
 20
46.90514729817708
 30
0.0
 10
19.08169487847222
 20
46.90514729817708
 30
0.0
  0
SPLINE
  5
110
330
A
100
AcDbEntity
  8
NAILS
 62
     7
100
AcDbSpline
210
0.0
220
0.0
230
1.0
 70
     8
 71
     3
 72
    17
 73
    13
 74
     0
 42
0.0000000001
 43
0.0000000001
 40
0.0
 40
0.0
 40
0.0
 40
0.0
 40
1.0
 40
1.0
 40
1.0
 40
2.0
 40
2.0
 40
2.0
 40
3.0
 40
3.0
 40
3.0
 40
4.0
 40
4.0
 40
4.0
 40
4.0
 10
-1.080037434895833
 20
-18.40611165364583
 30
0.0
 10
-1.080037434895833
 20
-18.40611165364583
 30
0.0
 10
-1.6092041015625
 20
-19.81722276475694
 30
0.0
 10
-1.6092041015625
 20
-19.81722276475694
 30
0.0
 10
-1.6092041015625
 20
-19.81722276475694
 30
0.0
 10
-1.827450900607639
 20
-20.01083713107639
 30
0.0
 10
-2.052760145399305
 20
-19.84960666232639
 30
0.0
 10
-2.052760145399305
 20
-19.84960666232639
 30
0.0
 10
-2.26187744140625
 20
-19.75314398871528
 30
0.0
 10
-2.084971788194444
 20
-19.39898817274305
 30
0.0
 10
-2.084971788194444
 20
-19.39898817274305
 30
0.0
 10
-1.956297471788194
 20
-19.12510308159722
 30
0.0
 10
-1.537890625
 20
-19.41483561197916
 30
0.0
  0
LWPOLYLINE
  5
109
330
A
100
AcDbEntity
  8
NAILS
 62
     7
100
AcDbPolyline
 90
        5
 70
     0
 43
0.0
 10
31.54777289496527
 20
3.18740234375
 10
31.54777289496527
 20
-29.56546495225694
 10
10.42279188368056
 20
-29.56546495225694
 10
10.42279188368056
 20
43.29382595486111
 10
18.95215928819444
 20
43.29382595486111
  0
LWPOLYLINE
  5
103
330
A
100
AcDbEntity
  8
NAILS
 62
     7
100
AcDbPolyline
 90
        4
 70
     0
 43
0.0
 10
31.54777289496527
 20
26.54514973958333
 10
31.54777289496527
 20
9.410967339409721
 10
31.54777289496527
 20
8.642711046006944
 10
31.54777289496527
 20
4.8462158203125
  0
SPLINE
  5
102
330
A
100
AcDbEntity
  8
NAILS
 62
     7
100
AcDbSpline
210
0.0
220
0.0
230
1.0
 70
    11
 71
     3
 72
    35
 73
    31
 74
     0
 42
0.0000000001
 43
0.0000000001
 40
0.0
 40
0.0
 40
0.0
 40
0.0
 40
1.0
 40
1.0
 40
1.0
 40
2.0
 40
2.0
 40
2.0
 40
3.0
 40
3.0
 40
3.0
 40
4.0
 40
4.0
 40
4.0
 40
5.0
 40
5.0
 40
5.0
 40
6.0
 40
6.0
 40
6.0
 40
7.0
 40
7.0
 40
7.0
 40
8.0
 40
8.0
 40
8.0
 40
9.0
 40
9.0
 40
9.0
 40
10.0
 40
10.0
 40
10.0
 40
10.0
 10
1.565279134114583
 20
-10.13340386284722
 30
0.0
 10
1.565279134114583
 20
-10.13340386284722
 30
0.0
 10
1.565279134114583
 20
50.19159613715277
 30
0.0
 10
1.565279134114583
 20
50.19159613715277
 30
0.0
 10
1.565279134114583
 20
50.19159613715277
 30
0.0
 10
10.07587076822917
 20
50.19159613715277
 30
0.0
 10
10.07587076822917
 20
50.19159613715277
 30
0.0
 10
10.07587076822917
 20
50.19159613715277
 30
0.0
 10
10.07587076822917
 20
-17.54173719618056
 30
0.0
 10
10.07587076822917
 20
-17.54173719618056
 30
0.0
 10
10.07587076822917
 20
-17.54173719618056
 30
0.0
 10
8.532640245225693
 20
-17.54173719618056
 30
0.0
 10
8.532640245225693
 20
-17.54173719618056
 30
0.0
 10
8.532640245225693
 20
-17.54173719618056
 30
0.0
 10
8.091668023003471
 20
-17.54173719618056
 30
0.0
 10
8.091668023003471
 20
-18.07090386284722
 30
0.0
 10
8.091668023003471
 20
-18.07090386284722
 30
0.0
 10
8.091668023003471
 20
-30.41812608506944
 30
0.0
 10
8.091668023003471
 20
-30.41812608506944
 30
0.0
 10
8.091668023003471
 20
-30.41812608506944
 30
0.0
 10
-4.961109754774305
 20
-30.41812608506944
 30
0.0
 10
-4.961109754774305
 20
-30.41812608506944
 30
0.0
 10
-4.961109754774305
 20
-30.41812608506944
 30
0.0
 10
-4.961109754774305
 20
-18.77645941840278
 30
0.0
 10
-4.961109754774305
 20
-18.77645941840278
 30
0.0
 10
-4.961109754774305
 20
-18.77645941840278
 30
0.0
 10
-1.256943088107639
 20
-18.77645941840278
 30
0.0
 10
-1.256943088107639
 20
-18.77645941840278
 30
0.0
 10
-1.256943088107639
 20
-18.77645941840278
 30
0.0
 10
1.565279134114583
 20
-10.13340386284722
 30
0.0
 10
1.565279134114583
 20
-10.13340386284722
 30
0.0
  0
SPLINE
  5
101
330
A
100
AcDbEntity
  8
NAILS
 62
     7
100
AcDbSpline
210
0.0
220
0.0
230
1.0
 70
    11
 71
     3
 72
    23
 73
    19
 74
     0
 42
0.0000000001
 43
0.0000000001
 40
0.0
 40
0.0
 40
0.0
 40
0.0
 40
1.0
 40
1.0
 40
1.0
 40
2.0
 40
2.0
 40
2.0
 40
3.0
 40
3.0
 40
3.0
 40
4.0
 40
4.0
 40
4.0
 40
5.0
 40
5.0
 40
5.0
 40
6.0
 40
6.0
 40
6.0
 40
6.0
 10
5.710418023003472
 20
4.374582248263889
 30
0.0
 10
5.710418023003472
 20
4.374582248263889
 30
0.0
 10
5.26944580078125
 20
3.624929470486111
 30
0.0
 10
5.26944580078125
 20
3.624929470486111
 30
0.0
 10
5.26944580078125
 20
3.624929470486111
 30
0.0
 10
5.048959689670139
 20
3.228054470486111
 30
0.0
 10
5.48993191189236
 20
3.228054470486111
 30
0.0
 10
5.48993191189236
 20
3.228054470486111
 30
0.0
 10
6.151390245225694
 20
3.228054470486111
 30
0.0
 10
6.151390245225694
 20
3.228054470486111
 30
0.0
 10
6.151390245225694
 20
3.228054470486111
 30
0.0
 10
6.636459689670138
 20
3.183957248263889
 30
0.0
 10
6.415973578559028
 20
3.536735026041666
 30
0.0
 10
6.415973578559028
 20
3.536735026041666
 30
0.0
 10
6.06319580078125
 20
4.374582248263889
 30
0.0
 10
6.06319580078125
 20
4.374582248263889
 30
0.0
 10
6.06319580078125
 20
4.374582248263889
 30
0.0
 10
5.886806911892361
 20
4.727360026041667
 30
0.0
 10
5.710418023003472
 20
4.374582248263889
 30
0.0
  0
LINE
  5
100
330
A
100
AcDbEntity
  8
NAILS
 62
     7
100
AcDbLine
 10
9.282120768229166
 20
50.19159613715277
 30
0.0
 11
9.282120768229166
 21
-17.54173719618056
 31
0.0
  0
INSERT
  5
F7
330
A
100
AcDbEntity
  8
NAILS
 62
     7
100
AcDbBlockReference
  2
AI9-BLK13
 10
2.915412055121528
 20
-20.79761081271701
 30
0.0
  0
INSERT
  5
ED
330
A
100
AcDbEntity
  8
NAILS
 62
     7
100
AcDbBlockReference
  2
AI9-BLK12
 10
5.032078721788194
 20
-20.79761081271701
 30
0.0
  0
SPLINE
  5
EB
330
A
100
AcDbEntity
  8
NAILS
 62
     7
100
AcDbSpline
210
0.0
220
0.0
230
1.0
 70
    11
 71
     3
 72
    35
 73
    31
 74
     0
 42
0.0000000001
 43
0.0000000001
 40
0.0
 40
0.0
 40
0.0
 40
0.0
 40
1.0
 40
1.0
 40
1.0
 40
2.0
 40
2.0
 40
2.0
 40
3.0
 40
3.0
 40
3.0
 40
4.0
 40
4.0
 40
4.0
 40
5.0
 40
5.0
 40
5.0
 40
6.0
 40
6.0
 40
6.0
 40
7.0
 40
7.0
 40
7.0
 40
8.0
 40
8.0
 40
8.0
 40
9.0
 40
9.0
 40
9.0
 40
10.0
 40
10.0
 40
10.0
 40
10.0
 10
1.565279134114583
 20
-10.13340386284722
 30
0.0
 10
1.565279134114583
 20
-10.13340386284722
 30
0.0
 10
1.565279134114583
 20
50.19159613715277
 30
0.0
 10
1.565279134114583
 20
50.19159613715277
 30
0.0
 10
1.565279134114583
 20
50.19159613715277
 30
0.0
 10
10.07587076822917
 20
50.19159613715277
 30
0.0
 10
10.07587076822917
 20
50.19159613715277
 30
0.0
 10
10.07587076822917
 20
50.19159613715277
 30
0.0
 10
10.07587076822917
 20
-17.54173719618056
 30
0.0
 10
10.07587076822917
 20
-17.54173719618056
 30
0.0
 10
10.07587076822917
 20
-17.54173719618056
 30
0.0
 10
8.532640245225693
 20
-17.54173719618056
 30
0.0
 10
8.532640245225693
 20
-17.54173719618056
 30
0.0
 10
8.532640245225693
 20
-17.54173719618056
 30
0.0
 10
8.091668023003471
 20
-17.54173719618056
 30
0.0
 10
8.091668023003471
 20
-18.07090386284722
 30
0.0
 10
8.091668023003471
 20
-18.07090386284722
 30
0.0
 10
8.091668023003471
 20
-30.41812608506944
 30
0.0
 10
8.091668023003471
 20
-30.41812608506944
 30
0.0
 10
8.091668023003471
 20
-30.41812608506944
 30
0.0
 10
-4.961109754774305
 20
-30.41812608506944
 30
0.0
 10
-4.961109754774305
 20
-30.41812608506944
 30
0.0
 10
-4.961109754774305
 20
-30.41812608506944
 30
0.0
 10
-4.961109754774305
 20
-18.77645941840278
 30
0.0
 10
-4.961109754774305
 20
-18.77645941840278
 30
0.0
 10
-4.961109754774305
 20
-18.77645941840278
 30
0.0
 10
-1.256943088107639
 20
-18.77645941840278
 30
0.0
 10
-1.256943088107639
 20
-18.77645941840278
 30
0.0
 10
-1.256943088107639
 20
-18.77645941840278
 30
0.0
 10
1.565279134114583
 20
-10.13340386284722
 30
0.0
 10
1.565279134114583
 20
-10.13340386284722
 30
0.0
  0
SPLINE
  5
EA
330
A
100
AcDbEntity
  8
NAILS
 62
     7
100
AcDbSpline
210
0.0
220
0.0
230
1.0
 70
    11
 71
     3
 72
    23
 73
    19
 74
     0
 42
0.0000000001
 43
0.0000000001
 40
0.0
 40
0.0
 40
0.0
 40
0.0
 40
1.0
 40
1.0
 40
1.0
 40
2.0
 40
2.0
 40
2.0
 40
3.0
 40
3.0
 40
3.0
 40
4.0
 40
4.0
 40
4.0
 40
5.0
 40
5.0
 40
5.0
 40
6.0
 40
6.0
 40
6.0
 40
6.0
 10
5.710418023003472
 20
4.374582248263889
 30
0.0
 10
5.710418023003472
 20
4.374582248263889
 30
0.0
 10
5.26944580078125
 20
3.624929470486111
 30
0.0
 10
5.26944580078125
 20
3.624929470486111
 30
0.0
 10
5.26944580078125
 20
3.624929470486111
 30
0.0
 10
5.048959689670139
 20
3.228054470486111
 30
0.0
 10
5.48993191189236
 20
3.228054470486111
 30
0.0
 10
5.48993191189236
 20
3.228054470486111
 30
0.0
 10
6.151390245225694
 20
3.228054470486111
 30
0.0
 10
6.151390245225694
 20
3.228054470486111
 30
0.0
 10
6.151390245225694
 20
3.228054470486111
 30
0.0
 10
6.636459689670138
 20
3.183957248263889
 30
0.0
 10
6.415973578559028
 20
3.536735026041666
 30
0.0
 10
6.415973578559028
 20
3.536735026041666
 30
0.0
 10
6.06319580078125
 20
4.374582248263889
 30
0.0
 10
6.06319580078125
 20
4.374582248263889
 30
0.0
 10
6.06319580078125
 20
4.374582248263889
 30
0.0
 10
5.886806911892361
 20
4.727360026041667
 30
0.0
 10
5.710418023003472
 20
4.374582248263889
 30
0.0
  0
LWPOLYLINE
  5
E4
330
A
100
AcDbEntity
  8
NAILS
 62
     7
100
AcDbPolyline
 90
        4
 70
     1
 43
0.0
 10
-1.609720865885417
 20
-18.68826497395833
 10
-4.25555419921875
 20
-18.68826497395833
 10
-4.25555419921875
 20
-17.98270941840278
 10
-1.609720865885417
 20
-17.98270941840278
  0
LWPOLYLINE
  5
DD
330
A
100
AcDbEntity
  8
NAILS
 62
     7
100
AcDbPolyline
 90
        5
 70
     0
 43
0.0
 10
10.23744574652778
 20
-0.1991265190972222
 10
29.55857476128472
 20
-0.1991265190972222
 10
30.62035319010417
 20
0.2838758680555555
 10
29.56512044270833
 20
0.7382839626736111
 10
10.29635687934028
 20
0.7382839626736111
  0
LWPOLYLINE
  5
D3
330
A
100
AcDbEntity
  8
NAILS
 62
     7
100
AcDbPolyline
 90
        8
 70
     0
 43
0.0
 10
10.29635687934028
 20
0.7382839626736111
 10
9.168432617187499
 20
0.7382839626736111
 10
9.168432617187499
 20
1.5875
 10
8.463049316406249
 20
1.5875
 10
8.463049316406249
 20
-1.058333333333333
 10
9.168432617187499
 20
-1.058333333333333
 10
9.168432617187499
 20
-0.1991265190972222
 10
10.23744574652778
 20
-0.1991265190972222
  0
LINE
  5
D2
330
A
100
AcDbEntity
  8
NAILS
 62
     7
100
AcDbLine
 10
9.168432617187499
 20
-0.3527777777777778
 30
0.0
 11
9.168432617187499
 21
0.6201171874999999
 31
0.0
  0
LWPOLYLINE
  5
CB
330
A
100
AcDbEntity
  8
NAILS
 62
     7
100
AcDbPolyline
 90
        5
 70
     0
 43
0.0
 10
10.35526801215278
 20
12.15464138454861
 10
29.73496365017361
 20
12.15464138454861
 10
30.79674207899305
 20
12.63764377170139
 10
29.74150933159722
 20
13.09205186631944
 10
10.35526801215278
 20
13.09205186631944
  0
LWPOLYLINE
  5
C1
330
A
100
AcDbEntity
  8
NAILS
 62
     7
100
AcDbPolyline
 90
        8
 70
     0
 43
0.0
 10
10.17887912326389
 20
13.09205186631944
 10
9.168432617187499
 20
13.09205186631944
 10
9.168432617187499
 20
13.94126790364583
 10
8.463049316406249
 20
13.94126790364583
 10
8.463049316406249
 20
11.2954345703125
 10
9.168432617187499
 20
11.2954345703125
 10
9.168432617187499
 20
12.15464138454861
 10
10.17887912326389
 20
12.15464138454861
  0
LINE
  5
C0
330
A
100
AcDbEntity
  8
NAILS
 62
     7
100
AcDbLine
 10
9.168432617187499
 20
12.00099012586805
 30
0.0
 11
9.168432617187499
 21
12.97388509114583
 31
0.0
  0
LWPOLYLINE
  5
B9
330
A
100
AcDbEntity
  8
NAILS
 62
     7
100
AcDbPolyline
 90
        5
 70
     0
 43
0.0
 10
10.59022352430556
 20
24.36629909939236
 10
29.80765516493055
 20
24.36629909939236
 10
30.79674207899305
 20
24.84930148654514
 10
29.81454535590278
 20
25.30370958116319
 10
10.59022352430556
 20
25.30370958116319
  0
LWPOLYLINE
  5
AF
330
A
100
AcDbEntity
  8
NAILS
 62
     7
100
AcDbPolyline
 90
        8
 70
     0
 43
0.0
 10
10.41383463541667
 20
25.30370958116319
 10
9.168432617187499
 20
25.30370958116319
 10
9.168432617187499
 20
26.15292561848958
 10
8.463049316406249
 20
26.15292561848958
 10
8.463049316406249
 20
23.50709228515625
 10
9.168432617187499
 20
23.50709228515625
 10
9.168432617187499
 20
24.36629909939236
 10
10.41383463541667
 20
24.36629909939236
  0
LINE
  5
AE
330
A
100
AcDbEntity
  8
NAILS
 62
     7
100
AcDbLine
 10
9.168432617187499
 20
24.2126478407118
 30
0.0
 11
9.168432617187499
 21
25.18554280598958
 31
0.0
  0
LWPOLYLINE
  5
A7
330
A
100
AcDbEntity
  8
NAILS
 62
     7
100
AcDbPolyline
 90
        5
 70
     0
 43
0.0
 10
10.33700900607639
 20
36.72023925781249
 10
29.55857476128472
 20
36.72023925781249
 10
30.62035319010417
 20
37.20324164496527
 10
29.56512044270833
 20
37.65764973958333
 10
10.37731662326389
 20
37.65764973958333
  0
LWPOLYLINE
  5
9D
330
A
100
AcDbEntity
  8
NAILS
 62
     7
100
AcDbPolyline
 90
        8
 70
     0
 43
0.0
 10
10.37731662326389
 20
37.65764973958333
 10
9.168432617187499
 20
37.65764973958333
 10
9.168432617187499
 20
38.50686577690972
 10
8.463049316406249
 20
38.50686577690972
 10
8.463049316406249
 20
35.86103244357638
 10
9.168432617187499
 20
35.86103244357638
 10
9.168432617187499
 20
36.72023925781249
 10
10.33700900607639
 20
36.72023925781249
  0
LINE
  5
9C
330
A
100
AcDbEntity
  8
NAILS
 62
     7
100
AcDbLine
 10
9.168432617187499
 20
36.56658799913194
 30
0.0
 11
9.168432617187499
 21
37.53948296440972
 31
0.0
  0
LWPOLYLINE
  5
95
330
A
100
AcDbEntity
  8
NAILS
 62
     7
100
AcDbPolyline
 90
        5
 70
     0
 43
0.0
 10
10.23744574652778
 20
-13.38212890625
 10
29.55857476128472
 20
-13.38212890625
 10
30.62035319010417
 20
-12.89912651909722
 10
29.56512044270833
 20
-12.44437391493056
 10
10.23744574652778
 20
-12.44437391493056
  0
LWPOLYLINE
  5
8B
330
A
100
AcDbEntity
  8
NAILS
 62
     7
100
AcDbPolyline
 90
        8
 70
     0
 43
0.0
 10
10.23744574652778
 20
-12.44437391493056
 10
9.168432617187499
 20
-12.44437391493056
 10
9.168432617187499
 20
-11.59550238715278
 10
8.463049316406249
 20
-11.59550238715278
 10
8.463049316406249
 20
-14.24133572048611
 10
9.168432617187499
 20
-14.24133572048611
 10
9.168432617187499
 20
-13.38212890625
 10
10.23744574652778
 20
-13.38212890625
  0
LINE
  5
8A
330
A
100
AcDbEntity
  8
NAILS
 62
     7
100
AcDbLine
 10
9.168432617187499
 20
-13.53578016493055
 30
0.0
 11
9.168432617187499
 21
-12.56288519965278
 31
0.0
  0
LINE
  5
89
330
A
100
AcDbEntity
  8
NAILS
 62
     7
100
AcDbLine
 10
10.26018337673611
 20
38.30446641710069
 30
0.0
 11
10.26018337673611
 21
-13.98467610677083
 31
0.0
  0
LINE
  5
88
330
A
100
AcDbEntity
  8
NAILS
 62
     7
100
AcDbLine
 10
33.40330132378472
 20
45.69367947048611
 30
0.0
 11
39.40052354600694
 21
45.69367947048611
 31
0.0
  0
LINE
  5
87
330
A
100
AcDbEntity
  8
NAILS
 62
     7
100
AcDbLine
 10
33.40330132378472
 20
43.36651746961805
 30
0.0
 11
39.40052354600694
 21
43.36651746961805
 31
0.0
  0
INSERT
  5
7A
330
A
100
AcDbEntity
  8
NAILS
 62
     7
100
AcDbBlockReference
  2
AI9-BLK10
 10
37.90276828342014
 20
48.69582180447048
 30
0.0
  0
INSERT
  5
70
330
A
100
AcDbEntity
  8
NAILS
 62
     7
100
AcDbBlockReference
  2
AI9-BLK8
 10
36.22827962239583
 20
40.30511949327256
 30
0.0
  0
INSERT
  5
61
330
A
100
AcDbEntity
  8
NAILS
 62
     7
100
AcDbBlockReference
  2
AI9-BLK6
 10
37.69726833767361
 20
30.08403795030382
 30
0.0
  0
INSERT
  5
57
330
A
100
AcDbEntity
  8
NAILS
 62
     7
100
AcDbBlockReference
  2
AI9-BLK5
 10
31.48231608072916
 20
8.046795654296874
 30
0.0
  0
INSERT
  5
51
330
A
100
AcDbEntity
  8
NAILS
 62
     7
100
AcDbBlockReference
  2
AI9-BLK4
 10
35.62090928819444
 20
7.010941569010416
 30
0.0
  0
INSERT
  5
44
330
A
100
AcDbEntity
  8
NAILS
 62
     7
100
AcDbBlockReference
  2
AI9-BLK3
 10
53.21914605034722
 20
50.9225592719184
 30
0.0
  0
INSERT
  5
3A
330
A
100
AcDbEntity
  8
NAILS
 62
     7
100
AcDbBlockReference
  2
AI9-BLK2
 10
55.54493001302083
 20
33.8306654188368
 30
0.0
  0
INSERT
  5
23
330
A
100
AcDbEntity
  8
NAILS
 62
     7
100
AcDbBlockReference
  2
AI9-BLK1
 10
57.4416273328993
 20
11.15642496744792
 30
0.0
  0
ENDSEC
  0
SECTION
  2
OBJECTS
  0
DICTIONARY
  5
19
330
0
100
AcDbDictionary
281
     1
  3
ACAD_COLOR
350
24A
  3
ACAD_GROUP
350
1A
  3
ACAD_LAYOUT
350
217
  3
ACAD_MATERIAL
350
24C
  3
ACAD_MLINESTYLE
350
1B
  3
ACAD_PLOTSETTINGS
350
218
  3
ACAD_PLOTSTYLENAME
350
215
  3
ACDBHEADERROUNDTRIPXREC
350
249
  0
DICTIONARY
  5
24A
102
{ACAD_REACTORS
330
19
102
}
330
19
100
AcDbDictionary
281
     1
  0
DICTIONARY
  5
1A
102
{ACAD_REACTORS
330
19
102
}
330
19
100
AcDbDictionary
281
     1
  0
DICTIONARY
  5
217
102
{ACAD_REACTORS
330
19
102
}
330
19
100
AcDbDictionary
281
     1
  3
Layout1
350
21A
  3
Model
350
219
  0
DICTIONARY
  5
24C
102
{ACAD_REACTORS
330
19
102
}
330
19
100
AcDbDictionary
281
     1
  0
DICTIONARY
  5
1B
102
{ACAD_REACTORS
330
19
102
}
330
19
100
AcDbDictionary
281
     1
  3
STANDARD
350
1C
  0
DICTIONARY
  5
218
102
{ACAD_REACTORS
330
19
102
}
330
19
100
AcDbDictionary
281
     1
  0
ACDBDICTIONARYWDFLT
  5
215
102
{ACAD_REACTORS
330
19
102
}
330
19
100
AcDbDictionary
281
     1
  3
Normal
350
216
100
AcDbDictionaryWithDefault
340
216
  0
DICTIONARY
  5
249
102
{ACAD_REACTORS
330
19
102
}
330
19
100
AcDbDictionary
281
     1
  3
COLORDICT
350
24B
  3
MATERIALDICT
350
24D
  0
LAYOUT
  5
21A
102
{ACAD_REACTORS
330
217
102
}
102
{ACAD_XDICTIONARY
360
24E
102
}
330
217
100
AcDbPlotSettings
  1

  2
Support Center HP LaserJet 4
  4

  6

 40
0.0
 41
0.0
 42
0.0
 43
0.0
 44
0.0
 45
0.0
 46
0.0
 47
0.0
 48
0.0
 49
0.0
140
0.0
141
0.0
142
1.0
143
1.0
 70
   688
 72
     0
 73
     0
 74
     5
  7

 75
    16
147
1.0
148
0.0
149
0.0
100
AcDbLayout
  1
Layout1
 70
     0
 71
     1
 10
0.0
 20
0.0
 11
12.0
 21
9.0
 12
0.0
 22
0.0
 32
0.0
 14
1.000000000000000E+20
 24
1.000000000000000E+20
 34
1.000000000000000E+20
 15
-1.000000000000000E+20
 25
-1.000000000000000E+20
 35
-1.000000000000000E+20
146
0.0
 13
0.0
 23
0.0
 33
0.0
 16
1.0
 26
0.0
 36
0.0
 17
0.0
 27
1.0
 37
0.0
 76
     0
330
B
  0
LAYOUT
  5
219
102
{ACAD_REACTORS
330
217
102
}
102
{ACAD_XDICTIONARY
360
250
102
}
330
217
100
AcDbPlotSettings
  1

  2
Support Center HP LaserJet 4
  4

  6

 40
0.0
 41
0.0
 42
0.0
 43
0.0
 44
0.0
 45
0.0
 46
0.0
 47
0.0
 48
0.0
 49
0.0
140
0.0
141
0.0
142
1.0
143
1.0
 70
  1712
 72
     0
 73
     0
 74
     0
  7

 75
     0
147
1.0
148
0.0
149
0.0
100
AcDbLayout
  1
Model
 70
     1
 71
     0
 10
0.0
 20
0.0
 11
12.0
 21
9.0
 12
0.0
 22
0.0
 32
0.0
 14
0.0
 24
0.0
 34
0.0
 15
0.0
 25
0.0
 35
0.0
146
0.0
 13
0.0
 23
0.0
 33
0.0
 16
1.0
 26
0.0
 36
0.0
 17
0.0
 27
1.0
 37
0.0
 76
     0
330
A
  0
MLINESTYLE
  5
1C
102
{ACAD_REACTORS
330
1B
102
}
330
1B
100
AcDbMlineStyle
  2
STANDARD
 70
     0
  3

 62
     0
 51
90.0000000000002
 52
90.0000000000002
 71
     2
 49
0.5
 62
   256
  6
BYLAYER
 49
-0.5
 62
   256
  6
BYLAYER
  0
ACDBPLACEHOLDER
  5
216
102
{ACAD_REACTORS
330
215
102
}
330
215
  0
XRECORD
  5
24B
102
{ACAD_REACTORS
330
249
102
}
330
249
100
AcDbXrecord
340
24A
  0
XRECORD
  5
24D
102
{ACAD_REACTORS
330
249
102
}
330
249
100
AcDbXrecord
340
24C
  0
DICTIONARY
  5
24E
330
21A
100
AcDbDictionary
280
     1
281
     1
  3
ACAD_XREC_ROUNDTRIP
360
24F
  0
DICTIONARY
  5
250
330
219
100
AcDbDictionary
280
     1
281
     1
  3
ACAD_XREC_ROUNDTRIP
360
251
  0
XRECORD
  5
24F
102
{ACAD_REACTORS
330
24E
102
}
330
24E
100
AcDbXrecord
102
SHADEPLOT
 70
     0
102
SHADEPLOTRESLEVEL
 70
     0
102
SHADEPLOTCUSTOMDPI
 70
     0
  0
XRECORD
  5
251
102
{ACAD_REACTORS
330
250
102
}
330
250
100
AcDbXrecord
102
SHADEPLOT
 70
     0
102
SHADEPLOTRESLEVEL
 70
     0
102
SHADEPLOTCUSTOMDPI
 70
     0
  0
ENDSEC
  0
EOF
