  0
SECTION
  2
HEADER
  9
$ACADVER
  1
AC1015
  9
$ACADMAINTVER
 70
     6
  9
$DWGCODEPAGE
  3
ANSI_1252
  9
$INSBASE
 10
0.0
 20
0.0
 30
0.0
  9
$EXTMIN
 10
50.34780716379135
 20
102.1302992301592
 30
-0.0015258207003612
  9
$EXTMAX
 10
166.8957028271444
 20
195.3365863336225
 30
0.0000000349246008
  9
$LIMMIN
 10
50.11080864800347
 20
103.47275390625
  9
$LIMMAX
 10
166.892138671875
 20
193.0645290798611
  9
$ORTHOMODE
 70
     0
  9
$REGENMODE
 70
     1
  9
$FILLMODE
 70
     1
  9
$QTEXTMODE
 70
     0
  9
$MIRRTEXT
 70
     1
  9
$LTSCALE
 40
1.0
  9
$ATTMODE
 70
     1
  9
$TEXTSIZE
 40
0.2
  9
$TRACEWID
 40
0.05
  9
$TEXTSTYLE
  7
STANDARD
  9
$CLAYER
  8
0
  9
$CELTYPE
  6
CONTINUOUS
  9
$CECOLOR
 62
   256
  9
$CELTSCALE
 40
1.0
  9
$DISPSILH
 70
     0
  9
$DIMSCALE
 40
1.0
  9
$DIMASZ
 40
0.18
  9
$DIMEXO
 40
0.0625
  9
$DIMDLI
 40
0.38
  9
$DIMRND
 40
0.0
  9
$DIMDLE
 40
0.0
  9
$DIMEXE
 40
0.18
  9
$DIMTP
 40
0.0
  9
$DIMTM
 40
0.0
  9
$DIMTXT
 40
0.18
  9
$DIMCEN
 40
0.09
  9
$DIMTSZ
 40
0.0
  9
$DIMTOL
 70
     0
  9
$DIMLIM
 70
     0
  9
$DIMTIH
 70
     1
  9
$DIMTOH
 70
     1
  9
$DIMSE1
 70
     0
  9
$DIMSE2
 70
     0
  9
$DIMTAD
 70
     0
  9
$DIMZIN
 70
     0
  9
$DIMBLK
  1

  9
$DIMASO
 70
     1
  9
$DIMSHO
 70
     1
  9
$DIMPOST
  1

  9
$DIMAPOST
  1

  9
$DIMALT
 70
     0
  9
$DIMALTD
 70
     2
  9
$DIMALTF
 40
25.4
  9
$DIMLFAC
 40
1.0
  9
$DIMTOFL
 70
     0
  9
$DIMTVP
 40
0.0
  9
$DIMTIX
 70
     0
  9
$DIMSOXD
 70
     0
  9
$DIMSAH
 70
     0
  9
$DIMBLK1
  1

  9
$DIMBLK2
  1

  9
$DIMSTYLE
  2
STANDARD
  9
$DIMCLRD
 70
     0
  9
$DIMCLRE
 70
     0
  9
$DIMCLRT
 70
     0
  9
$DIMTFAC
 40
1.0
  9
$DIMGAP
 40
0.09
  9
$DIMJUST
 70
     0
  9
$DIMSD1
 70
     0
  9
$DIMSD2
 70
     0
  9
$DIMTOLJ
 70
     1
  9
$DIMTZIN
 70
     0
  9
$DIMALTZ
 70
     0
  9
$DIMALTTZ
 70
     0
  9
$DIMUPT
 70
     0
  9
$DIMDEC
 70
     4
  9
$DIMTDEC
 70
     4
  9
$DIMALTU
 70
     2
  9
$DIMALTTD
 70
     2
  9
$DIMTXSTY
  7
STANDARD
  9
$DIMAUNIT
 70
     0
  9
$DIMADEC
 70
     0
  9
$DIMALTRND
 40
0.0
  9
$DIMAZIN
 70
     0
  9
$DIMDSEP
 70
    46
  9
$DIMATFIT
 70
     3
  9
$DIMFRAC
 70
     0
  9
$DIMLDRBLK
  1

  9
$DIMLUNIT
 70
     2
  9
$DIMLWD
 70
    -2
  9
$DIMLWE
 70
    -2
  9
$DIMTMOVE
 70
     0
  9
$LUNITS
 70
     2
  9
$LUPREC
 70
     4
  9
$SKETCHINC
 40
0.1
  9
$FILLETRAD
 40
0.0
  9
$AUNITS
 70
     0
  9
$AUPREC
 70
     0
  9
$MENU
  1
acad
  9
$ELEVATION
 40
0.0
  9
$PELEVATION
 40
0.0
  9
$THICKNESS
 40
0.0
  9
$LIMCHECK
 70
     0
  9
$CHAMFERA
 40
0.0
  9
$CHAMFERB
 40
0.0
  9
$CHAMFERC
 40
0.0
  9
$CHAMFERD
 40
0.0
  9
$SKPOLY
 70
     0
  9
$TDCREATE
 40
2444971.666666667
  9
$TDUCREATE
 40
2444972.0
  9
$TDUPDATE
 40
2452219.455096412
  9
$TDUUPDATE
 40
2452219.788429746
  9
$TDINDWG
 40
0.0002193287
  9
$TDUSRTIMER
 40
0.0002193287
  9
$USRTIMER
 70
     1
  9
$ANGBASE
 50
0.0
  9
$ANGDIR
 70
     0
  9
$PDMODE
 70
     0
  9
$PDSIZE
 40
0.0
  9
$PLINEWID
 40
0.0
  9
$SPLFRAME
 70
     0
  9
$SPLINETYPE
 70
     6
  9
$SPLINESEGS
 70
     8
  9
$HANDSEED
  5
1C6
  9
$SURFTAB1
 70
     6
  9
$SURFTAB2
 70
     6
  9
$SURFTYPE
 70
     6
  9
$SURFU
 70
     6
  9
$SURFV
 70
     6
  9
$UCSBASE
  2

  9
$UCSNAME
  2

  9
$UCSORG
 10
0.0
 20
0.0
 30
0.0
  9
$UCSXDIR
 10
1.0
 20
0.0
 30
0.0
  9
$UCSYDIR
 10
0.0
 20
1.0
 30
0.0
  9
$UCSORTHOREF
  2

  9
$UCSORTHOVIEW
 70
     0
  9
$UCSORGTOP
 10
0.0
 20
0.0
 30
0.0
  9
$UCSORGBOTTOM
 10
0.0
 20
0.0
 30
0.0
  9
$UCSORGLEFT
 10
0.0
 20
0.0
 30
0.0
  9
$UCSORGRIGHT
 10
0.0
 20
0.0
 30
0.0
  9
$UCSORGFRONT
 10
0.0
 20
0.0
 30
0.0
  9
$UCSORGBACK
 10
0.0
 20
0.0
 30
0.0
  9
$PUCSBASE
  2

  9
$PUCSNAME
  2

  9
$PUCSORG
 10
0.0
 20
0.0
 30
0.0
  9
$PUCSXDIR
 10
1.0
 20
0.0
 30
0.0
  9
$PUCSYDIR
 10
0.0
 20
1.0
 30
0.0
  9
$PUCSORTHOREF
  2

  9
$PUCSORTHOVIEW
 70
     0
  9
$PUCSORGTOP
 10
0.0
 20
0.0
 30
0.0
  9
$PUCSORGBOTTOM
 10
0.0
 20
0.0
 30
0.0
  9
$PUCSORGLEFT
 10
0.0
 20
0.0
 30
0.0
  9
$PUCSORGRIGHT
 10
0.0
 20
0.0
 30
0.0
  9
$PUCSORGFRONT
 10
0.0
 20
0.0
 30
0.0
  9
$PUCSORGBACK
 10
0.0
 20
0.0
 30
0.0
  9
$USERI1
 70
     0
  9
$USERI2
 70
     0
  9
$USERI3
 70
     0
  9
$USERI4
 70
     0
  9
$USERI5
 70
     0
  9
$USERR1
 40
0.0
  9
$USERR2
 40
0.0
  9
$USERR3
 40
0.0
  9
$USERR4
 40
0.0
  9
$USERR5
 40
0.0
  9
$WORLDVIEW
 70
     1
  9
$SHADEDGE
 70
     3
  9
$SHADEDIF
 70
    70
  9
$TILEMODE
 70
     1
  9
$MAXACTVP
 70
    16
  9
$PINSBASE
 10
0.0
 20
0.0
 30
0.0
  9
$PLIMCHECK
 70
     0
  9
$PEXTMIN
 10
1.000000000000000E+20
 20
1.000000000000000E+20
 30
1.000000000000000E+20
  9
$PEXTMAX
 10
-1.000000000000000E+20
 20
-1.000000000000000E+20
 30
-1.000000000000000E+20
  9
$PLIMMIN
 10
0.0
 20
0.0
  9
$PLIMMAX
 10
12.0
 20
9.0
  9
$UNITMODE
 70
     0
  9
$VISRETAIN
 70
     0
  9
$PLINEGEN
 70
     1
  9
$PSLTSCALE
 70
     0
  9
$TREEDEPTH
 70
  3020
  9
$CMLSTYLE
  2
STANDARD
  9
$CMLJUST
 70
     0
  9
$CMLSCALE
 40
1.0
  9
$PROXYGRAPHICS
 70
     0
  9
$MEASUREMENT
 70
     0
  9
$CELWEIGHT
370
    -1
  9
$ENDCAPS
280
     0
  9
$JOINSTYLE
280
     0
  9
$LWDISPLAY
290
     0
  9
$INSUNITS
 70
     0
  9
$HYPERLINKBASE
  1

  9
$STYLESHEET
  1

  9
$XEDIT
290
     1
  9
$CEPSNTYPE
380
     0
  9
$PSTYLEMODE
290
     1
  9
$FINGERPRINTGUID
  2
{0AE0D080-D1C7-11D5-923F-00805F198AD5}
  9
$VERSIONGUID
  2
{0AE0D082-D1C7-11D5-923F-00805F198AD5}
  9
$EXTNAMES
290
     1
  9
$PSVPSCALE
 40
0.0
  9
$OLESTARTUP
290
     0
  0
ENDSEC
  0
SECTION
  2
CLASSES
  0
CLASS
  1
LWPOLYLINE
  2
AcDbPolyline
  3
AutoCAD 2000
 90
        0
280
     0
281
     1
  0
CLASS
  1
IMAGE
  2
AcDbRasterImage
  3
ISM
 90
      127
280
     0
281
     1
  0
CLASS
  1
OLE2FRAME
  2
AcDbOle2Frame
  3
AutoCAD 2000
 90
        0
280
     0
281
     1
  0
CLASS
  1
HATCH
  2
AcDbHatch
  3
AutoCAD 2000
 90
        0
280
     0
281
     1
  0
CLASS
  1
DICTIONARYVAR
  2
AcDbDictionaryVar
  3
AutoCAD 2000
 90
        0
280
     0
281
     0
  0
CLASS
  1
RASTERVARIABLES
  2
AcDbRasterVariables
  3
ISM
 90
        0
280
     0
281
     0
  0
CLASS
  1
IMAGEDEF
  2
AcDbRasterImageDef
  3
ISM
 90
        0
280
     0
281
     0
  0
CLASS
  1
IMAGEDEF_REACTOR
  2
AcDbRasterImageDefReactor
  3
ISM
 90
        1
280
     0
281
     0
  0
CLASS
  1
IDBUFFER
  2
AcDbIdBuffer
  3
AutoCAD 2000
 90
        0
280
     0
281
     0
  0
CLASS
  1
SPATIAL_FILTER
  2
AcDbSpatialFilter
  3
AutoCAD 2000
 90
        0
280
     0
281
     0
  0
CLASS
  1
XRECORD
  2
AcDbXrecord
  3
AutoCAD 2000
 90
        0
280
     0
281
     0
  0
CLASS
  1
SORTENTSTABLE
  2
AcDbSortentsTable
  3
AutoCAD 2000
 90
        0
280
     0
281
     0
  0
CLASS
  1
LAYER_INDEX
  2
AcDbLayerIndex
  3
AutoCAD 2000
 90
        0
280
     0
281
     0
  0
CLASS
  1
SPATIAL_INDEX
  2
AcDbSpatialIndex
  3
AutoCAD 2000
 90
        0
280
     0
281
     0
  0
CLASS
  1
OBJECT_PTR
  2
CAseDLPNTableRecord
  3
ASE-LPNTableRecord
 90
        1
280
     1
281
     0
  0
CLASS
  1
LAYOUT
  2
AcDbLayout
  3
ObjectDBX Classes
 90
        0
280
     0
281
     0
  0
CLASS
  1
PLOTSETTINGS
  2
AcDbPlotSettings
  3
AutoCAD 2000
 90
        0
280
     0
281
     0
  0
CLASS
  1
ACDBDICTIONARYWDFLT
  2
AcDbDictionaryWithDefault
  3
AutoCAD 2000
 90
        0
280
     0
281
     0
  0
CLASS
  1
ACDBPLACEHOLDER
  2
AcDbPlaceHolder
  3
ObjectDBX Classes
 90
        0
280
     0
281
     0
  0
CLASS
  1
VBAPROJECT
  2
AcDbVbaProject
  3
ObjectDBX Classes
 90
        0
280
     0
281
     0
  0
CLASS
  1
WIPEOUT
  2
AcDbWipeout
  3
WipeOut|AutoCAD Express Tool|expresstools@autodesk.com
 90
      127
280
     0
281
     1
  0
CLASS
  1
WIPEOUTVARIABLES
  2
AcDbWipeoutVariables
  3
WipeOut|AutoCAD Express Tool|expresstools@autodesk.com
 90
        0
280
     0
281
     0
  0
CLASS
  1
RTEXT
  2
RText
  3
RText|AutoCAD Express Tool|expresstools@autodesk.com
 90
        0
280
     0
281
     1
  0
CLASS
  1
ARCALIGNEDTEXT
  2
AcDbArcAlignedText
  3
ATEXT|AutoCAD Express Tool|expresstools@autodesk.com
 90
        0
280
     0
281
     1
  0
CLASS
  1
LONG_TRANSACTION
  2
AcDbLongTransaction
  3
AutoCAD 2000
 90
        0
280
     1
281
     0
  0
CLASS
  1
LWPOLYLINE
  2
AcDbPolyline
  3
AutoCAD 2000
 90
        0
280
     0
281
     1
  0
CLASS
  1
HATCH
  2
AcDbHatch
  3
AutoCAD 2000
 90
        0
280
     0
281
     1
  0
CLASS
  1
XRECORD
  2
AcDbXrecord
  3
AutoCAD 2000
 90
        0
280
     0
281
     0
  0
ENDSEC
  0
SECTION
  2
TABLES
  0
TABLE
  2
VPORT
  5
7
330
0
100
AcDbSymbolTable
 70
     2
  0
VPORT
  5
192
330
7
100
AcDbSymbolTableRecord
100
AcDbViewportTableRecord
  2
*Active
 70
     0
 10
0.0
 20
0.0
 11
1.0
 21
1.0
 12
108.6217549954679
 22
148.7334427818908
 13
0.0
 23
0.0
 14
1.0
 24
1.0
 15
0.0
 25
0.0
 16
0.0
 26
0.0
 36
1.0
 17
0.0
 27
0.0
 37
0.0
 40
94.67410264839973
 41
1.836842105263158
 42
50.0
 43
0.0
 44
0.0
 50
0.0
 51
0.0
 71
     0
 72
   100
 73
     1
 74
     1
 75
     0
 76
     0
 77
     0
 78
     0
281
     0
 65
     1
110
0.0
120
0.0
130
0.0
111
1.0
121
0.0
131
0.0
112
0.0
122
1.0
132
0.0
 79
     0
146
0.0
  0
ENDTAB
  0
TABLE
  2
LTYPE
  5
4
330
0
100
AcDbSymbolTable
 70
     1
  0
LTYPE
  5
11
330
4
100
AcDbSymbolTableRecord
100
AcDbLinetypeTableRecord
  2
BYBLOCK
 70
     0
  3

 72
    65
 73
     0
 40
0.0
  0
LTYPE
  5
12
330
4
100
AcDbSymbolTableRecord
100
AcDbLinetypeTableRecord
  2
BYLAYER
 70
     0
  3

 72
    65
 73
     0
 40
0.0
  0
LTYPE
  5
13
330
4
100
AcDbSymbolTableRecord
100
AcDbLinetypeTableRecord
  2
CONTINUOUS
 70
     0
  3
Solid line
 72
    65
 73
     0
 40
0.0
  0
ENDTAB
  0
TABLE
  2
LAYER
  5
2
330
0
100
AcDbSymbolTable
 70
     2
  0
LAYER
  5
14
330
2
100
AcDbSymbolTableRecord
100
AcDbLayerTableRecord
  2
0
 70
     0
 62
     7
  6
CONTINUOUS
370
    -3
390
0
  0
LAYER
  5
21
330
2
100
AcDbSymbolTableRecord
100
AcDbLayerTableRecord
  2
NAILS
 70
     0
 62
     1
  6
CONTINUOUS
370
    -3
390
0
  0
ENDTAB
  0
TABLE
  2
STYLE
  5
3
330
0
100
AcDbSymbolTable
 70
     5
  0
STYLE
  5
17
330
3
100
AcDbSymbolTableRecord
100
AcDbTextStyleTableRecord
  2
STANDARD
 70
     0
 40
0.0
 41
1.0
 50
0.0
 71
     0
 42
0.2
  3
txt
  4

  0
STYLE
  5
1D
330
3
100
AcDbSymbolTableRecord
100
AcDbTextStyleTableRecord
  2
STD
 70
     0
 40
0.0
 41
1.0
 50
0.0
 71
     0
 42
0.2
  3
txt
  4

  0
STYLE
  5
1E
330
3
100
AcDbSymbolTableRecord
100
AcDbTextStyleTableRecord
  2
TATESTD
 70
     4
 40
0.0
 41
1.0
 50
0.0
 71
     0
 42
0.2
  3
txt
  4

  0
STYLE
  5
1F
330
3
100
AcDbSymbolTableRecord
100
AcDbTextStyleTableRecord
  2
KANJISTD
 70
     0
 40
0.0
 41
1.0
 50
0.0
 71
     0
 42
0.2
  3
txt
  4
extfont
  0
STYLE
  5
20
330
3
100
AcDbSymbolTableRecord
100
AcDbTextStyleTableRecord
  2
KANJITATE
 70
     4
 40
0.0
 41
1.0
 50
0.0
 71
     0
 42
0.2
  3
txt
  4
extfont
  0
ENDTAB
  0
TABLE
  2
VIEW
  5
5
330
0
100
AcDbSymbolTable
 70
     0
  0
ENDTAB
  0
TABLE
  2
UCS
  5
6
330
0
100
AcDbSymbolTable
 70
     0
  0
ENDTAB
  0
TABLE
  2
APPID
  5
8
330
0
100
AcDbSymbolTable
 70
     1
  0
APPID
  5
16
330
8
100
AcDbSymbolTableRecord
100
AcDbRegAppTableRecord
  2
ACAD
 70
     0
  0
ENDTAB
  0
TABLE
  2
DIMSTYLE
  5
9
330
0
100
AcDbSymbolTable
 70
     1
100
AcDbDimStyleTable
  0
DIMSTYLE
105
18
330
9
100
AcDbSymbolTableRecord
100
AcDbDimStyleTableRecord
  2
STANDARD
 70
     0
  3

  4

289
     0
340
17
  0
ENDTAB
  0
TABLE
  2
BLOCK_RECORD
  5
1
330
0
100
AcDbSymbolTable
 70
     8
  0
BLOCK_RECORD
  5
A
330
1
100
AcDbSymbolTableRecord
100
AcDbBlockTableRecord
  2
*MODEL_SPACE
340
18D
  0
BLOCK_RECORD
  5
B
330
1
100
AcDbSymbolTableRecord
100
AcDbBlockTableRecord
  2
*PAPER_SPACE
340
18E
  0
BLOCK_RECORD
  5
22
330
1
100
AcDbSymbolTableRecord
100
AcDbBlockTableRecord
  2
AI9-BLK1
340
0
102
{BLKREFS
331
23
102
}
  0
BLOCK_RECORD
  5
31
330
1
100
AcDbSymbolTableRecord
100
AcDbBlockTableRecord
  2
AI9-BLK2
340
0
102
{BLKREFS
331
32
102
}
  0
BLOCK_RECORD
  5
47
330
1
100
AcDbSymbolTableRecord
100
AcDbBlockTableRecord
  2
AI9-BLK3
340
0
102
{BLKREFS
331
48
102
}
  0
BLOCK_RECORD
  5
51
330
1
100
AcDbSymbolTableRecord
100
AcDbBlockTableRecord
  2
AI9-BLK4
340
0
102
{BLKREFS
331
52
102
}
  0
BLOCK_RECORD
  5
5B
330
1
100
AcDbSymbolTableRecord
100
AcDbBlockTableRecord
  2
AI9-BLK5
340
0
102
{BLKREFS
331
5C
102
}
  0
BLOCK_RECORD
  5
5F
330
1
100
AcDbSymbolTableRecord
100
AcDbBlockTableRecord
  2
AI9-BLK6
340
0
102
{BLKREFS
331
60
102
}
  0
BLOCK_RECORD
  5
C8
330
1
100
AcDbSymbolTableRecord
100
AcDbBlockTableRecord
  2
AI9-BLK7
340
0
102
{BLKREFS
331
C9
102
}
  0
BLOCK_RECORD
  5
D2
330
1
100
AcDbSymbolTableRecord
100
AcDbBlockTableRecord
  2
AI9-BLK8
340
0
102
{BLKREFS
331
D3
102
}
  0
ENDTAB
  0
ENDSEC
  0
SECTION
  2
BLOCKS
  0
BLOCK
  5
D
330
A
100
AcDbEntity
  8
0
100
AcDbBlockBegin
  2
*MODEL_SPACE
 70
     0
 10
0.0
 20
0.0
 30
0.0
  3
*MODEL_SPACE
  1

  4

  0
ENDBLK
  5
E
330
A
100
AcDbEntity
  8
0
100
AcDbBlockEnd
  0
BLOCK
  5
F
330
B
100
AcDbEntity
 67
     1
  8
0
100
AcDbBlockBegin
  2
*PAPER_SPACE
 70
     0
 10
0.0
 20
0.0
 30
0.0
  3
*PAPER_SPACE
  1

  4

  0
ENDBLK
  5
10
330
B
100
AcDbEntity
 67
     1
  8
0
100
AcDbBlockEnd
  0
BLOCK
  5
24
330
22
100
AcDbEntity
  8
NAILS
 62
     7
100
AcDbBlockBegin
  2
AI9-BLK1
 70
     0
 10
0.0
 20
0.0
 30
0.0
  3
AI9-BLK1
  1

  4

  0
HATCH
  5
2F
330
22
100
AcDbEntity
  8
NAILS
 62
     7
100
AcDbHatch
 10
0.0
 20
0.0
 30
0.0
210
0.0
220
0.0
230
1.0
  2
SOLID
 70
     1
 71
     0
 91
        3
 92
       16
 93
        1
 72
     4
 94
        3
 73
     0
 74
     0
 95
       20
 96
       16
 40
0.0
 40
0.0
 40
0.0
 40
0.0
 40
1.0
 40
1.0
 40
1.0
 40
2.0
 40
2.0
 40
2.0
 40
3.0
 40
3.0
 40
3.0
 40
4.0
 40
4.0
 40
4.0
 40
5.0
 40
5.0
 40
5.0
 40
5.0
 10
-8.956559244791666
 20
1.208367241753472
 10
-8.416712782118054
 20
1.202338324652778
 10
-8.218964301215276
 20
1.466232638888889
 10
-8.218964301215276
 20
2.053965928819444
 10
-8.212763129340278
 20
2.941594780815972
 10
-8.788783094618054
 20
2.881650119357639
 10
-9.298312717013888
 20
2.881650119357639
 10
-9.298312717013888
 20
2.881650119357639
 10
-9.742041015624999
 20
2.881650119357639
 10
-9.742041015624999
 20
2.881650119357639
 10
-9.742041015624999
 20
2.881650119357639
 10
-9.742041015624999
 20
1.208367241753472
 10
-9.742041015624999
 20
1.208367241753472
 10
-9.742041015624999
 20
1.208367241753472
 10
-8.956559244791666
 20
1.208367241753472
 10
-8.956559244791666
 20
1.208367241753472
 97
        0
 92
       16
 93
        1
 72
     4
 94
        3
 73
     0
 74
     0
 95
       20
 96
       16
 40
0.0
 40
0.0
 40
0.0
 40
0.0
 40
1.0
 40
1.0
 40
1.0
 40
2.0
 40
2.0
 40
2.0
 40
3.0
 40
3.0
 40
3.0
 40
4.0
 40
4.0
 40
4.0
 40
5.0
 40
5.0
 40
5.0
 40
5.0
 10
-9.742041015624999
 20
3.331407335069444
 10
-9.742041015624999
 20
3.331407335069444
 10
-9.298312717013888
 20
3.331407335069444
 10
-9.298312717013888
 20
3.331407335069444
 10
-8.692664930555555
 20
3.301435004340278
 10
-8.338853624131943
 20
3.409438747829861
 10
-8.344710286458332
 20
4.099146864149305
 10
-8.344710286458332
 20
4.656907823350694
 10
-8.54865993923611
 20
4.818827311197916
 10
-9.304513888888888
 20
4.806769476996528
 10
-9.304513888888888
 20
4.806769476996528
 10
-9.742041015624999
 20
4.806769476996528
 10
-9.742041015624999
 20
4.806769476996528
 10
-9.742041015624999
 20
4.806769476996528
 10
-9.742041015624999
 20
3.331407335069444
 10
-9.742041015624999
 20
3.331407335069444
 97
        0
 92
        1
 93
        1
 72
     4
 94
        3
 73
     0
 74
     0
 95
       29
 96
       25
 40
0.0
 40
0.0
 40
0.0
 40
0.0
 40
1.0
 40
1.0
 40
1.0
 40
2.0
 40
2.0
 40
2.0
 40
3.0
 40
3.0
 40
3.0
 40
4.0
 40
4.0
 40
4.0
 40
5.0
 40
5.0
 40
5.0
 40
6.0
 40
6.0
 40
6.0
 40
7.0
 40
7.0
 40
7.0
 40
8.0
 40
8.0
 40
8.0
 40
8.0
 10
-10.23985731336805
 20
0.7586100260416666
 10
-10.23985731336805
 20
0.7586100260416666
 10
-10.23985731336805
 20
5.256526692708333
 10
-10.23985731336805
 20
5.256526692708333
 10
-10.23985731336805
 20
5.256526692708333
 10
-8.956559244791666
 20
5.256526692708333
 10
-8.956559244791666
 20
5.256526692708333
 10
-8.140760633680555
 20
5.280642361111111
 10
-7.8351806640625
 20
4.812798394097221
 10
-7.811064995659722
 20
4.141004774305555
 10
-7.793150499131944
 20
3.643360731336805
 10
-7.955069986979166
 20
3.331407335069444
 10
-8.482858615451388
 20
3.151573350694444
 10
-8.482858615451388
 20
3.151573350694444
 10
-8.482858615451388
 20
3.139515516493055
 10
-8.482858615451388
 20
3.139515516493055
 10
-7.888924153645832
 20
3.067513020833333
 10
-7.709090169270833
 20
2.635842556423611
 10
-7.703233506944444
 20
2.083938259548611
 10
-7.697032335069443
 20
1.190452745225694
 10
-8.188991970486111
 20
0.7226087782118055
 10
-9.052677408854166
 20
0.7586100260416666
 10
-9.052677408854166
 20
0.7586100260416666
 10
-10.23985731336805
 20
0.7586100260416666
 10
-10.23985731336805
 20
0.7586100260416666
 97
        0
 75
     0
 76
     1
 98
        1
 10
0.0
 20
0.0
  0
HATCH
  5
2E
330
22
100
AcDbEntity
  8
NAILS
 62
     7
100
AcDbHatch
 10
0.0
 20
0.0
 30
0.0
210
0.0
220
0.0
230
1.0
  2
SOLID
 70
     1
 71
     0
 91
        2
 92
       16
 93
        1
 72
     4
 94
        3
 73
     0
 74
     0
 95
       17
 96
       13
 40
0.0
 40
0.0
 40
0.0
 40
0.0
 40
1.0
 40
1.0
 40
1.0
 40
2.0
 40
2.0
 40
2.0
 40
3.0
 40
3.0
 40
3.0
 40
4.0
 40
4.0
 40
4.0
 40
4.0
 10
-5.464954969618055
 20
4.896686469184028
 10
-5.464954969618055
 20
4.896686469184028
 10
-5.477012803819444
 20
4.896686469184028
 10
-5.477012803819444
 20
4.896686469184028
 10
-5.477012803819444
 20
4.896686469184028
 10
-6.070947265625
 20
2.503895399305555
 10
-6.070947265625
 20
2.503895399305555
 10
-6.070947265625
 20
2.503895399305555
 10
-4.8834228515625
 20
2.503895399305555
 10
-4.8834228515625
 20
2.503895399305555
 10
-4.8834228515625
 20
2.503895399305555
 10
-5.464954969618055
 20
4.896686469184028
 10
-5.464954969618055
 20
4.896686469184028
 97
        0
 92
        1
 93
        1
 72
     4
 94
        3
 73
     0
 74
     0
 95
       29
 96
       25
 40
0.0
 40
0.0
 40
0.0
 40
0.0
 40
1.0
 40
1.0
 40
1.0
 40
2.0
 40
2.0
 40
2.0
 40
3.0
 40
3.0
 40
3.0
 40
4.0
 40
4.0
 40
4.0
 40
5.0
 40
5.0
 40
5.0
 40
6.0
 40
6.0
 40
6.0
 40
7.0
 40
7.0
 40
7.0
 40
8.0
 40
8.0
 40
8.0
 40
8.0
 10
-5.789138454861111
 20
5.256526692708333
 10
-5.789138454861111
 20
5.256526692708333
 10
-5.129402669270833
 20
5.256526692708333
 10
-5.129402669270833
 20
5.256526692708333
 10
-5.129402669270833
 20
5.256526692708333
 10
-3.863674587673611
 20
0.7586100260416666
 10
-3.863674587673611
 20
0.7586100260416666
 10
-3.863674587673611
 20
0.7586100260416666
 10
-4.41557888454861
 20
0.7586100260416666
 10
-4.41557888454861
 20
0.7586100260416666
 10
-4.41557888454861
 20
0.7586100260416666
 10
-4.769390190972222
 20
2.053965928819444
 10
-4.769390190972222
 20
2.053965928819444
 10
-4.769390190972222
 20
2.053965928819444
 10
-6.190836588541666
 20
2.053965928819444
 10
-6.190836588541666
 20
2.053965928819444
 10
-6.190836588541666
 20
2.053965928819444
 10
-6.5205322265625
 20
0.7586100260416666
 10
-6.5205322265625
 20
0.7586100260416666
 10
-6.5205322265625
 20
0.7586100260416666
 10
-7.072436523437499
 20
0.7586100260416666
 10
-7.072436523437499
 20
0.7586100260416666
 10
-7.072436523437499
 20
0.7586100260416666
 10
-5.789138454861111
 20
5.256526692708333
 10
-5.789138454861111
 20
5.256526692708333
 97
        0
 75
     0
 76
     1
 98
        1
 10
0.0
 20
0.0
  0
HATCH
  5
2D
330
22
100
AcDbEntity
  8
NAILS
 62
     7
100
AcDbHatch
 10
0.0
 20
0.0
 30
0.0
210
0.0
220
0.0
230
1.0
  2
SOLID
 70
     1
 71
     0
 91
        1
 92
        1
 93
        1
 72
     4
 94
        3
 73
     0
 74
     0
 95
       44
 96
       40
 40
0.0
 40
0.0
 40
0.0
 40
0.0
 40
1.0
 40
1.0
 40
1.0
 40
2.0
 40
2.0
 40
2.0
 40
3.0
 40
3.0
 40
3.0
 40
4.0
 40
4.0
 40
4.0
 40
5.0
 40
5.0
 40
5.0
 40
6.0
 40
6.0
 40
6.0
 40
7.0
 40
7.0
 40
7.0
 40
8.0
 40
8.0
 40
8.0
 40
9.0
 40
9.0
 40
9.0
 40
10.0
 40
10.0
 40
10.0
 40
11.0
 40
11.0
 40
11.0
 40
12.0
 40
12.0
 40
12.0
 40
13.0
 40
13.0
 40
13.0
 40
13.0
 10
-1.038007269965278
 20
3.907255045572916
 10
-1.050065104166667
 20
4.440900336371527
 10
-1.224042426215278
 20
4.896686469184028
 10
-1.847604709201389
 20
4.896686469184028
 10
-2.711290147569444
 20
4.896686469184028
 10
-2.723347981770833
 20
3.667304144965277
 10
-2.723347981770833
 20
3.073541937934027
 10
-2.747463650173611
 20
2.461865234375
 10
-2.759176974826389
 20
1.100535753038194
 10
-1.847604709201389
 20
1.100535753038194
 10
-1.254014756944444
 20
1.100535753038194
 10
-1.127924262152778
 20
1.586294216579861
 10
-1.067979600694444
 20
2.078081597222222
 10
-1.055921766493055
 20
2.180056423611111
 10
-1.050065104166667
 20
2.281858995225694
 10
-1.038007269965278
 20
2.383833821614583
 10
-1.038007269965278
 20
2.383833821614583
 10
-0.5401909722222221
 20
2.383833821614583
 10
-0.5401909722222221
 20
2.383833821614583
 10
-0.5522488064236111
 20
2.293916829427083
 10
-0.5522488064236111
 20
2.197970920138889
 10
-0.5643066406249999
 20
2.108053927951389
 10
-0.5942789713541666
 20
1.742184787326389
 10
-0.6121934678819444
 20
1.466232638888889
 10
-0.828200954861111
 20
1.154451497395833
 10
-1.062122938368056
 20
0.8306125217013888
 10
-1.373904079861111
 20
0.6506062825520833
 10
-1.805919053819444
 20
0.6506062825520833
 10
-3.191191948784722
 20
0.6506062825520833
 10
-3.239078776041666
 20
1.987992350260416
 10
-3.239078776041666
 20
3.061656358506944
 10
-3.239078776041666
 20
4.075203450520833
 10
-3.089217122395833
 20
5.346615939670138
 10
-1.811775716145833
 20
5.346615939670138
 10
-0.9601481119791666
 20
5.346615939670138
 10
-0.5164198133680555
 20
4.710823567708333
 10
-0.5401909722222221
 20
3.907255045572916
 10
-0.5401909722222221
 20
3.907255045572916
 10
-1.038007269965278
 20
3.907255045572916
 10
-1.038007269965278
 20
3.907255045572916
 97
        0
 75
     0
 76
     1
 98
        1
 10
0.0
 20
0.0
  0
HATCH
  5
2C
330
22
100
AcDbEntity
  8
NAILS
 62
     7
100
AcDbHatch
 10
0.0
 20
0.0
 30
0.0
210
0.0
220
0.0
230
1.0
  2
SOLID
 70
     1
 71
     0
 91
        1
 92
        1
 93
        1
 72
     4
 94
        3
 73
     0
 74
     0
 95
       44
 96
       40
 40
0.0
 40
0.0
 40
0.0
 40
0.0
 40
1.0
 40
1.0
 40
1.0
 40
2.0
 40
2.0
 40
2.0
 40
3.0
 40
3.0
 40
3.0
 40
4.0
 40
4.0
 40
4.0
 40
5.0
 40
5.0
 40
5.0
 40
6.0
 40
6.0
 40
6.0
 40
7.0
 40
7.0
 40
7.0
 40
8.0
 40
8.0
 40
8.0
 40
9.0
 40
9.0
 40
9.0
 40
10.0
 40
10.0
 40
10.0
 40
11.0
 40
11.0
 40
11.0
 40
12.0
 40
12.0
 40
12.0
 40
13.0
 40
13.0
 40
13.0
 40
13.0
 10
0.4981608072916666
 20
0.7586100260416666
 10
0.4981608072916666
 20
0.7586100260416666
 10
0.4981608072916666
 20
5.256526692708333
 10
0.4981608072916666
 20
5.256526692708333
 10
0.4981608072916666
 20
5.256526692708333
 10
0.9959771050347221
 20
5.256526692708333
 10
0.9959771050347221
 20
5.256526692708333
 10
0.9959771050347221
 20
5.256526692708333
 10
0.9959771050347221
 20
2.947623697916666
 10
0.9959771050347221
 20
2.947623697916666
 10
0.9959771050347221
 20
2.947623697916666
 10
1.008034939236111
 20
2.947623697916666
 10
1.008034939236111
 20
2.947623697916666
 10
1.008034939236111
 20
2.947623697916666
 10
2.633086480034722
 20
5.256526692708333
 10
2.633086480034722
 20
5.256526692708333
 10
2.633086480034722
 20
5.256526692708333
 10
3.256993272569444
 20
5.256526692708333
 10
3.256993272569444
 20
5.256526692708333
 10
3.256993272569444
 20
5.256526692708333
 10
1.823489040798611
 20
3.3734375
 10
1.823489040798611
 20
3.3734375
 10
1.823489040798611
 20
3.3734375
 10
3.2990234375
 20
0.7586100260416666
 10
3.2990234375
 20
0.7586100260416666
 10
3.2990234375
 20
0.7586100260416666
 10
2.687174479166667
 20
0.7586100260416666
 10
2.687174479166667
 20
0.7586100260416666
 10
2.687174479166667
 20
0.7586100260416666
 10
1.469677734375
 20
2.929709201388889
 10
1.469677734375
 20
2.929709201388889
 10
1.469677734375
 20
2.929709201388889
 10
1.001833767361111
 20
2.317860243055555
 10
1.001833767361111
 20
2.317860243055555
 10
1.001833767361111
 20
2.317860243055555
 10
1.001833767361111
 20
0.7586100260416666
 10
1.001833767361111
 20
0.7586100260416666
 10
1.001833767361111
 20
0.7586100260416666
 10
0.4981608072916666
 20
0.7586100260416666
 10
0.4981608072916666
 20
0.7586100260416666
 97
        0
 75
     0
 76
     1
 98
        1
 10
0.0
 20
0.0
  0
HATCH
  5
2B
330
22
100
AcDbEntity
  8
NAILS
 62
     7
100
AcDbHatch
 10
0.0
 20
0.0
 30
0.0
210
0.0
220
0.0
230
1.0
  2
SOLID
 70
     1
 71
     0
 91
        1
 92
        1
 93
        1
 72
     4
 94
        3
 73
     0
 74
     0
 95
       41
 96
       37
 40
0.0
 40
0.0
 40
0.0
 40
0.0
 40
1.0
 40
1.0
 40
1.0
 40
2.0
 40
2.0
 40
2.0
 40
3.0
 40
3.0
 40
3.0
 40
4.0
 40
4.0
 40
4.0
 40
5.0
 40
5.0
 40
5.0
 40
6.0
 40
6.0
 40
6.0
 40
7.0
 40
7.0
 40
7.0
 40
8.0
 40
8.0
 40
8.0
 40
9.0
 40
9.0
 40
9.0
 40
10.0
 40
10.0
 40
10.0
 40
11.0
 40
11.0
 40
11.0
 40
12.0
 40
12.0
 40
12.0
 40
12.0
 10
4.049709743923611
 20
0.7586100260416666
 10
4.049709743923611
 20
0.7586100260416666
 10
4.049709743923611
 20
5.256526692708333
 10
4.049709743923611
 20
5.256526692708333
 10
4.049709743923611
 20
5.256526692708333
 10
6.298668077256944
 20
5.256526692708333
 10
6.298668077256944
 20
5.256526692708333
 10
6.298668077256944
 20
5.256526692708333
 10
6.298668077256944
 20
4.806769476996528
 10
6.298668077256944
 20
4.806769476996528
 10
6.298668077256944
 20
4.806769476996528
 10
4.547526041666666
 20
4.806769476996528
 10
4.547526041666666
 20
4.806769476996528
 10
4.547526041666666
 20
4.806769476996528
 10
4.547526041666666
 20
3.319521755642361
 10
4.547526041666666
 20
3.319521755642361
 10
4.547526041666666
 20
3.319521755642361
 10
6.190492078993055
 20
3.319521755642361
 10
6.190492078993055
 20
3.319521755642361
 10
6.190492078993055
 20
3.319521755642361
 10
6.190492078993055
 20
2.86959228515625
 10
6.190492078993055
 20
2.86959228515625
 10
6.190492078993055
 20
2.86959228515625
 10
4.547526041666666
 20
2.86959228515625
 10
4.547526041666666
 20
2.86959228515625
 10
4.547526041666666
 20
2.86959228515625
 10
4.547526041666666
 20
1.208367241753472
 10
4.547526041666666
 20
1.208367241753472
 10
4.547526041666666
 20
1.208367241753472
 10
6.310725911458333
 20
1.208367241753472
 10
6.310725911458333
 20
1.208367241753472
 10
6.310725911458333
 20
1.208367241753472
 10
6.310725911458333
 20
0.7586100260416666
 10
6.310725911458333
 20
0.7586100260416666
 10
6.310725911458333
 20
0.7586100260416666
 10
4.049709743923611
 20
0.7586100260416666
 10
4.049709743923611
 20
0.7586100260416666
 97
        0
 75
     0
 76
     1
 98
        1
 10
0.0
 20
0.0
  0
HATCH
  5
2A
330
22
100
AcDbEntity
  8
NAILS
 62
     7
100
AcDbHatch
 10
0.0
 20
0.0
 30
0.0
210
0.0
220
0.0
230
1.0
  2
SOLID
 70
     1
 71
     0
 91
        2
 92
       16
 93
        1
 72
     4
 94
        3
 73
     0
 74
     0
 95
       20
 96
       16
 40
0.0
 40
0.0
 40
0.0
 40
0.0
 40
1.0
 40
1.0
 40
1.0
 40
2.0
 40
2.0
 40
2.0
 40
3.0
 40
3.0
 40
3.0
 40
4.0
 40
4.0
 40
4.0
 40
5.0
 40
5.0
 40
5.0
 40
5.0
 10
7.864808485243055
 20
3.187574598524305
 10
7.864808485243055
 20
3.187574598524305
 10
8.650634765625
 20
3.187574598524305
 10
8.650634765625
 20
3.187574598524305
 10
8.884556749131944
 20
3.193431260850694
 10
9.532234700520833
 20
3.229432508680555
 10
9.520176866319444
 20
4.015086534288194
 10
9.508119032118055
 20
4.78885498046875
 10
8.902471245659722
 20
4.806769476996528
 10
8.566574435763888
 20
4.806769476996528
 10
8.566574435763888
 20
4.806769476996528
 10
7.864808485243055
 20
4.806769476996528
 10
7.864808485243055
 20
4.806769476996528
 10
7.864808485243055
 20
4.806769476996528
 10
7.864808485243055
 20
3.187574598524305
 10
7.864808485243055
 20
3.187574598524305
 97
        0
 92
        1
 93
        1
 72
     4
 94
        3
 73
     0
 74
     0
 95
       50
 96
       46
 40
0.0
 40
0.0
 40
0.0
 40
0.0
 40
1.0
 40
1.0
 40
1.0
 40
2.0
 40
2.0
 40
2.0
 40
3.0
 40
3.0
 40
3.0
 40
4.0
 40
4.0
 40
4.0
 40
5.0
 40
5.0
 40
5.0
 40
6.0
 40
6.0
 40
6.0
 40
7.0
 40
7.0
 40
7.0
 40
8.0
 40
8.0
 40
8.0
 40
9.0
 40
9.0
 40
9.0
 40
10.0
 40
10.0
 40
10.0
 40
11.0
 40
11.0
 40
11.0
 40
12.0
 40
12.0
 40
12.0
 40
13.0
 40
13.0
 40
13.0
 40
14.0
 40
14.0
 40
14.0
 40
15.0
 40
15.0
 40
15.0
 40
15.0
 10
7.864808485243055
 20
0.7586100260416666
 10
7.864808485243055
 20
0.7586100260416666
 10
7.366992187499999
 20
0.7586100260416666
 10
7.366992187499999
 20
0.7586100260416666
 10
7.366992187499999
 20
0.7586100260416666
 10
7.366992187499999
 20
5.256526692708333
 10
7.366992187499999
 20
5.256526692708333
 10
7.366992187499999
 20
5.256526692708333
 10
8.524544270833333
 20
5.256526692708333
 10
8.524544270833333
 20
5.256526692708333
 10
9.4660888671875
 20
5.256526692708333
 10
10.06587999131944
 20
5.010719129774305
 10
10.03590766059028
 20
3.973228624131944
 10
10.0179931640625
 20
3.445439995659722
 10
9.694154188368055
 20
3.067513020833333
 10
9.172222222222221
 20
2.995682779947916
 10
9.172222222222221
 20
2.995682779947916
 10
9.172222222222221
 20
2.983624945746528
 10
9.172222222222221
 20
2.983624945746528
 10
9.754098849826388
 20
2.929709201388889
 10
9.898103841145833
 20
2.743674045138889
 10
9.970106336805555
 20
2.14405517578125
 10
9.988020833333332
 20
1.808158365885417
 10
10.0179931640625
 20
1.478290473090278
 10
10.06587999131944
 20
1.142393663194444
 10
10.08379448784722
 20
1.058505588107639
 10
10.11996799045139
 20
0.8605848524305555
 10
10.23985731336805
 20
0.8605848524305555
 10
10.23985731336805
 20
0.8605848524305555
 10
10.23985731336805
 20
0.7586100260416666
 10
10.23985731336805
 20
0.7586100260416666
 10
10.23985731336805
 20
0.7586100260416666
 10
9.657980685763889
 20
0.7586100260416666
 10
9.657980685763889
 20
0.7586100260416666
 10
9.55014919704861
 20
1.04644775390625
 10
9.502262369791666
 20
1.604208713107639
 10
9.502262369791666
 20
1.904104275173611
 10
9.502262369791666
 20
2.353861490885417
 10
9.322428385416666
 20
2.737645128038194
 10
8.73469509548611
 20
2.737645128038194
 10
8.73469509548611
 20
2.737645128038194
 10
7.864808485243055
 20
2.737645128038194
 10
7.864808485243055
 20
2.737645128038194
 10
7.864808485243055
 20
2.737645128038194
 10
7.864808485243055
 20
0.7586100260416666
 10
7.864808485243055
 20
0.7586100260416666
 97
        0
 75
     0
 76
     1
 98
        1
 10
0.0
 20
0.0
  0
HATCH
  5
29
330
22
100
AcDbEntity
  8
NAILS
 62
     7
100
AcDbHatch
 10
0.0
 20
0.0
 30
0.0
210
0.0
220
0.0
230
1.0
  2
SOLID
 70
     1
 71
     0
 91
        3
 92
       16
 93
        1
 72
     4
 94
        3
 73
     0
 74
     0
 95
       20
 96
       16
 40
0.0
 40
0.0
 40
0.0
 40
0.0
 40
1.0
 40
1.0
 40
1.0
 40
2.0
 40
2.0
 40
2.0
 40
3.0
 40
3.0
 40
3.0
 40
4.0
 40
4.0
 40
4.0
 40
5.0
 40
5.0
 40
5.0
 40
5.0
 10
-8.956559244791666
 20
-4.78885498046875
 10
-8.416712782118054
 20
-4.794883897569444
 10
-8.218964301215276
 20
-4.530989583333333
 10
-8.218964301215276
 20
-3.943256293402778
 10
-8.212763129340278
 20
-3.05562744140625
 10
-8.788783094618054
 20
-3.115572102864583
 10
-9.298312717013888
 20
-3.115572102864583
 10
-9.298312717013888
 20
-3.115572102864583
 10
-9.742041015624999
 20
-3.115572102864583
 10
-9.742041015624999
 20
-3.115572102864583
 10
-9.742041015624999
 20
-3.115572102864583
 10
-9.742041015624999
 20
-4.78885498046875
 10
-9.742041015624999
 20
-4.78885498046875
 10
-9.742041015624999
 20
-4.78885498046875
 10
-8.956559244791666
 20
-4.78885498046875
 10
-8.956559244791666
 20
-4.78885498046875
 97
        0
 92
       16
 93
        1
 72
     4
 94
        3
 73
     0
 74
     0
 95
       20
 96
       16
 40
0.0
 40
0.0
 40
0.0
 40
0.0
 40
1.0
 40
1.0
 40
1.0
 40
2.0
 40
2.0
 40
2.0
 40
3.0
 40
3.0
 40
3.0
 40
4.0
 40
4.0
 40
4.0
 40
5.0
 40
5.0
 40
5.0
 40
5.0
 10
-9.742041015624999
 20
-2.665814887152778
 10
-9.742041015624999
 20
-2.665814887152778
 10
-9.298312717013888
 20
-2.665814887152778
 10
-9.298312717013888
 20
-2.665814887152778
 10
-8.692664930555555
 20
-2.695787217881944
 10
-8.338853624131943
 20
-2.587783474392361
 10
-8.344710286458332
 20
-1.898075358072916
 10
-8.344710286458332
 20
-1.340314398871528
 10
-8.54865993923611
 20
-1.178394911024306
 10
-9.304513888888888
 20
-1.190452745225694
 10
-9.304513888888888
 20
-1.190452745225694
 10
-9.742041015624999
 20
-1.190452745225694
 10
-9.742041015624999
 20
-1.190452745225694
 10
-9.742041015624999
 20
-1.190452745225694
 10
-9.742041015624999
 20
-2.665814887152778
 10
-9.742041015624999
 20
-2.665814887152778
 97
        0
 92
        1
 93
        1
 72
     4
 94
        3
 73
     0
 74
     0
 95
       29
 96
       25
 40
0.0
 40
0.0
 40
0.0
 40
0.0
 40
1.0
 40
1.0
 40
1.0
 40
2.0
 40
2.0
 40
2.0
 40
3.0
 40
3.0
 40
3.0
 40
4.0
 40
4.0
 40
4.0
 40
5.0
 40
5.0
 40
5.0
 40
6.0
 40
6.0
 40
6.0
 40
7.0
 40
7.0
 40
7.0
 40
8.0
 40
8.0
 40
8.0
 40
8.0
 10
-10.23985731336805
 20
-5.238612196180555
 10
-10.23985731336805
 20
-5.238612196180555
 10
-10.23985731336805
 20
-0.7406955295138888
 10
-10.23985731336805
 20
-0.7406955295138888
 10
-10.23985731336805
 20
-0.7406955295138888
 10
-8.956559244791666
 20
-0.7406955295138888
 10
-8.956559244791666
 20
-0.7406955295138888
 10
-8.140760633680555
 20
-0.7165798611111111
 10
-7.8351806640625
 20
-1.184423828125
 10
-7.811064995659722
 20
-1.856217447916666
 10
-7.793150499131944
 20
-2.353861490885417
 10
-7.955069986979166
 20
-2.665814887152778
 10
-8.482858615451388
 20
-2.845648871527778
 10
-8.482858615451388
 20
-2.845648871527778
 10
-8.482858615451388
 20
-2.857706705729167
 10
-8.482858615451388
 20
-2.857706705729167
 10
-7.888924153645832
 20
-2.929709201388889
 10
-7.709090169270833
 20
-3.361379665798611
 10
-7.703233506944444
 20
-3.913283962673611
 10
-7.697032335069443
 20
-4.806769476996528
 10
-8.188991970486111
 20
-5.274613444010416
 10
-9.052677408854166
 20
-5.238612196180555
 10
-9.052677408854166
 20
-5.238612196180555
 10
-10.23985731336805
 20
-5.238612196180555
 10
-10.23985731336805
 20
-5.238612196180555
 97
        0
 75
     0
 76
     1
 98
        1
 10
0.0
 20
0.0
  0
HATCH
  5
28
330
22
100
AcDbEntity
  8
NAILS
 62
     7
100
AcDbHatch
 10
0.0
 20
0.0
 30
0.0
210
0.0
220
0.0
230
1.0
  2
SOLID
 70
     1
 71
     0
 91
        1
 92
        1
 93
        1
 72
     4
 94
        3
 73
     0
 74
     0
 95
       23
 96
       19
 40
0.0
 40
0.0
 40
0.0
 40
0.0
 40
1.0
 40
1.0
 40
1.0
 40
2.0
 40
2.0
 40
2.0
 40
3.0
 40
3.0
 40
3.0
 40
4.0
 40
4.0
 40
4.0
 40
5.0
 40
5.0
 40
5.0
 40
6.0
 40
6.0
 40
6.0
 40
6.0
 10
-6.640421549479166
 20
-5.238612196180555
 10
-6.640421549479166
 20
-5.238612196180555
 10
-6.640421549479166
 20
-0.7406955295138888
 10
-6.640421549479166
 20
-0.7406955295138888
 10
-6.640421549479166
 20
-0.7406955295138888
 10
-6.142949761284721
 20
-0.7406955295138888
 10
-6.142949761284721
 20
-0.7406955295138888
 10
-6.142949761284721
 20
-0.7406955295138888
 10
-6.142949761284721
 20
-4.78885498046875
 10
-6.142949761284721
 20
-4.78885498046875
 10
-6.142949761284721
 20
-4.78885498046875
 10
-4.307747395833333
 20
-4.78885498046875
 10
-4.307747395833333
 20
-4.78885498046875
 10
-4.307747395833333
 20
-4.78885498046875
 10
-4.307747395833333
 20
-5.238612196180555
 10
-4.307747395833333
 20
-5.238612196180555
 10
-4.307747395833333
 20
-5.238612196180555
 10
-6.640421549479166
 20
-5.238612196180555
 10
-6.640421549479166
 20
-5.238612196180555
 97
        0
 75
     0
 76
     1
 98
        1
 10
0.0
 20
0.0
  0
HATCH
  5
27
330
22
100
AcDbEntity
  8
NAILS
 62
     7
100
AcDbHatch
 10
0.0
 20
0.0
 30
0.0
210
0.0
220
0.0
230
1.0
  2
SOLID
 70
     1
 71
     0
 91
        2
 92
       16
 93
        1
 72
     4
 94
        3
 73
     0
 74
     0
 95
       17
 96
       13
 40
0.0
 40
0.0
 40
0.0
 40
0.0
 40
1.0
 40
1.0
 40
1.0
 40
2.0
 40
2.0
 40
2.0
 40
3.0
 40
3.0
 40
3.0
 40
4.0
 40
4.0
 40
4.0
 40
4.0
 10
-2.069468858506944
 20
-1.100535753038194
 10
-2.837380642361111
 20
-1.100535753038194
 10
-3.0292724609375
 20
-1.904104275173611
 10
-3.0230712890625
 20
-2.905593532986111
 10
-3.017214626736111
 20
-4.207150607638889
 10
-2.885267469618055
 20
-4.896686469184028
 10
-2.057755533854166
 20
-4.896686469184028
 10
-1.229899088541667
 20
-4.896686469184028
 10
-1.097951931423611
 20
-4.207150607638889
 10
-1.092095269097222
 20
-2.905593532986111
 10
-1.086238606770833
 20
-1.904104275173611
 10
-1.278130425347222
 20
-1.100535753038194
 10
-2.069468858506944
 20
-1.100535753038194
 97
        0
 92
        1
 93
        1
 72
     4
 94
        3
 73
     0
 74
     0
 95
       17
 96
       13
 40
0.0
 40
0.0
 40
0.0
 40
0.0
 40
1.0
 40
1.0
 40
1.0
 40
2.0
 40
2.0
 40
2.0
 40
3.0
 40
3.0
 40
3.0
 40
4.0
 40
4.0
 40
4.0
 40
4.0
 10
-2.045697699652778
 20
-0.6506062825520833
 10
-0.7320827907986111
 20
-0.6506062825520833
 10
-0.5701633029513888
 20
-1.862074110243055
 10
-0.5763644748263889
 20
-2.893707953559027
 10
-0.5822211371527777
 20
-4.141177029079861
 10
-0.7441406249999999
 20
-5.346615939670138
 10
-2.057755533854166
 20
-5.346615939670138
 10
-3.371025933159722
 20
-5.346615939670138
 10
-3.527088758680555
 20
-4.141177029079861
 10
-3.538802083333333
 20
-2.893707953559027
 10
-3.538802083333333
 20
-1.862074110243055
 10
-3.383083767361111
 20
-0.6506062825520833
 10
-2.045697699652778
 20
-0.6506062825520833
 97
        0
 75
     0
 76
     1
 98
        1
 10
0.0
 20
0.0
  0
HATCH
  5
26
330
22
100
AcDbEntity
  8
NAILS
 62
     7
100
AcDbHatch
 10
0.0
 20
0.0
 30
0.0
210
0.0
220
0.0
230
1.0
  2
SOLID
 70
     1
 71
     0
 91
        1
 92
        1
 93
        1
 72
     4
 94
        3
 73
     0
 74
     0
 95
       44
 96
       40
 40
0.0
 40
0.0
 40
0.0
 40
0.0
 40
1.0
 40
1.0
 40
1.0
 40
2.0
 40
2.0
 40
2.0
 40
3.0
 40
3.0
 40
3.0
 40
4.0
 40
4.0
 40
4.0
 40
5.0
 40
5.0
 40
5.0
 40
6.0
 40
6.0
 40
6.0
 40
7.0
 40
7.0
 40
7.0
 40
8.0
 40
8.0
 40
8.0
 40
9.0
 40
9.0
 40
9.0
 40
10.0
 40
10.0
 40
10.0
 40
11.0
 40
11.0
 40
11.0
 40
12.0
 40
12.0
 40
12.0
 40
13.0
 40
13.0
 40
13.0
 40
13.0
 10
2.537312825520833
 20
-2.089967176649306
 10
2.525254991319444
 20
-1.556321885850694
 10
2.351277669270833
 20
-1.100535753038194
 10
1.727715386284722
 20
-1.100535753038194
 10
0.8640299479166665
 20
-1.100535753038194
 10
0.8519721137152777
 20
-2.329918077256944
 10
0.8519721137152777
 20
-2.923680284288194
 10
0.8278564453124999
 20
-3.535356987847222
 10
0.8161431206597222
 20
-4.896686469184028
 10
1.727715386284722
 20
-4.896686469184028
 10
2.321305338541666
 20
-4.896686469184028
 10
2.447395833333333
 20
-4.410928005642361
 10
2.507340494791666
 20
-3.919140625
 10
2.519398328993055
 20
-3.817165798611111
 10
2.525254991319444
 20
-3.715363226996527
 10
2.537312825520833
 20
-3.613388400607639
 10
2.537312825520833
 20
-3.613388400607639
 10
3.035129123263888
 20
-3.613388400607639
 10
3.035129123263888
 20
-3.613388400607639
 10
3.0230712890625
 20
-3.703305392795139
 10
3.0230712890625
 20
-3.799251302083333
 10
3.011013454861111
 20
-3.889168294270833
 10
2.981041124131944
 20
-4.255037434895833
 10
2.963126627604166
 20
-4.530989583333333
 10
2.747119140625
 20
-4.842770724826388
 10
2.513197157118055
 20
-5.166609700520833
 10
2.201416015625
 20
-5.346615939670138
 10
1.769745551215278
 20
-5.346615939670138
 10
0.3841281467013888
 20
-5.346615939670138
 10
0.3362413194444444
 20
-4.009229871961805
 10
0.3362413194444444
 20
-2.935565863715278
 10
0.3362413194444444
 20
-1.922018771701389
 10
0.4861029730902777
 20
-0.6506062825520833
 10
1.763544379340278
 20
-0.6506062825520833
 10
2.615171983506944
 20
-0.6506062825520833
 10
3.058900282118055
 20
-1.286398654513889
 10
3.035129123263888
 20
-2.089967176649306
 10
3.035129123263888
 20
-2.089967176649306
 10
2.537312825520833
 20
-2.089967176649306
 10
2.537312825520833
 20
-2.089967176649306
 97
        0
 75
     0
 76
     1
 98
        1
 10
0.0
 20
0.0
  0
HATCH
  5
25
330
22
100
AcDbEntity
  8
NAILS
 62
     7
100
AcDbHatch
 10
0.0
 20
0.0
 30
0.0
210
0.0
220
0.0
230
1.0
  2
SOLID
 70
     1
 71
     0
 91
        1
 92
        1
 93
        1
 72
     4
 94
        3
 73
     0
 74
     0
 95
       44
 96
       40
 40
0.0
 40
0.0
 40
0.0
 40
0.0
 40
1.0
 40
1.0
 40
1.0
 40
2.0
 40
2.0
 40
2.0
 40
3.0
 40
3.0
 40
3.0
 40
4.0
 40
4.0
 40
4.0
 40
5.0
 40
5.0
 40
5.0
 40
6.0
 40
6.0
 40
6.0
 40
7.0
 40
7.0
 40
7.0
 40
8.0
 40
8.0
 40
8.0
 40
9.0
 40
9.0
 40
9.0
 40
10.0
 40
10.0
 40
10.0
 40
11.0
 40
11.0
 40
11.0
 40
12.0
 40
12.0
 40
12.0
 40
13.0
 40
13.0
 40
13.0
 40
13.0
 10
4.073480902777777
 20
-5.238612196180555
 10
4.073480902777777
 20
-5.238612196180555
 10
4.073480902777777
 20
-0.7406955295138888
 10
4.073480902777777
 20
-0.7406955295138888
 10
4.073480902777777
 20
-0.7406955295138888
 10
4.571297200520833
 20
-0.7406955295138888
 10
4.571297200520833
 20
-0.7406955295138888
 10
4.571297200520833
 20
-0.7406955295138888
 10
4.571297200520833
 20
-3.049598524305555
 10
4.571297200520833
 20
-3.049598524305555
 10
4.571297200520833
 20
-3.049598524305555
 10
4.583355034722222
 20
-3.049598524305555
 10
4.583355034722222
 20
-3.049598524305555
 10
4.583355034722222
 20
-3.049598524305555
 10
6.208751085069444
 20
-0.7406955295138888
 10
6.208751085069444
 20
-0.7406955295138888
 10
6.208751085069444
 20
-0.7406955295138888
 10
6.832313368055555
 20
-0.7406955295138888
 10
6.832313368055555
 20
-0.7406955295138888
 10
6.832313368055555
 20
-0.7406955295138888
 10
5.398809136284722
 20
-2.623784722222222
 10
5.398809136284722
 20
-2.623784722222222
 10
5.398809136284722
 20
-2.623784722222222
 10
6.874343532986111
 20
-5.238612196180555
 10
6.874343532986111
 20
-5.238612196180555
 10
6.874343532986111
 20
-5.238612196180555
 10
6.262494574652777
 20
-5.238612196180555
 10
6.262494574652777
 20
-5.238612196180555
 10
6.262494574652777
 20
-5.238612196180555
 10
5.044997829861111
 20
-3.067513020833333
 10
5.044997829861111
 20
-3.067513020833333
 10
5.044997829861111
 20
-3.067513020833333
 10
4.577498372395833
 20
-3.679361979166667
 10
4.577498372395833
 20
-3.679361979166667
 10
4.577498372395833
 20
-3.679361979166667
 10
4.577498372395833
 20
-5.238612196180555
 10
4.577498372395833
 20
-5.238612196180555
 10
4.577498372395833
 20
-5.238612196180555
 10
4.073480902777777
 20
-5.238612196180555
 10
4.073480902777777
 20
-5.238612196180555
 97
        0
 75
     0
 76
     1
 98
        1
 10
0.0
 20
0.0
  0
ENDBLK
  5
30
330
22
100
AcDbEntity
  8
NAILS
100
AcDbBlockEnd
  0
BLOCK
  5
33
330
31
100
AcDbEntity
  8
NAILS
 62
     7
100
AcDbBlockBegin
  2
AI9-BLK2
 70
     0
 10
0.0
 20
0.0
 30
0.0
  3
AI9-BLK2
  1

  4

  0
HATCH
  5
45
330
31
100
AcDbEntity
  8
NAILS
 62
     7
100
AcDbHatch
 10
0.0
 20
0.0
 30
0.0
210
0.0
220
0.0
230
1.0
  2
SOLID
 70
     1
 71
     0
 91
        1
 92
        1
 93
        1
 72
     4
 94
        3
 73
     0
 74
     0
 95
       56
 96
       52
 40
0.0
 40
0.0
 40
0.0
 40
0.0
 40
1.0
 40
1.0
 40
1.0
 40
2.0
 40
2.0
 40
2.0
 40
3.0
 40
3.0
 40
3.0
 40
4.0
 40
4.0
 40
4.0
 40
5.0
 40
5.0
 40
5.0
 40
6.0
 40
6.0
 40
6.0
 40
7.0
 40
7.0
 40
7.0
 40
8.0
 40
8.0
 40
8.0
 40
9.0
 40
9.0
 40
9.0
 40
10.0
 40
10.0
 40
10.0
 40
11.0
 40
11.0
 40
11.0
 40
12.0
 40
12.0
 40
12.0
 40
13.0
 40
13.0
 40
13.0
 40
14.0
 40
14.0
 40
14.0
 40
15.0
 40
15.0
 40
15.0
 40
16.0
 40
16.0
 40
16.0
 40
17.0
 40
17.0
 40
17.0
 40
17.0
 10
1.894888644748264
 20
5.627046712239583
 10
2.188583034939236
 20
5.640138075086805
 10
2.281256103515625
 20
5.883534071180555
 10
2.281256103515625
 20
6.097991265190972
 10
2.281256103515625
 20
6.259393988715277
 10
2.236125352647569
 20
6.531901041666666
 10
1.947770860460069
 20
6.531901041666666
 10
1.786368136935764
 20
6.531901041666666
 10
1.733485921223958
 20
6.418040635850694
 10
1.706958685980903
 20
6.30693630642361
 10
1.706958685980903
 20
6.30693630642361
 10
1.582590738932292
 20
5.764506022135416
 10
1.582590738932292
 20
5.764506022135416
 10
1.524540879991319
 20
5.518526204427083
 10
1.376229519314236
 20
5.333352322048611
 10
1.074611409505208
 20
5.333352322048611
 10
0.6248541937934027
 20
5.333352322048611
 10
0.5004862467447916
 20
5.751242404513889
 10
0.5004862467447916
 20
6.076803927951389
 10
0.5004862467447916
 20
6.428720431857638
 10
0.6064229329427083
 20
6.566179741753472
 10
0.6830763075086805
 20
6.650929090711805
 10
0.828631591796875
 20
6.812331814236111
 10
0.9872782389322916
 20
6.844026692708333
 10
1.164700656467014
 20
6.844026692708333
 10
1.164700656467014
 20
6.844026692708333
 10
1.164700656467014
 20
6.603214518229166
 10
1.164700656467014
 20
6.603214518229166
 10
0.8207078721788194
 20
6.603214518229166
 10
0.720111083984375
 20
6.322783745659722
 10
0.720111083984375
 20
6.079387749565972
 10
0.720111083984375
 20
5.894213867187499
 10
0.7678256564670138
 20
5.581915961371528
 10
1.040332709418403
 20
5.581915961371528
 10
1.238770209418403
 20
5.581915961371528
 10
1.302159966362847
 20
5.674589029947916
 10
1.376229519314236
 20
5.986714680989583
 10
1.376229519314236
 20
5.986714680989583
 10
1.466318766276042
 20
6.375665961371527
 10
1.466318766276042
 20
6.375665961371527
 10
1.49542982313368
 20
6.500033908420138
 10
1.582590738932292
 20
6.780636935763888
 10
1.913319905598958
 20
6.780636935763888
 10
2.209770372178819
 20
6.780636935763888
 10
2.500708685980903
 20
6.587367078993055
 10
2.500708685980903
 20
6.127102322048611
 10
2.500708685980903
 20
5.462887912326388
 10
2.103833685980903
 20
5.396742078993055
 10
1.894888644748264
 20
5.386234537760417
 10
1.894888644748264
 20
5.386234537760417
 10
1.894888644748264
 20
5.627046712239583
 10
1.894888644748264
 20
5.627046712239583
 97
        0
 75
     0
 76
     1
 98
        1
 10
0.0
 20
0.0
  0
HATCH
  5
44
330
31
100
AcDbEntity
  8
NAILS
 62
     7
100
AcDbHatch
 10
0.0
 20
0.0
 30
0.0
210
0.0
220
0.0
230
1.0
  2
SOLID
 70
     1
 71
     0
 91
        1
 92
        1
 93
        1
 72
     4
 94
        3
 73
     0
 74
     0
 95
       17
 96
       13
 40
0.0
 40
0.0
 40
0.0
 40
0.0
 40
1.0
 40
1.0
 40
1.0
 40
2.0
 40
2.0
 40
2.0
 40
3.0
 40
3.0
 40
3.0
 40
4.0
 40
4.0
 40
4.0
 40
4.0
 10
0.5507846408420138
 20
4.446929253472222
 10
0.5507846408420138
 20
4.446929253472222
 10
0.5507846408420138
 20
4.7035888671875
 10
0.5507846408420138
 20
4.7035888671875
 10
0.5507846408420138
 20
4.7035888671875
 10
2.450582546657986
 20
4.7035888671875
 10
2.450582546657986
 20
4.7035888671875
 10
2.450582546657986
 20
4.7035888671875
 10
2.450582546657986
 20
4.446929253472222
 10
2.450582546657986
 20
4.446929253472222
 10
2.450582546657986
 20
4.446929253472222
 10
0.5507846408420138
 20
4.446929253472222
 10
0.5507846408420138
 20
4.446929253472222
 97
        0
 75
     0
 76
     1
 98
        1
 10
0.0
 20
0.0
  0
HATCH
  5
43
330
31
100
AcDbEntity
  8
NAILS
 62
     7
100
AcDbHatch
 10
0.0
 20
0.0
 30
0.0
210
0.0
220
0.0
230
1.0
  2
SOLID
 70
     1
 71
     0
 91
        1
 92
        1
 93
        1
 72
     4
 94
        3
 73
     0
 74
     0
 95
       59
 96
       55
 40
0.0
 40
0.0
 40
0.0
 40
0.0
 40
1.0
 40
1.0
 40
1.0
 40
2.0
 40
2.0
 40
2.0
 40
3.0
 40
3.0
 40
3.0
 40
4.0
 40
4.0
 40
4.0
 40
5.0
 40
5.0
 40
5.0
 40
6.0
 40
6.0
 40
6.0
 40
7.0
 40
7.0
 40
7.0
 40
8.0
 40
8.0
 40
8.0
 40
9.0
 40
9.0
 40
9.0
 40
10.0
 40
10.0
 40
10.0
 40
11.0
 40
11.0
 40
11.0
 40
12.0
 40
12.0
 40
12.0
 40
13.0
 40
13.0
 40
13.0
 40
14.0
 40
14.0
 40
14.0
 40
15.0
 40
15.0
 40
15.0
 40
16.0
 40
16.0
 40
16.0
 40
17.0
 40
17.0
 40
17.0
 40
18.0
 40
18.0
 40
18.0
 40
18.0
 10
0.5507846408420138
 20
2.179539659288194
 10
0.5507846408420138
 20
2.179539659288194
 10
1.672679985894097
 20
2.179539659288194
 10
1.672679985894097
 20
2.179539659288194
 10
1.728146023220486
 20
2.179539659288194
 10
1.968958197699653
 20
2.174199761284722
 10
2.14620836046007
 20
2.174199761284722
 10
2.14620836046007
 20
2.174199761284722
 10
2.14620836046007
 20
2.179539659288194
 10
2.14620836046007
 20
2.179539659288194
 10
2.14620836046007
 20
2.179539659288194
 10
0.5507846408420138
 20
2.713873969184028
 10
0.5507846408420138
 20
2.713873969184028
 10
0.5507846408420138
 20
2.713873969184028
 10
0.5507846408420138
 20
2.967949761284722
 10
0.5507846408420138
 20
2.967949761284722
 10
0.5507846408420138
 20
2.967949761284722
 10
2.143624538845486
 20
3.502456325954861
 10
2.143624538845486
 20
3.502456325954861
 10
2.143624538845486
 20
3.502456325954861
 10
2.143624538845486
 20
3.507623969184027
 10
2.143624538845486
 20
3.507623969184027
 10
1.968958197699653
 20
3.507623969184027
 10
1.728146023220486
 20
3.502456325954861
 10
1.672679985894097
 20
3.502456325954861
 10
1.672679985894097
 20
3.502456325954861
 10
0.5507846408420138
 20
3.502456325954861
 10
0.5507846408420138
 20
3.502456325954861
 10
0.5507846408420138
 20
3.502456325954861
 10
0.5507846408420138
 20
3.751019965277778
 10
0.5507846408420138
 20
3.751019965277778
 10
0.5507846408420138
 20
3.751019965277778
 10
2.450582546657986
 20
3.751019965277778
 10
2.450582546657986
 20
3.751019965277778
 10
2.450582546657986
 20
3.751019965277778
 10
2.450582546657986
 20
3.383256022135416
 10
2.450582546657986
 20
3.383256022135416
 10
2.450582546657986
 20
3.383256022135416
 10
0.8444790310329861
 20
2.840997992621527
 10
0.8444790310329861
 20
2.840997992621527
 10
0.8444790310329861
 20
2.840997992621527
 10
0.8444790310329861
 20
2.835658094618055
 10
0.8444790310329861
 20
2.835658094618055
 10
0.8444790310329861
 20
2.835658094618055
 10
2.450582546657986
 20
2.295811631944444
 10
2.450582546657986
 20
2.295811631944444
 10
2.450582546657986
 20
2.295811631944444
 10
2.450582546657986
 20
1.930803765190972
 10
2.450582546657986
 20
1.930803765190972
 10
2.450582546657986
 20
1.930803765190972
 10
0.5507846408420138
 20
1.930803765190972
 10
0.5507846408420138
 20
1.930803765190972
 10
0.5507846408420138
 20
1.930803765190972
 10
0.5507846408420138
 20
2.179539659288194
 10
0.5507846408420138
 20
2.179539659288194
 97
        0
 75
     0
 76
     1
 98
        1
 10
0.0
 20
0.0
  0
HATCH
  5
42
330
31
100
AcDbEntity
  8
NAILS
 62
     7
100
AcDbHatch
 10
0.0
 20
0.0
 30
0.0
210
0.0
220
0.0
230
1.0
  2
SOLID
 70
     1
 71
     0
 91
        2
 92
       16
 93
        1
 72
     4
 94
        3
 73
     0
 74
     0
 95
       20
 96
       16
 40
0.0
 40
0.0
 40
0.0
 40
0.0
 40
1.0
 40
1.0
 40
1.0
 40
2.0
 40
2.0
 40
2.0
 40
3.0
 40
3.0
 40
3.0
 40
4.0
 40
4.0
 40
4.0
 40
5.0
 40
5.0
 40
5.0
 40
5.0
 10
1.572083197699653
 20
0.9914984809027777
 10
1.572083197699653
 20
0.9914984809027777
 10
1.572083197699653
 20
0.4809353298611111
 10
1.572083197699653
 20
0.4809353298611111
 10
1.572083197699653
 20
0.2506306966145833
 10
1.656832546657986
 20
0.09456787109375
 10
1.913319905598958
 20
0.09456787109375
 10
2.154132080078125
 20
0.09456787109375
 10
2.230957709418403
 20
0.2585544162326389
 10
2.230957709418403
 20
0.4702555338541666
 10
2.230957709418403
 20
0.4702555338541666
 10
2.230957709418403
 20
0.9914984809027777
 10
2.230957709418403
 20
0.9914984809027777
 10
2.230957709418403
 20
0.9914984809027777
 10
1.572083197699653
 20
0.9914984809027777
 10
1.572083197699653
 20
0.9914984809027777
 97
        0
 92
        1
 93
        1
 72
     4
 94
        3
 73
     0
 74
     0
 95
       26
 96
       22
 40
0.0
 40
0.0
 40
0.0
 40
0.0
 40
1.0
 40
1.0
 40
1.0
 40
2.0
 40
2.0
 40
2.0
 40
3.0
 40
3.0
 40
3.0
 40
4.0
 40
4.0
 40
4.0
 40
5.0
 40
5.0
 40
5.0
 40
6.0
 40
6.0
 40
6.0
 40
7.0
 40
7.0
 40
7.0
 40
7.0
 10
0.5507846408420138
 20
0.9914984809027777
 10
0.5507846408420138
 20
0.9914984809027777
 10
0.5507846408420138
 20
1.248158094618056
 10
0.5507846408420138
 20
1.248158094618056
 10
0.5507846408420138
 20
1.248158094618056
 10
2.450582546657986
 20
1.248158094618056
 10
2.450582546657986
 20
1.248158094618056
 10
2.450582546657986
 20
1.248158094618056
 10
2.450582546657986
 20
0.3936021592881944
 10
2.450582546657986
 20
0.3936021592881944
 10
2.450582546657986
 20
0.0416856553819444
 10
2.223033989800347
 20
-0.1700154622395833
 10
1.916075981987847
 20
-0.1700154622395833
 10
1.651492648654514
 20
-0.1700154622395833
 10
1.352458360460069
 20
-0.0191202799479167
 10
1.352458360460069
 20
0.3936021592881944
 10
1.352458360460069
 20
0.3936021592881944
 10
1.352458360460069
 20
0.9914984809027777
 10
1.352458360460069
 20
0.9914984809027777
 10
1.352458360460069
 20
0.9914984809027777
 10
0.5507846408420138
 20
0.9914984809027777
 10
0.5507846408420138
 20
0.9914984809027777
 97
        0
 75
     0
 76
     1
 98
        1
 10
0.0
 20
0.0
  0
HATCH
  5
41
330
31
100
AcDbEntity
  8
NAILS
 62
     7
100
AcDbHatch
 10
0.0
 20
0.0
 30
0.0
210
0.0
220
0.0
230
1.0
  2
SOLID
 70
     1
 71
     0
 91
        1
 92
        1
 93
        1
 72
     4
 94
        3
 73
     0
 74
     0
 95
       56
 96
       52
 40
0.0
 40
0.0
 40
0.0
 40
0.0
 40
1.0
 40
1.0
 40
1.0
 40
2.0
 40
2.0
 40
2.0
 40
3.0
 40
3.0
 40
3.0
 40
4.0
 40
4.0
 40
4.0
 40
5.0
 40
5.0
 40
5.0
 40
6.0
 40
6.0
 40
6.0
 40
7.0
 40
7.0
 40
7.0
 40
8.0
 40
8.0
 40
8.0
 40
9.0
 40
9.0
 40
9.0
 40
10.0
 40
10.0
 40
10.0
 40
11.0
 40
11.0
 40
11.0
 40
12.0
 40
12.0
 40
12.0
 40
13.0
 40
13.0
 40
13.0
 40
14.0
 40
14.0
 40
14.0
 40
15.0
 40
15.0
 40
15.0
 40
16.0
 40
16.0
 40
16.0
 40
17.0
 40
17.0
 40
17.0
 40
17.0
 10
1.894888644748264
 20
-1.900314670138889
 10
2.188583034939236
 20
-1.887051052517361
 10
2.281256103515625
 20
-1.643655056423611
 10
2.281256103515625
 20
-1.4293701171875
 10
2.281256103515625
 20
-1.267967393663194
 10
2.236125352647569
 20
-0.9954603407118055
 10
1.947770860460069
 20
-0.9954603407118055
 10
1.786368136935764
 20
-0.9954603407118055
 10
1.733485921223958
 20
-1.109320746527778
 10
1.706958685980903
 20
-1.220425075954861
 10
1.706958685980903
 20
-1.220425075954861
 10
1.582590738932292
 20
-1.762855360243055
 10
1.582590738932292
 20
-1.762855360243055
 10
1.524540879991319
 20
-2.008835177951389
 10
1.376229519314236
 20
-2.194009060329861
 10
1.074611409505208
 20
-2.194009060329861
 10
0.6248541937934027
 20
-2.194009060329861
 10
0.5004862467447916
 20
-1.775946723090278
 10
0.5004862467447916
 20
-1.450557454427083
 10
0.5004862467447916
 20
-1.098640950520833
 10
0.6064229329427083
 20
-0.9610093858506944
 10
0.6830763075086805
 20
-0.8764322916666666
 10
0.828631591796875
 20
-0.7150295681423611
 10
0.9872782389322916
 20
-0.6833346896701388
 10
1.164700656467014
 20
-0.6833346896701388
 10
1.164700656467014
 20
-0.6833346896701388
 10
1.164700656467014
 20
-0.9239746093749999
 10
1.164700656467014
 20
-0.9239746093749999
 10
0.8207078721788194
 20
-0.9239746093749999
 10
0.720111083984375
 20
-1.20457763671875
 10
0.720111083984375
 20
-1.4479736328125
 10
0.720111083984375
 20
-1.633147515190972
 10
0.7678256564670138
 20
-1.945273166232639
 10
1.040332709418403
 20
-1.945273166232639
 10
1.238770209418403
 20
-1.945273166232639
 10
1.302159966362847
 20
-1.852772352430556
 10
1.376229519314236
 20
-1.540474446614583
 10
1.376229519314236
 20
-1.540474446614583
 10
1.466318766276042
 20
-1.151523166232639
 10
1.466318766276042
 20
-1.151523166232639
 10
1.49542982313368
 20
-1.027155219184028
 10
1.582590738932292
 20
-0.7467244466145833
 10
1.913319905598958
 20
-0.7467244466145833
 10
2.209770372178819
 20
-0.7467244466145833
 10
2.500708685980903
 20
-0.9399943033854166
 10
2.500708685980903
 20
-1.400259060329861
 10
2.500708685980903
 20
-2.064473470052083
 10
2.103833685980903
 20
-2.130619303385417
 10
1.894888644748264
 20
-2.141126844618055
 10
1.894888644748264
 20
-2.141126844618055
 10
1.894888644748264
 20
-1.900314670138889
 10
1.894888644748264
 20
-1.900314670138889
 97
        0
 75
     0
 76
     1
 98
        1
 10
0.0
 20
0.0
  0
HATCH
  5
40
330
31
100
AcDbEntity
  8
NAILS
 62
     7
100
AcDbHatch
 10
0.0
 20
0.0
 30
0.0
210
0.0
220
0.0
230
1.0
  2
SOLID
 70
     1
 71
     0
 91
        2
 92
       16
 93
        1
 72
     4
 94
        3
 73
     0
 74
     0
 95
       17
 96
       13
 40
0.0
 40
0.0
 40
0.0
 40
0.0
 40
1.0
 40
1.0
 40
1.0
 40
2.0
 40
2.0
 40
2.0
 40
3.0
 40
3.0
 40
3.0
 40
4.0
 40
4.0
 40
4.0
 40
4.0
 10
2.273160129123264
 20
-3.6121826171875
 10
2.273160129123264
 20
-3.199460177951389
 10
1.947770860460069
 20
-2.950724283854167
 10
1.500597466362847
 20
-2.950724283854167
 10
1.053424072265625
 20
-2.950724283854167
 10
0.7280348036024305
 20
-3.199460177951389
 10
0.7280348036024305
 20
-3.6121826171875
 10
0.7280348036024305
 20
-4.024905056423611
 10
1.053424072265625
 20
-4.273640950520833
 10
1.500597466362847
 20
-4.273640950520833
 10
1.947770860460069
 20
-4.273640950520833
 10
2.273160129123264
 20
-4.024905056423611
 10
2.273160129123264
 20
-3.6121826171875
 97
        0
 92
        1
 93
        1
 72
     4
 94
        3
 73
     0
 74
     0
 95
       17
 96
       13
 40
0.0
 40
0.0
 40
0.0
 40
0.0
 40
1.0
 40
1.0
 40
1.0
 40
2.0
 40
2.0
 40
2.0
 40
3.0
 40
3.0
 40
3.0
 40
4.0
 40
4.0
 40
4.0
 40
4.0
 10
0.5004862467447916
 20
-3.6121826171875
 10
0.5004862467447916
 20
-2.903181966145833
 10
1.090458848741319
 20
-2.686140950520833
 10
1.500597466362847
 20
-2.686140950520833
 10
1.910736083984375
 20
-2.686140950520833
 10
2.500708685980903
 20
-2.903181966145833
 10
2.500708685980903
 20
-3.6121826171875
 10
2.500708685980903
 20
-4.321355523003472
 10
1.910736083984375
 20
-4.538224283854166
 10
1.500597466362847
 20
-4.538224283854166
 10
1.090458848741319
 20
-4.538224283854166
 10
0.5004862467447916
 20
-4.321355523003472
 10
0.5004862467447916
 20
-3.6121826171875
 97
        0
 75
     0
 76
     1
 98
        1
 10
0.0
 20
0.0
  0
HATCH
  5
3F
330
31
100
AcDbEntity
  8
NAILS
 62
     7
100
AcDbHatch
 10
0.0
 20
0.0
 30
0.0
210
0.0
220
0.0
230
1.0
  2
SOLID
 70
     1
 71
     0
 91
        1
 92
        1
 93
        1
 72
     4
 94
        3
 73
     0
 74
     0
 95
       41
 96
       37
 40
0.0
 40
0.0
 40
0.0
 40
0.0
 40
1.0
 40
1.0
 40
1.0
 40
2.0
 40
2.0
 40
2.0
 40
3.0
 40
3.0
 40
3.0
 40
4.0
 40
4.0
 40
4.0
 40
5.0
 40
5.0
 40
5.0
 40
6.0
 40
6.0
 40
6.0
 40
7.0
 40
7.0
 40
7.0
 40
8.0
 40
8.0
 40
8.0
 40
9.0
 40
9.0
 40
9.0
 40
10.0
 40
10.0
 40
10.0
 40
11.0
 40
11.0
 40
11.0
 40
12.0
 40
12.0
 40
12.0
 40
12.0
 10
2.450582546657986
 20
-6.366536458333333
 10
2.450582546657986
 20
-6.366536458333333
 10
2.450582546657986
 20
-6.615272352430555
 10
2.450582546657986
 20
-6.615272352430555
 10
2.450582546657986
 20
-6.615272352430555
 10
0.5507846408420138
 20
-6.615272352430555
 10
0.5507846408420138
 20
-6.615272352430555
 10
0.5507846408420138
 20
-6.615272352430555
 10
0.5507846408420138
 20
-6.32674560546875
 10
0.5507846408420138
 20
-6.32674560546875
 10
0.5507846408420138
 20
-6.32674560546875
 10
2.085402425130208
 20
-5.361085340711805
 10
2.085402425130208
 20
-5.361085340711805
 10
2.085402425130208
 20
-5.361085340711805
 10
2.085402425130208
 20
-5.355745442708333
 10
2.085402425130208
 20
-5.355745442708333
 10
2.085402425130208
 20
-5.355745442708333
 10
0.5507846408420138
 20
-5.355745442708333
 10
0.5507846408420138
 20
-5.355745442708333
 10
0.5507846408420138
 20
-5.355745442708333
 10
0.5507846408420138
 20
-5.107009548611111
 10
0.5507846408420138
 20
-5.107009548611111
 10
0.5507846408420138
 20
-5.107009548611111
 10
2.450582546657986
 20
-5.107009548611111
 10
2.450582546657986
 20
-5.107009548611111
 10
2.450582546657986
 20
-5.107009548611111
 10
2.450582546657986
 20
-5.411383734809028
 10
2.450582546657986
 20
-5.411383734809028
 10
2.450582546657986
 20
-5.411383734809028
 10
0.9159647623697916
 20
-6.36119656032986
 10
0.9159647623697916
 20
-6.36119656032986
 10
0.9159647623697916
 20
-6.36119656032986
 10
0.9159647623697916
 20
-6.366536458333333
 10
0.9159647623697916
 20
-6.366536458333333
 10
0.9159647623697916
 20
-6.366536458333333
 10
2.450582546657986
 20
-6.366536458333333
 10
2.450582546657986
 20
-6.366536458333333
 97
        0
 75
     0
 76
     1
 98
        1
 10
0.0
 20
0.0
  0
HATCH
  5
3E
330
31
100
AcDbEntity
  8
NAILS
 62
     7
100
AcDbHatch
 10
0.0
 20
0.0
 30
0.0
210
0.0
220
0.0
230
1.0
  2
SOLID
 70
     1
 71
     0
 91
        1
 92
        1
 93
        1
 72
     4
 94
        3
 73
     0
 74
     0
 95
       56
 96
       52
 40
0.0
 40
0.0
 40
0.0
 40
0.0
 40
1.0
 40
1.0
 40
1.0
 40
2.0
 40
2.0
 40
2.0
 40
3.0
 40
3.0
 40
3.0
 40
4.0
 40
4.0
 40
4.0
 40
5.0
 40
5.0
 40
5.0
 40
6.0
 40
6.0
 40
6.0
 40
7.0
 40
7.0
 40
7.0
 40
8.0
 40
8.0
 40
8.0
 40
9.0
 40
9.0
 40
9.0
 40
10.0
 40
10.0
 40
10.0
 40
11.0
 40
11.0
 40
11.0
 40
12.0
 40
12.0
 40
12.0
 40
13.0
 40
13.0
 40
13.0
 40
14.0
 40
14.0
 40
14.0
 40
15.0
 40
15.0
 40
15.0
 40
16.0
 40
16.0
 40
16.0
 40
17.0
 40
17.0
 40
17.0
 40
17.0
 10
-0.5745557996961805
 20
6.91275634765625
 10
-0.2808614095052083
 20
6.926019965277777
 10
-0.1881883409288194
 20
7.169415961371527
 10
-0.1881883409288194
 20
7.383700900607638
 10
-0.1881883409288194
 20
7.545103624131944
 10
-0.233319091796875
 20
7.817610677083333
 10
-0.5216735839843749
 20
7.817610677083333
 10
-0.6830763075086805
 20
7.817610677083333
 10
-0.7359585232204861
 20
7.70375027126736
 10
-0.7624857584635416
 20
7.592645941840277
 10
-0.7624857584635416
 20
7.592645941840277
 10
-0.8868537055121527
 20
7.050215657552083
 10
-0.8868537055121527
 20
7.050215657552083
 10
-0.944903564453125
 20
6.80423583984375
 10
-1.093214925130208
 20
6.619061957465277
 10
-1.394833034939236
 20
6.619061957465277
 10
-1.844590250651041
 20
6.619061957465277
 10
-1.968958197699653
 20
7.037124294704861
 10
-1.968958197699653
 20
7.362513563368055
 10
-1.968958197699653
 20
7.714430067274305
 10
-1.863021511501736
 20
7.852061631944443
 10
-1.786368136935764
 20
7.936638726128471
 10
-1.640812852647569
 20
8.098041449652778
 10
-1.482166205512153
 20
8.129736328124999
 10
-1.30474378797743
 20
8.129736328124999
 10
-1.30474378797743
 20
8.129736328124999
 10
-1.30474378797743
 20
7.889096408420138
 10
-1.30474378797743
 20
7.889096408420138
 10
-1.648736572265625
 20
7.889096408420138
 10
-1.749333360460069
 20
7.608493381076388
 10
-1.749333360460069
 20
7.365097384982638
 10
-1.749333360460069
 20
7.179923502604166
 10
-1.701618787977431
 20
6.867797851562499
 10
-1.429111735026042
 20
6.867797851562499
 10
-1.230674235026042
 20
6.867797851562499
 10
-1.167284478081597
 20
6.960298665364583
 10
-1.093214925130208
 20
7.272596571180555
 10
-1.093214925130208
 20
7.272596571180555
 10
-1.003125678168403
 20
7.661547851562499
 10
-1.003125678168403
 20
7.661547851562499
 10
-0.9740146213107638
 20
7.785915798611111
 10
-0.8868537055121527
 20
8.066346571180555
 10
-0.5561245388454861
 20
8.066346571180555
 10
-0.259674072265625
 20
8.066346571180555
 10
0.0312642415364583
 20
7.873076714409722
 10
0.0312642415364583
 20
7.412811957465277
 10
0.0312642415364583
 20
6.748597547743055
 10
-0.3656107584635416
 20
6.682451714409722
 10
-0.5745557996961805
 20
6.671944173177082
 10
-0.5745557996961805
 20
6.671944173177082
 10
-0.5745557996961805
 20
6.91275634765625
 10
-0.5745557996961805
 20
6.91275634765625
 97
        0
 75
     0
 76
     1
 98
        1
 10
0.0
 20
0.0
  0
HATCH
  5
3D
330
31
100
AcDbEntity
  8
NAILS
 62
     7
100
AcDbHatch
 10
0.0
 20
0.0
 30
0.0
210
0.0
220
0.0
230
1.0
  2
SOLID
 70
     1
 71
     0
 91
        1
 92
        1
 93
        1
 72
     4
 94
        3
 73
     0
 74
     0
 95
       53
 96
       49
 40
0.0
 40
0.0
 40
0.0
 40
0.0
 40
1.0
 40
1.0
 40
1.0
 40
2.0
 40
2.0
 40
2.0
 40
3.0
 40
3.0
 40
3.0
 40
4.0
 40
4.0
 40
4.0
 40
5.0
 40
5.0
 40
5.0
 40
6.0
 40
6.0
 40
6.0
 40
7.0
 40
7.0
 40
7.0
 40
8.0
 40
8.0
 40
8.0
 40
9.0
 40
9.0
 40
9.0
 40
10.0
 40
10.0
 40
10.0
 40
11.0
 40
11.0
 40
11.0
 40
12.0
 40
12.0
 40
12.0
 40
13.0
 40
13.0
 40
13.0
 40
14.0
 40
14.0
 40
14.0
 40
15.0
 40
15.0
 40
15.0
 40
16.0
 40
16.0
 40
16.0
 40
16.0
 10
-0.7280348036024305
 20
5.772429741753472
 10
-0.7280348036024305
 20
5.772429741753472
 10
-1.627549235026041
 20
5.772429741753472
 10
-1.627549235026041
 20
5.772429741753472
 10
-1.736069742838541
 20
5.772429741753472
 10
-1.736069742838541
 20
5.679756673177083
 10
-1.736069742838541
 20
5.63221435546875
 10
-1.736069742838541
 20
5.63221435546875
 10
-1.736069742838541
 20
5.550048828124999
 10
-1.736069742838541
 20
5.550048828124999
 10
-1.736069742838541
 20
5.550048828124999
 10
-1.918659803602431
 20
5.550048828124999
 10
-1.918659803602431
 20
5.550048828124999
 10
-1.926583523220486
 20
5.634798177083333
 10
-1.93726331922743
 20
5.700944010416666
 10
-1.93726331922743
 20
5.724715169270833
 10
-1.93726331922743
 20
5.95501980251736
 10
-1.807555474175347
 20
6.005145941840278
 10
-1.640812852647569
 20
6.005145941840278
 10
-1.640812852647569
 20
6.005145941840278
 10
-0.7280348036024305
 20
6.005145941840278
 10
-0.7280348036024305
 20
6.005145941840278
 10
-0.7280348036024305
 20
6.005145941840278
 10
-0.7280348036024305
 20
6.193075900607639
 10
-0.7280348036024305
 20
6.193075900607639
 10
-0.7280348036024305
 20
6.193075900607639
 10
-0.5349372016059028
 20
6.193075900607639
 10
-0.5349372016059028
 20
6.193075900607639
 10
-0.5349372016059028
 20
6.193075900607639
 10
-0.5349372016059028
 20
6.005145941840278
 10
-0.5349372016059028
 20
6.005145941840278
 10
-0.5349372016059028
 20
6.005145941840278
 10
-0.1485697428385417
 20
6.005145941840278
 10
-0.1485697428385417
 20
6.005145941840278
 10
-0.1485697428385417
 20
6.005145941840278
 10
-0.1485697428385417
 20
5.772429741753472
 10
-0.1485697428385417
 20
5.772429741753472
 10
-0.1485697428385417
 20
5.772429741753472
 10
-0.5349372016059028
 20
5.772429741753472
 10
-0.5349372016059028
 20
5.772429741753472
 10
-0.5349372016059028
 20
5.772429741753472
 10
-0.5349372016059028
 20
5.550048828124999
 10
-0.5349372016059028
 20
5.550048828124999
 10
-0.5349372016059028
 20
5.550048828124999
 10
-0.7280348036024305
 20
5.550048828124999
 10
-0.7280348036024305
 20
5.550048828124999
 10
-0.7280348036024305
 20
5.550048828124999
 10
-0.7280348036024305
 20
5.772429741753472
 10
-0.7280348036024305
 20
5.772429741753472
 97
        0
 75
     0
 76
     1
 98
        1
 10
0.0
 20
0.0
  0
HATCH
  5
3C
330
31
100
AcDbEntity
  8
NAILS
 62
     7
100
AcDbHatch
 10
0.0
 20
0.0
 30
0.0
210
0.0
220
0.0
230
1.0
  2
SOLID
 70
     1
 71
     0
 91
        1
 92
        1
 93
        1
 72
     4
 94
        3
 73
     0
 74
     0
 95
       38
 96
       34
 40
0.0
 40
0.0
 40
0.0
 40
0.0
 40
1.0
 40
1.0
 40
1.0
 40
2.0
 40
2.0
 40
2.0
 40
3.0
 40
3.0
 40
3.0
 40
4.0
 40
4.0
 40
4.0
 40
5.0
 40
5.0
 40
5.0
 40
6.0
 40
6.0
 40
6.0
 40
7.0
 40
7.0
 40
7.0
 40
8.0
 40
8.0
 40
8.0
 40
9.0
 40
9.0
 40
9.0
 40
10.0
 40
10.0
 40
10.0
 40
11.0
 40
11.0
 40
11.0
 40
11.0
 10
-1.918659803602431
 20
4.793505859374999
 10
-1.918659803602431
 20
4.793505859374999
 10
-1.918659803602431
 20
5.026222059461805
 10
-1.918659803602431
 20
5.026222059461805
 10
-1.918659803602431
 20
5.026222059461805
 10
-0.5349372016059028
 20
5.026222059461805
 10
-0.5349372016059028
 20
5.026222059461805
 10
-0.5349372016059028
 20
5.026222059461805
 10
-0.5349372016059028
 20
4.806597222222222
 10
-0.5349372016059028
 20
4.806597222222222
 10
-0.5349372016059028
 20
4.806597222222222
 10
-0.765069580078125
 20
4.806597222222222
 10
-0.765069580078125
 20
4.806597222222222
 10
-0.765069580078125
 20
4.806597222222222
 10
-0.765069580078125
 20
4.801429578993055
 10
-0.765069580078125
 20
4.801429578993055
 10
-0.6036668565538194
 20
4.708756510416666
 10
-0.4951463487413194
 20
4.586972384982638
 10
-0.4951463487413194
 20
4.412478298611111
 10
-0.4951463487413194
 20
4.383367241753472
 10
-0.4979024251302083
 20
4.370103624131944
 10
-0.503070068359375
 20
4.351500108506945
 10
-0.503070068359375
 20
4.351500108506945
 10
-0.7438822428385417
 20
4.351500108506945
 10
-0.7438822428385417
 20
4.351500108506945
 10
-0.7438822428385417
 20
4.351500108506945
 10
-0.7438822428385417
 20
4.43883327907986
 10
-0.7438822428385417
 20
4.43883327907986
 10
-0.7438822428385417
 20
4.65587429470486
 10
-0.9132086859809027
 20
4.793505859374999
 10
-1.114230007595486
 20
4.793505859374999
 10
-1.114230007595486
 20
4.793505859374999
 10
-1.918659803602431
 20
4.793505859374999
 10
-1.918659803602431
 20
4.793505859374999
 97
        0
 75
     0
 76
     1
 98
        1
 10
0.0
 20
0.0
  0
HATCH
  5
3B
330
31
100
AcDbEntity
  8
NAILS
 62
     7
100
AcDbHatch
 10
0.0
 20
0.0
 30
0.0
210
0.0
220
0.0
230
1.0
  2
SOLID
 70
     1
 71
     0
 91
        2
 92
       16
 93
        1
 72
     4
 94
        3
 73
     0
 74
     0
 95
       17
 96
       13
 40
0.0
 40
0.0
 40
0.0
 40
0.0
 40
1.0
 40
1.0
 40
1.0
 40
2.0
 40
2.0
 40
2.0
 40
3.0
 40
3.0
 40
3.0
 40
4.0
 40
4.0
 40
4.0
 40
4.0
 10
-1.754673258463542
 20
3.348805067274305
 10
-1.754673258463542
 20
3.015492078993055
 10
-1.410680474175347
 20
2.946590169270833
 10
-1.225506591796875
 20
2.946590169270833
 10
-1.040160454644097
 20
2.946590169270833
 10
-0.6963399251302083
 20
3.015492078993055
 10
-0.6963399251302083
 20
3.348805067274305
 10
-0.6963399251302083
 20
3.682118055555555
 10
-1.040160454644097
 20
3.751019965277778
 10
-1.225506591796875
 20
3.751019965277778
 10
-1.410680474175347
 20
3.751019965277778
 10
-1.754673258463542
 20
3.682118055555555
 10
-1.754673258463542
 20
3.348805067274305
 97
        0
 92
        1
 93
        1
 72
     4
 94
        3
 73
     0
 74
     0
 95
       17
 96
       13
 40
0.0
 40
0.0
 40
0.0
 40
0.0
 40
1.0
 40
1.0
 40
1.0
 40
2.0
 40
2.0
 40
2.0
 40
3.0
 40
3.0
 40
3.0
 40
4.0
 40
4.0
 40
4.0
 40
4.0
 10
-0.4951463487413194
 20
3.348805067274305
 10
-0.4951463487413194
 20
2.906971571180555
 10
-0.8682501898871528
 20
2.705950249565972
 10
-1.225506591796875
 20
2.705950249565972
 10
-1.582590738932292
 20
2.705950249565972
 10
-1.955694580078125
 20
2.906971571180555
 10
-1.955694580078125
 20
3.348805067274305
 10
-1.955694580078125
 20
3.790638563368055
 10
-1.582590738932292
 20
3.991832139756944
 10
-1.225506591796875
 20
3.991832139756944
 10
-0.8682501898871528
 20
3.991832139756944
 10
-0.4951463487413194
 20
3.790638563368055
 10
-0.4951463487413194
 20
3.348805067274305
 97
        0
 75
     0
 76
     1
 98
        1
 10
0.0
 20
0.0
  0
HATCH
  5
3A
330
31
100
AcDbEntity
  8
NAILS
 62
     7
100
AcDbHatch
 10
0.0
 20
0.0
 30
0.0
210
0.0
220
0.0
230
1.0
  2
SOLID
 70
     1
 71
     0
 91
        1
 92
        1
 93
        1
 72
     4
 94
        3
 73
     0
 74
     0
 95
       44
 96
       40
 40
0.0
 40
0.0
 40
0.0
 40
0.0
 40
1.0
 40
1.0
 40
1.0
 40
2.0
 40
2.0
 40
2.0
 40
3.0
 40
3.0
 40
3.0
 40
4.0
 40
4.0
 40
4.0
 40
5.0
 40
5.0
 40
5.0
 40
6.0
 40
6.0
 40
6.0
 40
7.0
 40
7.0
 40
7.0
 40
8.0
 40
8.0
 40
8.0
 40
9.0
 40
9.0
 40
9.0
 40
10.0
 40
10.0
 40
10.0
 40
11.0
 40
11.0
 40
11.0
 40
12.0
 40
12.0
 40
12.0
 40
13.0
 40
13.0
 40
13.0
 40
13.0
 10
-1.918659803602431
 20
1.04954833984375
 10
-1.918659803602431
 20
1.04954833984375
 10
-1.918659803602431
 20
1.282436794704861
 10
-1.918659803602431
 20
1.282436794704861
 10
-1.918659803602431
 20
1.282436794704861
 10
-1.066687689887153
 20
1.282436794704861
 10
-1.066687689887153
 20
1.282436794704861
 10
-0.825875515407986
 20
1.282436794704861
 10
-0.7042636447482639
 20
1.351166449652778
 10
-0.7042636447482639
 20
1.578715006510417
 10
-0.7042636447482639
 20
1.711006673177083
 10
-0.7888407389322916
 20
1.943895128038194
 10
-1.164528401692708
 20
1.943895128038194
 10
-1.164528401692708
 20
1.943895128038194
 10
-1.918659803602431
 20
1.943895128038194
 10
-1.918659803602431
 20
1.943895128038194
 10
-1.918659803602431
 20
1.943895128038194
 10
-1.918659803602431
 20
2.176783582899305
 10
-1.918659803602431
 20
2.176783582899305
 10
-1.918659803602431
 20
2.176783582899305
 10
-0.5349372016059028
 20
2.176783582899305
 10
-0.5349372016059028
 20
2.176783582899305
 10
-0.5349372016059028
 20
2.176783582899305
 10
-0.5349372016059028
 20
1.957158745659722
 10
-0.5349372016059028
 20
1.957158745659722
 10
-0.5349372016059028
 20
1.957158745659722
 10
-0.7306186252170138
 20
1.957158745659722
 10
-0.7306186252170138
 20
1.957158745659722
 10
-0.7306186252170138
 20
1.957158745659722
 10
-0.7306186252170138
 20
1.95181884765625
 10
-0.7306186252170138
 20
1.95181884765625
 10
-0.656549072265625
 20
1.901520453559028
 10
-0.4951463487413194
 20
1.77198486328125
 10
-0.4951463487413194
 20
1.533756510416667
 10
-0.4951463487413194
 20
1.319471571180555
 10
-0.582479519314236
 20
1.04954833984375
 10
-0.9767706976996526
 20
1.04954833984375
 10
-0.9767706976996526
 20
1.04954833984375
 10
-1.918659803602431
 20
1.04954833984375
 10
-1.918659803602431
 20
1.04954833984375
 97
        0
 75
     0
 76
     1
 98
        1
 10
0.0
 20
0.0
  0
HATCH
  5
39
330
31
100
AcDbEntity
  8
NAILS
 62
     7
100
AcDbHatch
 10
0.0
 20
0.0
 30
0.0
210
0.0
220
0.0
230
1.0
  2
SOLID
 70
     1
 71
     0
 91
        2
 92
       16
 93
        1
 72
     4
 94
        3
 73
     0
 74
     0
 95
       17
 96
       13
 40
0.0
 40
0.0
 40
0.0
 40
0.0
 40
1.0
 40
1.0
 40
1.0
 40
2.0
 40
2.0
 40
2.0
 40
3.0
 40
3.0
 40
3.0
 40
4.0
 40
4.0
 40
4.0
 40
4.0
 10
-1.757257080078125
 20
-0.1066257052951389
 10
-1.757257080078125
 20
-0.2547648111979167
 10
-1.659416368272569
 20
-0.4850694444444444
 10
-1.291652425130208
 20
-0.4850694444444444
 10
-1.066687689887153
 20
-0.4850694444444444
 10
-0.7042636447482639
 20
-0.44803466796875
 10
-0.7042636447482639
 20
-0.1119656032986111
 10
-0.7042636447482639
 20
0.2478746202256944
 10
-1.045500352647569
 20
0.2664781358506944
 10
-1.222750515407986
 20
0.2664781358506944
 10
-1.527124701605903
 20
0.2664781358506944
 10
-1.757257080078125
 20
0.14727783203125
 10
-1.757257080078125
 20
-0.1066257052951389
 97
        0
 92
        1
 93
        1
 72
     4
 94
        3
 73
     0
 74
     0
 95
       53
 96
       49
 40
0.0
 40
0.0
 40
0.0
 40
0.0
 40
1.0
 40
1.0
 40
1.0
 40
2.0
 40
2.0
 40
2.0
 40
3.0
 40
3.0
 40
3.0
 40
4.0
 40
4.0
 40
4.0
 40
5.0
 40
5.0
 40
5.0
 40
6.0
 40
6.0
 40
6.0
 40
7.0
 40
7.0
 40
7.0
 40
8.0
 40
8.0
 40
8.0
 40
9.0
 40
9.0
 40
9.0
 40
10.0
 40
10.0
 40
10.0
 40
11.0
 40
11.0
 40
11.0
 40
12.0
 40
12.0
 40
12.0
 40
13.0
 40
13.0
 40
13.0
 40
14.0
 40
14.0
 40
14.0
 40
15.0
 40
15.0
 40
15.0
 40
16.0
 40
16.0
 40
16.0
 40
16.0
 10
-1.804971652560764
 20
-0.7072781032986111
 10
-2.003409152560764
 20
-0.7072781032986111
 10
-2.500708685980903
 20
-0.7045220269097222
 10
-2.500708685980903
 20
-0.0642510308159722
 10
-2.500708685980903
 20
0.0997355143229167
 10
-2.455750189887153
 20
0.4199571397569444
 10
-2.087986246744792
 20
0.4649156358506944
 10
-2.087986246744792
 20
0.4649156358506944
 10
-2.087986246744792
 20
0.2320271809895833
 10
-2.087986246744792
 20
0.2320271809895833
 10
-2.307611083984375
 20
0.1896525065104167
 10
-2.307611083984375
 20
-0.0246324327256944
 10
-2.307611083984375
 20
-0.0800984700520833
 10
-2.307611083984375
 20
-0.4823133680555555
 10
-1.984805636935764
 20
-0.4743896484375
 10
-1.820819091796875
 20
-0.4743896484375
 10
-1.820819091796875
 20
-0.4743896484375
 10
-1.762596978081597
 20
-0.4743896484375
 10
-1.762596978081597
 20
-0.4743896484375
 10
-1.762596978081597
 20
-0.4743896484375
 10
-1.762596978081597
 20
-0.4690497504340278
 10
-1.762596978081597
 20
-0.4690497504340278
 10
-1.762596978081597
 20
-0.4690497504340278
 10
-1.773104519314236
 20
-0.4690497504340278
 10
-1.773104519314236
 20
-0.4690497504340278
 10
-1.871117485894097
 20
-0.4082438151041666
 10
-1.958278401692708
 20
-0.2866319444444444
 10
-1.958278401692708
 20
-0.1012858072916667
 10
-1.958278401692708
 20
0.3696587456597222
 10
-1.516444905598958
 20
0.5071180555555556
 10
-1.185715738932292
 20
0.5071180555555556
 10
-0.7967644585503472
 20
0.5071180555555556
 10
-0.4951463487413194
 20
0.2981730143229167
 10
-0.4951463487413194
 20
-0.0695909288194444
 10
-0.4951463487413194
 20
-0.32091064453125
 10
-0.6512091742621528
 20
-0.4268473307291666
 10
-0.7306186252170138
 20
-0.4823133680555555
 10
-0.7306186252170138
 20
-0.4823133680555555
 10
-0.7306186252170138
 20
-0.4876532660590278
 10
-0.7306186252170138
 20
-0.4876532660590278
 10
-0.7306186252170138
 20
-0.4876532660590278
 10
-0.5349372016059028
 20
-0.4876532660590278
 10
-0.5349372016059028
 20
-0.4876532660590278
 10
-0.5349372016059028
 20
-0.4876532660590278
 10
-0.5349372016059028
 20
-0.7072781032986111
 10
-0.5349372016059028
 20
-0.7072781032986111
 10
-0.5349372016059028
 20
-0.7072781032986111
 10
-1.804971652560764
 20
-0.7072781032986111
 10
-1.804971652560764
 20
-0.7072781032986111
 97
        0
 75
     0
 76
     1
 98
        1
 10
0.0
 20
0.0
  0
HATCH
  5
38
330
31
100
AcDbEntity
  8
NAILS
 62
     7
100
AcDbHatch
 10
0.0
 20
0.0
 30
0.0
210
0.0
220
0.0
230
1.0
  2
SOLID
 70
     1
 71
     0
 91
        1
 92
        1
 93
        1
 72
     4
 94
        3
 73
     0
 74
     0
 95
       17
 96
       13
 40
0.0
 40
0.0
 40
0.0
 40
0.0
 40
1.0
 40
1.0
 40
1.0
 40
2.0
 40
2.0
 40
2.0
 40
3.0
 40
3.0
 40
3.0
 40
4.0
 40
4.0
 40
4.0
 40
4.0
 10
-1.30474378797743
 20
-1.887223307291666
 10
-1.30474378797743
 20
-1.887223307291666
 10
-1.30474378797743
 20
-1.239028591579861
 10
-1.30474378797743
 20
-1.239028591579861
 10
-1.30474378797743
 20
-1.239028591579861
 10
-1.066687689887153
 20
-1.239028591579861
 10
-1.066687689887153
 20
-1.239028591579861
 10
-1.066687689887153
 20
-1.239028591579861
 10
-1.066687689887153
 20
-1.887223307291666
 10
-1.066687689887153
 20
-1.887223307291666
 10
-1.066687689887153
 20
-1.887223307291666
 10
-1.30474378797743
 20
-1.887223307291666
 10
-1.30474378797743
 20
-1.887223307291666
 97
        0
 75
     0
 76
     1
 98
        1
 10
0.0
 20
0.0
  0
HATCH
  5
37
330
31
100
AcDbEntity
  8
NAILS
 62
     7
100
AcDbHatch
 10
0.0
 20
0.0
 30
0.0
210
0.0
220
0.0
230
1.0
  2
SOLID
 70
     1
 71
     0
 91
        1
 92
        1
 93
        1
 72
     4
 94
        3
 73
     0
 74
     0
 95
       29
 96
       25
 40
0.0
 40
0.0
 40
0.0
 40
0.0
 40
1.0
 40
1.0
 40
1.0
 40
2.0
 40
2.0
 40
2.0
 40
3.0
 40
3.0
 40
3.0
 40
4.0
 40
4.0
 40
4.0
 40
5.0
 40
5.0
 40
5.0
 40
6.0
 40
6.0
 40
6.0
 40
7.0
 40
7.0
 40
7.0
 40
8.0
 40
8.0
 40
8.0
 40
8.0
 10
-0.0188618977864583
 20
-2.30528564453125
 10
-0.0188618977864583
 20
-2.30528564453125
 10
-0.0188618977864583
 20
-3.8478271484375
 10
-0.0188618977864583
 20
-3.8478271484375
 10
-0.0188618977864583
 20
-3.8478271484375
 10
-0.2464104546440972
 20
-3.8478271484375
 10
-0.2464104546440972
 20
-3.8478271484375
 10
-0.2464104546440972
 20
-3.8478271484375
 10
-0.2464104546440972
 20
-3.204972330729166
 10
-0.2464104546440972
 20
-3.204972330729166
 10
-0.2464104546440972
 20
-3.204972330729166
 10
-1.918659803602431
 20
-3.204972330729166
 10
-1.918659803602431
 20
-3.204972330729166
 10
-1.918659803602431
 20
-3.204972330729166
 10
-1.918659803602431
 20
-2.948312717013889
 10
-1.918659803602431
 20
-2.948312717013889
 10
-1.918659803602431
 20
-2.948312717013889
 10
-0.2464104546440972
 20
-2.948312717013889
 10
-0.2464104546440972
 20
-2.948312717013889
 10
-0.2464104546440972
 20
-2.948312717013889
 10
-0.2464104546440972
 20
-2.30528564453125
 10
-0.2464104546440972
 20
-2.30528564453125
 10
-0.2464104546440972
 20
-2.30528564453125
 10
-0.0188618977864583
 20
-2.30528564453125
 10
-0.0188618977864583
 20
-2.30528564453125
 97
        0
 75
     0
 76
     1
 98
        1
 10
0.0
 20
0.0
  0
HATCH
  5
36
330
31
100
AcDbEntity
  8
NAILS
 62
     7
100
AcDbHatch
 10
0.0
 20
0.0
 30
0.0
210
0.0
220
0.0
230
1.0
  2
SOLID
 70
     1
 71
     0
 91
        2
 92
        1
 93
        1
 72
     4
 94
        3
 73
     0
 74
     0
 95
       17
 96
       13
 40
0.0
 40
0.0
 40
0.0
 40
0.0
 40
1.0
 40
1.0
 40
1.0
 40
2.0
 40
2.0
 40
2.0
 40
3.0
 40
3.0
 40
3.0
 40
4.0
 40
4.0
 40
4.0
 40
4.0
 10
-0.2834452311197916
 20
-4.326695421006944
 10
-0.2834452311197916
 20
-4.326695421006944
 10
-0.0188618977864583
 20
-4.326695421006944
 10
-0.0188618977864583
 20
-4.326695421006944
 10
-0.0188618977864583
 20
-4.326695421006944
 10
-0.0188618977864583
 20
-4.559583875868055
 10
-0.0188618977864583
 20
-4.559583875868055
 10
-0.0188618977864583
 20
-4.559583875868055
 10
-0.2834452311197916
 20
-4.559583875868055
 10
-0.2834452311197916
 20
-4.559583875868055
 10
-0.2834452311197916
 20
-4.559583875868055
 10
-0.2834452311197916
 20
-4.326695421006944
 10
-0.2834452311197916
 20
-4.326695421006944
 97
        0
 92
        1
 93
        1
 72
     4
 94
        3
 73
     0
 74
     0
 95
       17
 96
       13
 40
0.0
 40
0.0
 40
0.0
 40
0.0
 40
1.0
 40
1.0
 40
1.0
 40
2.0
 40
2.0
 40
2.0
 40
3.0
 40
3.0
 40
3.0
 40
4.0
 40
4.0
 40
4.0
 40
4.0
 10
-1.918659803602431
 20
-4.559583875868055
 10
-1.918659803602431
 20
-4.559583875868055
 10
-1.918659803602431
 20
-4.326695421006944
 10
-1.918659803602431
 20
-4.326695421006944
 10
-1.918659803602431
 20
-4.326695421006944
 10
-0.5349372016059028
 20
-4.326695421006944
 10
-0.5349372016059028
 20
-4.326695421006944
 10
-0.5349372016059028
 20
-4.326695421006944
 10
-0.5349372016059028
 20
-4.559583875868055
 10
-0.5349372016059028
 20
-4.559583875868055
 10
-0.5349372016059028
 20
-4.559583875868055
 10
-1.918659803602431
 20
-4.559583875868055
 10
-1.918659803602431
 20
-4.559583875868055
 97
        0
 75
     0
 76
     1
 98
        1
 10
0.0
 20
0.0
  0
HATCH
  5
35
330
31
100
AcDbEntity
  8
NAILS
 62
     7
100
AcDbHatch
 10
0.0
 20
0.0
 30
0.0
210
0.0
220
0.0
230
1.0
  2
SOLID
 70
     1
 71
     0
 91
        2
 92
       16
 93
        1
 72
     4
 94
        3
 73
     0
 74
     0
 95
       14
 96
       10
 40
0.0
 40
0.0
 40
0.0
 40
0.0
 40
1.0
 40
1.0
 40
1.0
 40
2.0
 40
2.0
 40
2.0
 40
3.0
 40
3.0
 40
3.0
 40
3.0
 10
-1.116986083984375
 20
-6.125896538628472
 10
-0.9027011447482638
 20
-6.112632921006944
 10
-0.7042636447482639
 20
-6.022715928819444
 10
-0.7042636447482639
 20
-5.739529079861111
 10
-0.7042636447482639
 20
-5.525244140625
 10
-0.9027011447482638
 20
-5.355917697482639
 10
-1.116986083984375
 20
-5.355917697482639
 10
-1.116986083984375
 20
-5.355917697482639
 10
-1.116986083984375
 20
-6.125896538628472
 10
-1.116986083984375
 20
-6.125896538628472
 97
        0
 92
        1
 93
        1
 72
     4
 94
        3
 73
     0
 74
     0
 95
       32
 96
       28
 40
0.0
 40
0.0
 40
0.0
 40
0.0
 40
1.0
 40
1.0
 40
1.0
 40
2.0
 40
2.0
 40
2.0
 40
3.0
 40
3.0
 40
3.0
 40
4.0
 40
4.0
 40
4.0
 40
5.0
 40
5.0
 40
5.0
 40
6.0
 40
6.0
 40
6.0
 40
7.0
 40
7.0
 40
7.0
 40
8.0
 40
8.0
 40
8.0
 40
9.0
 40
9.0
 40
9.0
 40
9.0
 10
-1.484750027126736
 20
-6.348105197482639
 10
-1.550895860460069
 20
-6.340181477864583
 10
-1.746749538845486
 20
-6.276619466145832
 10
-1.863021511501736
 20
-6.101953125
 10
-1.905396185980903
 20
-6.038563368055555
 10
-1.958278401692708
 20
-5.948474121093749
 10
-1.958278401692708
 20
-5.726265462239583
 10
-1.958278401692708
 20
-5.337314181857638
 10
-1.664584011501736
 20
-5.107181803385417
 10
-1.265125189887153
 20
-5.107181803385417
 10
-0.8365553114149305
 20
-5.107181803385417
 10
-0.4951463487413194
 20
-5.313543023003472
 10
-0.4951463487413194
 20
-5.771223958333333
 10
-0.4951463487413194
 20
-6.170855034722222
 10
-0.8126118977864583
 20
-6.366536458333333
 10
-1.302159966362847
 20
-6.366536458333333
 10
-1.302159966362847
 20
-6.366536458333333
 10
-1.302159966362847
 20
-5.355917697482639
 10
-1.302159966362847
 20
-5.355917697482639
 10
-1.590514458550347
 20
-5.355917697482639
 10
-1.757257080078125
 20
-5.490793185763889
 10
-1.757257080078125
 20
-5.758132595486111
 10
-1.757257080078125
 20
-5.977585177951388
 10
-1.587930636935764
 20
-6.107293023003471
 10
-1.484750027126736
 20
-6.115216742621527
 10
-1.484750027126736
 20
-6.115216742621527
 10
-1.484750027126736
 20
-6.348105197482639
 10
-1.484750027126736
 20
-6.348105197482639
 97
        0
 75
     0
 76
     1
 98
        1
 10
0.0
 20
0.0
  0
HATCH
  5
34
330
31
100
AcDbEntity
  8
NAILS
 62
     7
100
AcDbHatch
 10
0.0
 20
0.0
 30
0.0
210
0.0
220
0.0
230
1.0
  2
SOLID
 70
     1
 71
     0
 91
        4
 92
       16
 93
        1
 72
     4
 94
        3
 73
     0
 74
     0
 95
       20
 96
       16
 40
0.0
 40
0.0
 40
0.0
 40
0.0
 40
1.0
 40
1.0
 40
1.0
 40
2.0
 40
2.0
 40
2.0
 40
3.0
 40
3.0
 40
3.0
 40
4.0
 40
4.0
 40
4.0
 40
5.0
 40
5.0
 40
5.0
 40
5.0
 10
-0.1454691569010417
 20
-7.420391167534722
 10
-0.1454691569010417
 20
-7.524088541666666
 10
-0.1380622016059028
 20
-7.616761610243055
 10
-0.0138665093315972
 20
-7.616761610243055
 10
0.086041259765625
 20
-7.616761610243055
 10
0.104644775390625
 20
-7.525983344184027
 10
0.104644775390625
 20
-7.440717230902777
 10
0.104644775390625
 20
-7.440717230902777
 10
0.104644775390625
 20
-7.274146864149305
 10
0.104644775390625
 20
-7.274146864149305
 10
0.104644775390625
 20
-7.274146864149305
 10
-0.1454691569010417
 20
-7.274146864149305
 10
-0.1454691569010417
 20
-7.274146864149305
 10
-0.1454691569010417
 20
-7.274146864149305
 10
-0.1454691569010417
 20
-7.420391167534722
 10
-0.1454691569010417
 20
-7.420391167534722
 97
        0
 92
        1
 93
        1
 72
     4
 94
        3
 73
     0
 74
     0
 95
       35
 96
       31
 40
0.0
 40
0.0
 40
0.0
 40
0.0
 40
1.0
 40
1.0
 40
1.0
 40
2.0
 40
2.0
 40
2.0
 40
3.0
 40
3.0
 40
3.0
 40
4.0
 40
4.0
 40
4.0
 40
5.0
 40
5.0
 40
5.0
 40
6.0
 40
6.0
 40
6.0
 40
7.0
 40
7.0
 40
7.0
 40
8.0
 40
8.0
 40
8.0
 40
9.0
 40
9.0
 40
9.0
 40
10.0
 40
10.0
 40
10.0
 40
10.0
 10
-0.5991882324218749
 20
-7.274146864149305
 10
-0.5991882324218749
 20
-7.274146864149305
 10
-0.5991882324218749
 20
-7.15184597439236
 10
-0.5991882324218749
 20
-7.15184597439236
 10
-0.5991882324218749
 20
-7.15184597439236
 10
0.2083421495225694
 20
-7.15184597439236
 10
0.2083421495225694
 20
-7.15184597439236
 10
0.2083421495225694
 20
-7.15184597439236
 10
0.2083421495225694
 20
-7.459320746527777
 10
0.2083421495225694
 20
-7.459320746527777
 10
0.2083421495225694
 20
-7.650006781684027
 10
0.1378899468315972
 20
-7.744574652777777
 10
-0.0212734646267361
 20
-7.744574652777777
 10
-0.1657952202690972
 20
-7.744574652777777
 10
-0.2288404676649306
 20
-7.653796386718749
 10
-0.2436543782552083
 20
-7.535285101996527
 10
-0.2436543782552083
 20
-7.535285101996527
 10
-0.5991882324218749
 20
-7.764900716145832
 10
-0.5991882324218749
 20
-7.764900716145832
 10
-0.5991882324218749
 20
-7.764900716145832
 10
-0.5991882324218749
 20
-7.627785915798611
 10
-0.5991882324218749
 20
-7.627785915798611
 10
-0.5991882324218749
 20
-7.627785915798611
 10
-0.2491665310329861
 20
-7.414879014756944
 10
-0.2491665310329861
 20
-7.414879014756944
 10
-0.2491665310329861
 20
-7.414879014756944
 10
-0.2491665310329861
 20
-7.274146864149305
 10
-0.2491665310329861
 20
-7.274146864149305
 10
-0.2491665310329861
 20
-7.274146864149305
 10
-0.5991882324218749
 20
-7.274146864149305
 10
-0.5991882324218749
 20
-7.274146864149305
 97
        0
 92
       16
 93
        1
 72
     4
 94
        3
 73
     0
 74
     0
 95
       17
 96
       13
 40
0.0
 40
0.0
 40
0.0
 40
0.0
 40
1.0
 40
1.0
 40
1.0
 40
2.0
 40
2.0
 40
2.0
 40
3.0
 40
3.0
 40
3.0
 40
4.0
 40
4.0
 40
4.0
 40
4.0
 10
-0.7788499620225694
 20
-7.422285970052083
 10
-0.7788499620225694
 20
-7.739062499999999
 10
-0.5306308322482638
 20
-7.98900417751736
 10
-0.1935282389322917
 20
-7.98900417751736
 10
0.1378899468315972
 20
-7.98900417751736
 10
0.3880038791232638
 20
-7.739062499999999
 10
0.3880038791232638
 20
-7.422285970052083
 10
0.3880038791232638
 20
-7.10189208984375
 10
0.1378899468315972
 20
-6.851778157552083
 10
-0.1935282389322917
 20
-6.851778157552083
 10
-0.5306308322482638
 20
-6.851778157552083
 10
-0.7788499620225694
 20
-7.10189208984375
 10
-0.7788499620225694
 20
-7.422285970052083
 97
        0
 92
        1
 93
        1
 72
     4
 94
        3
 73
     0
 74
     0
 95
       17
 96
       13
 40
0.0
 40
0.0
 40
0.0
 40
0.0
 40
1.0
 40
1.0
 40
1.0
 40
2.0
 40
2.0
 40
2.0
 40
3.0
 40
3.0
 40
3.0
 40
4.0
 40
4.0
 40
4.0
 40
4.0
 10
-0.1935282389322917
 20
-6.711046006944444
 10
0.2083421495225694
 20
-6.711046006944444
 10
0.5046203613281249
 20
-7.037124294704861
 10
0.5046203613281249
 20
-7.422285970052083
 10
0.5046203613281249
 20
-7.803830295138888
 10
0.2083421495225694
 20
-8.129736328124999
 10
-0.1935282389322917
 20
-8.129736328124999
 10
-0.5991882324218749
 20
-8.129736328124999
 10
-0.8954664442274305
 20
-7.803830295138888
 10
-0.8954664442274305
 20
-7.422285970052083
 10
-0.8954664442274305
 20
-7.037124294704861
 10
-0.5991882324218749
 20
-6.711046006944444
 10
-0.1935282389322917
 20
-6.711046006944444
 97
        0
 75
     0
 76
     1
 98
        1
 10
0.0
 20
0.0
  0
ENDBLK
  5
46
330
31
100
AcDbEntity
  8
NAILS
100
AcDbBlockEnd
  0
BLOCK
  5
49
330
47
100
AcDbEntity
  8
NAILS
 62
     7
100
AcDbBlockBegin
  2
AI9-BLK3
 70
     0
 10
0.0
 20
0.0
 30
0.0
  3
AI9-BLK3
  1

  4

  0
HATCH
  5
4F
330
47
100
AcDbEntity
  8
NAILS
 62
     7
100
AcDbHatch
 10
0.0
 20
0.0
 30
0.0
210
0.0
220
0.0
230
1.0
  2
SOLID
 70
     1
 71
     0
 91
        1
 92
        1
 93
        1
 72
     4
 94
        3
 73
     0
 74
     0
 95
       26
 96
       22
 40
0.0
 40
0.0
 40
0.0
 40
0.0
 40
1.0
 40
1.0
 40
1.0
 40
2.0
 40
2.0
 40
2.0
 40
3.0
 40
3.0
 40
3.0
 40
4.0
 40
4.0
 40
4.0
 40
5.0
 40
5.0
 40
5.0
 40
6.0
 40
6.0
 40
6.0
 40
7.0
 40
7.0
 40
7.0
 40
7.0
 10
-8.038096788194444
 20
1.070563422309028
 10
-8.038096788194444
 20
1.070563422309028
 10
-8.997900390624999
 20
1.070563422309028
 10
-8.997900390624999
 20
1.070563422309028
 10
-8.997900390624999
 20
1.070563422309028
 10
-8.997900390624999
 20
1.4603759765625
 10
-8.997900390624999
 20
1.4603759765625
 10
-8.355734592013889
 20
1.472261555989583
 10
-8.001923285590276
 20
1.592323133680555
 10
-7.929920789930555
 20
2.293916829427083
 10
-7.929920789930555
 20
2.293916829427083
 10
-7.540280490451388
 20
2.293916829427083
 10
-7.540280490451388
 20
2.293916829427083
 10
-7.540280490451388
 20
2.293916829427083
 10
-7.540280490451388
 20
-2.203999837239583
 10
-7.540280490451388
 20
-2.203999837239583
 10
-7.540280490451388
 20
-2.203999837239583
 10
-8.038096788194444
 20
-2.203999837239583
 10
-8.038096788194444
 20
-2.203999837239583
 10
-8.038096788194444
 20
-2.203999837239583
 10
-8.038096788194444
 20
1.070563422309028
 10
-8.038096788194444
 20
1.070563422309028
 97
        0
 75
     0
 76
     1
 98
        1
 10
0.0
 20
0.0
  0
HATCH
  5
4E
330
47
100
AcDbEntity
  8
NAILS
 62
     7
100
AcDbHatch
 10
0.0
 20
0.0
 30
0.0
210
0.0
220
0.0
230
1.0
  2
SOLID
 70
     1
 71
     0
 91
        2
 92
       16
 93
        1
 72
     4
 94
        3
 73
     0
 74
     0
 95
       17
 96
       13
 40
0.0
 40
0.0
 40
0.0
 40
0.0
 40
1.0
 40
1.0
 40
1.0
 40
2.0
 40
2.0
 40
2.0
 40
3.0
 40
3.0
 40
3.0
 40
4.0
 40
4.0
 40
4.0
 40
4.0
 10
-5.401909722222221
 20
-1.843987358940972
 10
-4.658802625868055
 20
-1.843987358940972
 10
-4.688430447048611
 20
-0.77669677734375
 10
-4.688430447048611
 20
0.0869886610243056
 10
-4.688430447048611
 20
0.7226087782118055
 10
-4.622284613715277
 20
1.790243869357639
 10
-5.401909722222221
 20
1.844159613715278
 10
-6.193592664930555
 20
1.892218695746528
 10
-6.109876844618055
 20
0.5007446289062499
 10
-6.109876844618055
 20
0.0869886610243056
 10
-6.109876844618055
 20
-0.77669677734375
 10
-6.22942165798611
 20
-1.843987358940972
 10
-5.401909722222221
 20
-1.843987358940972
 97
        0
 92
        1
 93
        1
 72
     4
 94
        3
 73
     0
 74
     0
 95
       17
 96
       13
 40
0.0
 40
0.0
 40
0.0
 40
0.0
 40
1.0
 40
1.0
 40
1.0
 40
2.0
 40
2.0
 40
2.0
 40
3.0
 40
3.0
 40
3.0
 40
4.0
 40
4.0
 40
4.0
 40
4.0
 10
-6.625607638888888
 20
0.0087849934895833
 10
-6.625607638888888
 20
0.8486992730034721
 10
-6.571519639756944
 20
2.293916829427083
 10
-5.401909722222221
 20
2.293916829427083
 10
-4.142727322048611
 20
2.293916829427083
 10
-4.172355143229166
 20
0.8666137695312499
 10
-4.172355143229166
 20
0.0087849934895833
 10
-4.172355143229166
 20
-1.010618760850694
 10
-4.226787651909722
 20
-2.293916829427083
 10
-5.401909722222221
 20
-2.293916829427083
 10
-6.601836480034722
 20
-2.293916829427083
 10
-6.625607638888888
 20
-0.7884101019965277
 10
-6.625607638888888
 20
0.0087849934895833
 97
        0
 75
     0
 76
     1
 98
        1
 10
0.0
 20
0.0
  0
HATCH
  5
4D
330
47
100
AcDbEntity
  8
NAILS
 62
     7
100
AcDbHatch
 10
0.0
 20
0.0
 30
0.0
210
0.0
220
0.0
230
1.0
  2
SOLID
 70
     1
 71
     0
 91
        1
 92
        1
 93
        1
 72
     4
 94
        3
 73
     0
 74
     0
 95
       17
 96
       13
 40
0.0
 40
0.0
 40
0.0
 40
0.0
 40
1.0
 40
1.0
 40
1.0
 40
2.0
 40
2.0
 40
2.0
 40
3.0
 40
3.0
 40
3.0
 40
4.0
 40
4.0
 40
4.0
 40
4.0
 10
-2.345421006944444
 20
-0.5548326280381944
 10
-2.345421006944444
 20
-0.5548326280381944
 10
-2.345421006944444
 20
-0.0570163302951389
 10
-2.345421006944444
 20
-0.0570163302951389
 10
-2.345421006944444
 20
-0.0570163302951389
 10
-0.8881456163194443
 20
-0.0570163302951389
 10
-0.8881456163194443
 20
-0.0570163302951389
 10
-0.8881456163194443
 20
-0.0570163302951389
 10
-0.8881456163194443
 20
-0.5548326280381944
 10
-0.8881456163194443
 20
-0.5548326280381944
 10
-0.8881456163194443
 20
-0.5548326280381944
 10
-2.345421006944444
 20
-0.5548326280381944
 10
-2.345421006944444
 20
-0.5548326280381944
 97
        0
 75
     0
 76
     1
 98
        1
 10
0.0
 20
0.0
  0
HATCH
  5
4C
330
47
100
AcDbEntity
  8
NAILS
 62
     7
100
AcDbHatch
 10
0.0
 20
0.0
 30
0.0
210
0.0
220
0.0
230
1.0
  2
SOLID
 70
     1
 71
     0
 91
        1
 92
        1
 93
        1
 72
     4
 94
        3
 73
     0
 74
     0
 95
       26
 96
       22
 40
0.0
 40
0.0
 40
0.0
 40
0.0
 40
1.0
 40
1.0
 40
1.0
 40
2.0
 40
2.0
 40
2.0
 40
3.0
 40
3.0
 40
3.0
 40
4.0
 40
4.0
 40
4.0
 40
5.0
 40
5.0
 40
5.0
 40
6.0
 40
6.0
 40
6.0
 40
7.0
 40
7.0
 40
7.0
 40
7.0
 10
1.720136176215278
 20
1.070563422309028
 10
1.720136176215278
 20
1.070563422309028
 10
0.7606770833333333
 20
1.070563422309028
 10
0.7606770833333333
 20
1.070563422309028
 10
0.7606770833333333
 20
1.070563422309028
 10
0.7606770833333333
 20
1.4603759765625
 10
0.7606770833333333
 20
1.4603759765625
 10
1.402153862847222
 20
1.472261555989583
 10
1.755965169270833
 20
1.592323133680555
 10
1.827967664930555
 20
2.293916829427083
 10
1.827967664930555
 20
2.293916829427083
 10
2.217607964409722
 20
2.293916829427083
 10
2.217607964409722
 20
2.293916829427083
 10
2.217607964409722
 20
2.293916829427083
 10
2.217607964409722
 20
-2.203999837239583
 10
2.217607964409722
 20
-2.203999837239583
 10
2.217607964409722
 20
-2.203999837239583
 10
1.720136176215278
 20
-2.203999837239583
 10
1.720136176215278
 20
-2.203999837239583
 10
1.720136176215278
 20
-2.203999837239583
 10
1.720136176215278
 20
1.070563422309028
 10
1.720136176215278
 20
1.070563422309028
 97
        0
 75
     0
 76
     1
 98
        1
 10
0.0
 20
0.0
  0
HATCH
  5
4B
330
47
100
AcDbEntity
  8
NAILS
 62
     7
100
AcDbHatch
 10
0.0
 20
0.0
 30
0.0
210
0.0
220
0.0
230
1.0
  2
SOLID
 70
     1
 71
     0
 91
        2
 92
       16
 93
        1
 72
     4
 94
        3
 73
     0
 74
     0
 95
       17
 96
       13
 40
0.0
 40
0.0
 40
0.0
 40
0.0
 40
1.0
 40
1.0
 40
1.0
 40
2.0
 40
2.0
 40
2.0
 40
3.0
 40
3.0
 40
3.0
 40
4.0
 40
4.0
 40
4.0
 40
4.0
 10
4.355978732638889
 20
-1.843987358940972
 10
5.099774848090277
 20
-1.843987358940972
 10
5.069802517361111
 20
-0.77669677734375
 10
5.069802517361111
 20
0.0869886610243056
 10
5.069802517361111
 20
0.7226087782118055
 10
5.135948350694444
 20
1.790243869357639
 10
4.355978732638889
 20
1.844159613715278
 10
3.564295789930555
 20
1.892218695746528
 10
3.648356119791667
 20
0.5007446289062499
 10
3.648356119791667
 20
0.0869886610243056
 10
3.648356119791667
 20
-0.77669677734375
 10
3.528466796875
 20
-1.843987358940972
 10
4.355978732638889
 20
-1.843987358940972
 97
        0
 92
        1
 93
        1
 72
     4
 94
        3
 73
     0
 74
     0
 95
       17
 96
       13
 40
0.0
 40
0.0
 40
0.0
 40
0.0
 40
1.0
 40
1.0
 40
1.0
 40
2.0
 40
2.0
 40
2.0
 40
3.0
 40
3.0
 40
3.0
 40
4.0
 40
4.0
 40
4.0
 40
4.0
 10
3.132625325520833
 20
0.0087849934895833
 10
3.132625325520833
 20
0.8486992730034721
 10
3.186368815104166
 20
2.293916829427083
 10
4.355978732638889
 20
2.293916829427083
 10
5.615505642361111
 20
2.293916829427083
 10
5.585188802083333
 20
0.8666137695312499
 10
5.585188802083333
 20
0.0087849934895833
 10
5.585188802083333
 20
-1.010618760850694
 10
5.53178982204861
 20
-2.293916829427083
 10
4.355978732638889
 20
-2.293916829427083
 10
3.156396484375
 20
-2.293916829427083
 10
3.132625325520833
 20
-0.7884101019965277
 10
3.132625325520833
 20
0.0087849934895833
 97
        0
 75
     0
 76
     1
 98
        1
 10
0.0
 20
0.0
  0
HATCH
  5
4A
330
47
100
AcDbEntity
  8
NAILS
 62
     7
100
AcDbHatch
 10
0.0
 20
0.0
 30
0.0
210
0.0
220
0.0
230
1.0
  2
SOLID
 70
     1
 71
     0
 91
        2
 92
       16
 93
        1
 72
     4
 94
        3
 73
     0
 74
     0
 95
       20
 96
       16
 40
0.0
 40
0.0
 40
0.0
 40
0.0
 40
1.0
 40
1.0
 40
1.0
 40
2.0
 40
2.0
 40
2.0
 40
3.0
 40
3.0
 40
3.0
 40
4.0
 40
4.0
 40
4.0
 40
5.0
 40
5.0
 40
5.0
 40
5.0
 10
8.52385525173611
 20
-0.4828301323784722
 10
8.52385525173611
 20
-0.0270439995659722
 10
8.511797417534721
 20
0.8185546874999999
 10
7.876521809895833
 20
0.8185546874999999
 10
7.480680338541666
 20
0.8185546874999999
 10
7.222642686631944
 20
0.50694580078125
 10
7.222642686631944
 20
-0.5190036349826388
 10
7.222642686631944
 20
-1.238339572482639
 10
7.246413845486111
 20
-1.892218695746528
 10
7.894091796874999
 20
-1.892218695746528
 10
8.386395941840277
 20
-1.892218695746528
 10
8.52385525173611
 20
-1.274168565538194
 10
8.52385525173611
 20
-0.8965861002604166
 10
8.52385525173611
 20
-0.8965861002604166
 10
8.52385525173611
 20
-0.4828301323784722
 10
8.52385525173611
 20
-0.4828301323784722
 97
        0
 92
        1
 93
        1
 72
     4
 94
        3
 73
     0
 74
     0
 95
       38
 96
       34
 40
0.0
 40
0.0
 40
0.0
 40
0.0
 40
1.0
 40
1.0
 40
1.0
 40
2.0
 40
2.0
 40
2.0
 40
3.0
 40
3.0
 40
3.0
 40
4.0
 40
4.0
 40
4.0
 40
5.0
 40
5.0
 40
5.0
 40
6.0
 40
6.0
 40
6.0
 40
7.0
 40
7.0
 40
7.0
 40
8.0
 40
8.0
 40
8.0
 40
9.0
 40
9.0
 40
9.0
 40
10.0
 40
10.0
 40
10.0
 40
11.0
 40
11.0
 40
11.0
 40
11.0
 10
8.52385525173611
 20
2.293916829427083
 10
8.52385525173611
 20
2.293916829427083
 10
8.997900390624999
 20
2.293916829427083
 10
8.997900390624999
 20
2.293916829427083
 10
8.997900390624999
 20
2.293916829427083
 10
8.997900390624999
 20
-2.203999837239583
 10
8.997900390624999
 20
-2.203999837239583
 10
8.997900390624999
 20
-2.203999837239583
 10
8.5421142578125
 20
-2.203999837239583
 10
8.5421142578125
 20
-2.203999837239583
 10
8.5421142578125
 20
-2.203999837239583
 10
8.5421142578125
 20
-1.766128200954861
 10
8.5421142578125
 20
-1.766128200954861
 10
8.5421142578125
 20
-1.766128200954861
 10
8.530400933159722
 20
-1.766128200954861
 10
8.530400933159722
 20
-1.766128200954861
 10
8.326106770833333
 20
-2.161969672309028
 10
8.122157118055554
 20
-2.293916829427083
 10
7.720458984374999
 20
-2.293916829427083
 10
6.671082899305555
 20
-2.293916829427083
 10
6.754798719618055
 20
-0.8245836046006944
 10
6.743085394965277
 20
-0.5307169596354167
 10
6.7065673828125
 20
0.4470011393229166
 10
7.031095377604166
 20
1.220425075954861
 10
7.744230143229166
 20
1.220425075954861
 10
8.086328125
 20
1.220425075954861
 10
8.290277777777778
 20
1.076592339409722
 10
8.511797417534721
 20
0.7887546115451388
 10
8.511797417534721
 20
0.7887546115451388
 10
8.52385525173611
 20
0.7887546115451388
 10
8.52385525173611
 20
0.7887546115451388
 10
8.52385525173611
 20
0.7887546115451388
 10
8.52385525173611
 20
2.293916829427083
 10
8.52385525173611
 20
2.293916829427083
 97
        0
 75
     0
 76
     1
 98
        1
 10
0.0
 20
0.0
  0
ENDBLK
  5
50
330
47
100
AcDbEntity
  8
NAILS
100
AcDbBlockEnd
  0
BLOCK
  5
53
330
51
100
AcDbEntity
  8
NAILS
 62
     7
100
AcDbBlockBegin
  2
AI9-BLK4
 70
     0
 10
0.0
 20
0.0
 30
0.0
  3
AI9-BLK4
  1

  4

  0
LWPOLYLINE
  5
55
330
51
100
AcDbEntity
  8
NAILS
 62
     7
100
AcDbPolyline
 90
        3
 70
     0
 43
0.0
 10
-12.00133463541667
 20
-2.217091200086805
 10
8.98894314236111
 20
2.721797688802083
 10
14.28060980902778
 20
2.721797688802083
  0
HATCH
  5
54
330
51
100
AcDbEntity
  8
NAILS
 62
     7
100
AcDbHatch
 10
0.0
 20
0.0
 30
0.0
210
0.0
220
0.0
230
1.0
  2
SOLID
 70
     1
 71
     0
 91
        1
 92
        3
 72
     0
 73
     1
 93
        3
 10
-11.66474880642361
 20
-1.358228895399305
 10
-14.28060980902778
 20
-2.763138834635416
 10
-11.31300455729167
 20
-2.85408935546875
 97
        0
 75
     0
 76
     1
 98
        1
 10
0.0
 20
0.0
  0
ENDBLK
  5
5A
330
51
100
AcDbEntity
  8
NAILS
100
AcDbBlockEnd
  0
BLOCK
  5
5D
330
5B
100
AcDbEntity
  8
NAILS
 62
     7
100
AcDbBlockBegin
  2
AI9-BLK5
 70
     0
 10
0.0
 20
0.0
 30
0.0
  3
AI9-BLK5
  1

  4

  0
INSERT
  5
60
330
5B
100
AcDbEntity
  8
NAILS
 62
     7
100
AcDbBlockReference
  2
AI9-BLK6
 10
0.0
 20
0.0
 30
0.0
  0
HATCH
  5
5E
330
5B
100
AcDbEntity
  8
NAILS
 62
     7
100
AcDbHatch
 10
0.0
 20
0.0
 30
0.0
210
0.0
220
0.0
230
1.0
  2
SOLID
 70
     1
 71
     0
 91
        1
 92
        3
 72
     0
 73
     1
 93
        3
 10
-7.530806477864583
 20
-0.5653401692708333
 10
-10.12186279296875
 20
-2.016758897569444
 10
-7.152534993489582
 20
-2.054999457465278
 97
        0
 75
     0
 76
     1
 98
        1
 10
0.0
 20
0.0
  0
ENDBLK
  5
69
330
5B
100
AcDbEntity
  8
NAILS
100
AcDbBlockEnd
  0
BLOCK
  5
61
330
5F
100
AcDbEntity
  8
NAILS
 62
     7
100
AcDbBlockBegin
  2
AI9-BLK6
 70
     0
 10
0.0
 20
0.0
 30
0.0
  3
AI9-BLK6
  1

  4

  0
LWPOLYLINE
  5
63
330
5F
100
AcDbEntity
  8
NAILS
 62
     7
100
AcDbPolyline
 90
        3
 70
     0
 43
0.0
 10
-7.851889377170139
 20
-1.430403645833333
 10
5.712140570746527
 20
1.922707790798611
 10
10.12186279296875
 20
1.922707790798611
  0
HATCH
  5
62
330
5F
100
AcDbEntity
  8
NAILS
 62
     7
100
AcDbHatch
 10
0.0
 20
0.0
 30
0.0
210
0.0
220
0.0
230
1.0
  2
SOLID
 70
     1
 71
     0
 91
        1
 92
        3
 72
     0
 73
     1
 93
        3
 10
-7.530806477864583
 20
-0.5653401692708333
 10
-10.12186279296875
 20
-2.016758897569444
 10
-7.152534993489582
 20
-2.054999457465278
 97
        0
 75
     0
 76
     1
 98
        1
 10
0.0
 20
0.0
  0
ENDBLK
  5
68
330
5F
100
AcDbEntity
  8
NAILS
100
AcDbBlockEnd
  0
BLOCK
  5
CA
330
C8
100
AcDbEntity
  8
NAILS
 62
     7
100
AcDbBlockBegin
  2
AI9-BLK7
 70
     0
 10
0.0
 20
0.0
 30
0.0
  3
AI9-BLK7
  1

  4

  0
SPLINE
  5
D0
330
C8
100
AcDbEntity
  8
NAILS
 62
     7
100
AcDbSpline
210
0.0
220
0.0
230
1.0
 70
     8
 71
     3
 72
    23
 73
    19
 74
     0
 42
0.0000000001
 43
0.0000000001
 40
0.0
 40
0.0
 40
0.0
 40
0.0
 40
1.0
 40
1.0
 40
1.0
 40
2.0
 40
2.0
 40
2.0
 40
3.0
 40
3.0
 40
3.0
 40
4.0
 40
4.0
 40
4.0
 40
5.0
 40
5.0
 40
5.0
 40
6.0
 40
6.0
 40
6.0
 40
6.0
 10
2.089794921875
 20
7.135223388671874
 30
0.0
 10
2.089794921875
 20
7.135223388671874
 30
0.0
 10
2.310281032986111
 20
7.576195610894096
 30
0.0
 10
1.869308810763889
 20
7.928973388671874
 30
0.0
 10
1.869308810763889
 20
7.928973388671874
 30
0.0
 10
1.207850477430555
 20
8.193556722005207
 30
0.0
 10
0.9873643663194444
 20
7.620292833116319
 30
0.0
 10
0.9873643663194444
 20
7.620292833116319
 30
0.0
 10
-2.143538411458333
 20
-1.463734944661458
 30
0.0
 10
-2.143538411458333
 20
-1.463734944661458
 30
0.0
 10
-2.143538411458333
 20
-1.463734944661458
 30
0.0
 10
-2.143538411458333
 20
-7.46095716688368
 30
0.0
 10
-2.143538411458333
 20
-7.46095716688368
 30
0.0
 10
-2.143538411458333
 20
-7.46095716688368
 30
0.0
 10
-2.055343967013889
 20
-8.122415500217013
 30
0.0
 10
-1.614371744791667
 20
-7.990123833550347
 30
0.0
 10
-1.614371744791667
 20
-7.990123833550347
 30
0.0
 10
-1.041107855902778
 20
-8.034221055772569
 30
0.0
 10
-0.9529134114583332
 20
-7.593248833550347
 30
0.0
  0
LINE
  5
CF
330
C8
100
AcDbEntity
  8
NAILS
 62
     7
100
AcDbLine
 10
1.316026475694444
 20
4.970325385199653
 30
0.0
 11
1.888601345486111
 21
6.53853285047743
 31
0.0
  0
LINE
  5
CE
330
C8
100
AcDbEntity
  8
NAILS
 62
     7
100
AcDbLine
 10
0.2129069010416667
 20
1.690594482421875
 30
0.0
 11
1.004934353298611
 21
4.043594699435763
 31
0.0
  0
LINE
  5
CD
330
C8
100
AcDbEntity
  8
NAILS
 62
     7
100
AcDbLine
 10
-0.6986653645833333
 20
-1.018628607855903
 30
0.0
 11
-0.1074869791666667
 21
0.739059109157986
 31
0.0
  0
LINE
  5
CC
330
C8
100
AcDbEntity
  8
NAILS
 62
     7
100
AcDbLine
 10
-0.9529134114583332
 20
-3.756790500217014
 30
0.0
 11
-0.9529134114583332
 21
-2.345679389105903
 31
0.0
  0
LINE
  5
CB
330
C8
100
AcDbEntity
  8
NAILS
 62
     7
100
AcDbLine
 10
-0.9529134114583332
 20
-6.623109944661458
 30
0.0
 11
-0.9529134114583332
 21
-5.211998833550346
 31
0.0
  0
ENDBLK
  5
D1
330
C8
100
AcDbEntity
  8
NAILS
100
AcDbBlockEnd
  0
BLOCK
  5
D4
330
D2
100
AcDbEntity
  8
NAILS
 62
     7
100
AcDbBlockBegin
  2
AI9-BLK8
 70
     0
 10
0.0
 20
0.0
 30
0.0
  3
AI9-BLK8
  1

  4

  0
SPLINE
  5
DA
330
D2
100
AcDbEntity
  8
NAILS
 62
     7
100
AcDbSpline
210
0.0
220
0.0
230
1.0
 70
     8
 71
     3
 72
    23
 73
    19
 74
     0
 42
0.0000000001
 43
0.0000000001
 40
0.0
 40
0.0
 40
0.0
 40
0.0
 40
1.0
 40
1.0
 40
1.0
 40
2.0
 40
2.0
 40
2.0
 40
3.0
 40
3.0
 40
3.0
 40
4.0
 40
4.0
 40
4.0
 40
5.0
 40
5.0
 40
5.0
 40
6.0
 40
6.0
 40
6.0
 40
6.0
 10
2.089794921875
 20
7.135223388671874
 30
0.0
 10
2.089794921875
 20
7.135223388671874
 30
0.0
 10
2.310281032986111
 20
7.576195610894096
 30
0.0
 10
1.869308810763889
 20
7.928973388671874
 30
0.0
 10
1.869308810763889
 20
7.928973388671874
 30
0.0
 10
1.207850477430555
 20
8.193556722005207
 30
0.0
 10
0.9873643663194444
 20
7.620292833116319
 30
0.0
 10
0.9873643663194444
 20
7.620292833116319
 30
0.0
 10
-2.143538411458333
 20
-1.463734944661458
 30
0.0
 10
-2.143538411458333
 20
-1.463734944661458
 30
0.0
 10
-2.143538411458333
 20
-1.463734944661458
 30
0.0
 10
-2.143538411458333
 20
-7.46095716688368
 30
0.0
 10
-2.143538411458333
 20
-7.46095716688368
 30
0.0
 10
-2.143538411458333
 20
-7.46095716688368
 30
0.0
 10
-2.055343967013889
 20
-8.122415500217013
 30
0.0
 10
-1.614371744791667
 20
-7.990123833550347
 30
0.0
 10
-1.614371744791667
 20
-7.990123833550347
 30
0.0
 10
-1.041107855902778
 20
-8.034221055772569
 30
0.0
 10
-0.9529134114583332
 20
-7.593248833550347
 30
0.0
  0
LINE
  5
D9
330
D2
100
AcDbEntity
  8
NAILS
 62
     7
100
AcDbLine
 10
1.316026475694444
 20
4.970325385199653
 30
0.0
 11
1.888601345486111
 21
6.53853285047743
 31
0.0
  0
LINE
  5
D8
330
D2
100
AcDbEntity
  8
NAILS
 62
     7
100
AcDbLine
 10
0.2129069010416667
 20
1.690594482421875
 30
0.0
 11
1.004934353298611
 21
4.043594699435763
 31
0.0
  0
LINE
  5
D7
330
D2
100
AcDbEntity
  8
NAILS
 62
     7
100
AcDbLine
 10
-0.6986653645833333
 20
-1.018628607855903
 30
0.0
 11
-0.1074869791666667
 21
0.739059109157986
 31
0.0
  0
LINE
  5
D6
330
D2
100
AcDbEntity
  8
NAILS
 62
     7
100
AcDbLine
 10
-0.9529134114583332
 20
-3.756790500217014
 30
0.0
 11
-0.9529134114583332
 21
-2.345679389105903
 31
0.0
  0
LINE
  5
D5
330
D2
100
AcDbEntity
  8
NAILS
 62
     7
100
AcDbLine
 10
-0.9529134114583332
 20
-6.623109944661458
 30
0.0
 11
-0.9529134114583332
 21
-5.211998833550346
 31
0.0
  0
ENDBLK
  5
DB
330
D2
100
AcDbEntity
  8
NAILS
100
AcDbBlockEnd
  0
ENDSEC
  0
SECTION
  2
ENTITIES
  0
LWPOLYLINE
  5
183
330
A
100
AcDbEntity
  8
NAILS
 62
     7
100
AcDbPolyline
 90
        3
 70
     0
 43
0.0
 10
107.7339925130208
 20
117.8279500325521
 10
107.7339925130208
 20
105.8071506076389
 10
106.3626722547743
 20
105.8071506076389
  0
LWPOLYLINE
  5
179
330
A
100
AcDbEntity
  8
NAILS
 62
     7
100
AcDbPolyline
 90
        8
 70
     0
 43
0.0
 10
93.39774441189235
 20
105.8071506076389
 10
52.46553141276041
 20
105.8071506076389
 10
52.46553141276041
 20
147.7660020616319
 10
54.58219807942708
 20
149.3850246853299
 10
50.34886474609375
 20
151.1399563259548
 10
52.46553141276041
 20
153.1641221788194
 10
52.46553141276041
 20
190.9478624131944
 10
107.7339925130208
 20
190.9478624131944
  0
LINE
  5
178
330
A
100
AcDbEntity
  8
NAILS
 62
     7
100
AcDbLine
 10
121.3124918619792
 20
142.0250949435764
 30
0.0
 11
121.3124918619792
 21
115.7062879774306
 31
0.0
  0
LINE
  5
177
330
A
100
AcDbEntity
  8
NAILS
 62
     7
100
AcDbLine
 10
121.3124918619792
 20
151.949553765191
 30
0.0
 11
121.3124918619792
 21
142.8133327907986
 31
0.0
  0
LINE
  5
176
330
A
100
AcDbEntity
  8
NAILS
 62
     7
100
AcDbLine
 10
121.3124918619792
 20
178.5238145616319
 30
0.0
 11
121.3124918619792
 21
152.4699354383681
 31
0.0
  0
LINE
  5
175
330
A
100
AcDbEntity
  8
NAILS
 62
     7
100
AcDbLine
 10
100.9385416666667
 20
180.9786173502604
 30
0.0
 11
52.46553141276041
 21
180.9786173502604
 31
0.0
  0
LINE
  5
174
330
A
100
AcDbEntity
  8
NAILS
 62
     7
100
AcDbLine
 10
108.7420274522569
 20
133.3548231336806
 30
0.0
 11
108.7420274522569
 21
191.0817043728299
 31
0.0
  0
LINE
  5
173
330
A
100
AcDbEntity
  8
NAILS
 62
     7
100
AcDbLine
 10
110.8586941189236
 20
175.7715277777778
 30
0.0
 11
110.8586941189236
 21
181.0147908528646
 31
0.0
  0
LINE
  5
172
330
A
100
AcDbEntity
  8
NAILS
 62
     7
100
AcDbLine
 10
110.8586941189236
 20
166.5111111111111
 30
0.0
 11
110.8586941189236
 21
174.7131944444444
 31
0.0
  0
LINE
  5
171
330
A
100
AcDbEntity
  8
NAILS
 62
     7
100
AcDbLine
 10
110.8586941189236
 20
157.6034722222222
 30
0.0
 11
110.8586941189236
 21
165.4529500325521
 31
0.0
  0
LINE
  5
170
330
A
100
AcDbEntity
  8
NAILS
 62
     7
100
AcDbLine
 10
110.8586941189236
 20
149.225
 30
0.0
 11
110.8586941189236
 21
156.633161078559
 31
0.0
  0
LINE
  5
16F
330
A
100
AcDbEntity
  8
NAILS
 62
     7
100
AcDbLine
 10
110.8586941189236
 20
140.0529500325521
 30
0.0
 11
110.8586941189236
 21
148.2548611111111
 31
0.0
  0
LINE
  5
16E
330
A
100
AcDbEntity
  8
NAILS
 62
     7
100
AcDbLine
 10
110.8586941189236
 20
133.2910888671875
 30
0.0
 11
110.8586941189236
 21
139.0826388888889
 31
0.0
  0
LINE
  5
16D
330
A
100
AcDbEntity
  8
NAILS
 62
     7
100
AcDbLine
 10
109.8003607855903
 20
175.6835055881076
 30
0.0
 11
109.8003607855903
 21
180.9694878472222
 31
0.0
  0
LINE
  5
16C
330
A
100
AcDbEntity
  8
NAILS
 62
     7
100
AcDbLine
 10
109.8003607855903
 20
166.5112833658854
 30
0.0
 11
109.8003607855903
 21
174.8013888888889
 31
0.0
  0
LINE
  5
16B
330
A
100
AcDbEntity
  8
NAILS
 62
     7
100
AcDbLine
 10
109.8003607855903
 20
157.6034722222222
 30
0.0
 11
109.8003607855903
 21
165.5409722222222
 31
0.0
  0
LINE
  5
16A
330
A
100
AcDbEntity
  8
NAILS
 62
     7
100
AcDbLine
 10
109.8003607855903
 20
149.3131944444444
 30
0.0
 11
109.8003607855903
 21
156.6335055881076
 31
0.0
  0
LINE
  5
169
330
A
100
AcDbEntity
  8
NAILS
 62
     7
100
AcDbLine
 10
109.8003607855903
 20
139.964411078559
 30
0.0
 11
109.8003607855903
 21
148.2548611111111
 31
0.0
  0
LINE
  5
168
330
A
100
AcDbEntity
  8
NAILS
 62
     7
100
AcDbLine
 10
109.8003607855903
 20
133.2910888671875
 30
0.0
 11
109.8003607855903
 21
139.1710055881076
 31
0.0
  0
LINE
  5
167
330
A
100
AcDbEntity
  8
NAILS
 62
     7
100
AcDbLine
 10
111.9170274522569
 20
175.7713555230035
 30
0.0
 11
111.9170274522569
 21
180.8787095811632
 31
0.0
  0
LINE
  5
166
330
A
100
AcDbEntity
  8
NAILS
 62
     7
100
AcDbLine
 10
111.9170274522569
 20
166.4229166666667
 30
0.0
 11
111.9170274522569
 21
174.7131944444444
 31
0.0
  0
LINE
  5
165
330
A
100
AcDbEntity
  8
NAILS
 62
     7
100
AcDbLine
 10
111.9170274522569
 20
157.6032999674479
 30
0.0
 11
111.9170274522569
 21
165.4527777777778
 31
0.0
  0
LINE
  5
164
330
A
100
AcDbEntity
  8
NAILS
 62
     7
100
AcDbLine
 10
111.9170274522569
 20
149.225
 30
0.0
 11
111.9170274522569
 21
156.633161078559
 31
0.0
  0
LINE
  5
163
330
A
100
AcDbEntity
  8
NAILS
 62
     7
100
AcDbLine
 10
111.9170274522569
 20
139.9647555881076
 30
0.0
 11
111.9170274522569
 21
148.2550333658854
 31
0.0
  0
LINE
  5
162
330
A
100
AcDbEntity
  8
NAILS
 62
     7
100
AcDbLine
 10
111.9170274522569
 20
133.4085666232639
 30
0.0
 11
111.9170274522569
 21
138.9942721896701
 31
0.0
  0
LINE
  5
161
330
A
100
AcDbEntity
  8
NAILS
 62
     7
100
AcDbLine
 10
112.9753607855903
 20
175.6833333333333
 30
0.0
 11
112.9753607855903
 21
180.8787095811632
 31
0.0
  0
LINE
  5
160
330
A
100
AcDbEntity
  8
NAILS
 62
     7
100
AcDbLine
 10
112.9753607855903
 20
166.3347222222222
 30
0.0
 11
112.9753607855903
 21
174.8895833333333
 31
0.0
  0
LINE
  5
15F
330
A
100
AcDbEntity
  8
NAILS
 62
     7
100
AcDbLine
 10
112.9753607855903
 20
157.6032999674479
 30
0.0
 11
112.9753607855903
 21
165.4527777777778
 31
0.0
  0
LINE
  5
15E
330
A
100
AcDbEntity
  8
NAILS
 62
     7
100
AcDbLine
 10
112.9753607855903
 20
149.225
 30
0.0
 11
112.9753607855903
 21
156.633161078559
 31
0.0
  0
LINE
  5
15D
330
A
100
AcDbEntity
  8
NAILS
 62
     7
100
AcDbLine
 10
112.9753607855903
 20
139.9647555881076
 30
0.0
 11
112.9753607855903
 21
148.2550333658854
 31
0.0
  0
LINE
  5
15C
330
A
100
AcDbEntity
  8
NAILS
 62
     7
100
AcDbLine
 10
112.9753607855903
 20
133.2910888671875
 30
0.0
 11
112.9753607855903
 21
138.9942721896701
 31
0.0
  0
LINE
  5
15B
330
A
100
AcDbEntity
  8
NAILS
 62
     7
100
AcDbLine
 10
114.0336941189236
 20
175.6833333333333
 30
0.0
 11
114.0336941189236
 21
180.9241848415799
 31
0.0
  0
LINE
  5
15A
330
A
100
AcDbEntity
  8
NAILS
 62
     7
100
AcDbLine
 10
114.0336941189236
 20
166.423088921441
 30
0.0
 11
114.0336941189236
 21
174.8012166341146
 31
0.0
  0
LINE
  5
159
330
A
100
AcDbEntity
  8
NAILS
 62
     7
100
AcDbLine
 10
114.0336941189236
 20
157.6032999674479
 30
0.0
 11
114.0336941189236
 21
165.5407999674479
 31
0.0
  0
LINE
  5
158
330
A
100
AcDbEntity
  8
NAILS
 62
     7
100
AcDbLine
 10
114.0336941189236
 20
149.1366333007812
 30
0.0
 11
114.0336941189236
 21
156.5449666341146
 31
0.0
  0
LINE
  5
157
330
A
100
AcDbEntity
  8
NAILS
 62
     7
100
AcDbLine
 10
114.0336941189236
 20
139.9645833333333
 30
0.0
 11
114.0336941189236
 21
148.2548611111111
 31
0.0
  0
LINE
  5
156
330
A
100
AcDbEntity
  8
NAILS
 62
     7
100
AcDbLine
 10
114.0336941189236
 20
133.35
 30
0.0
 11
114.0336941189236
 21
138.9946166992187
 31
0.0
  0
LINE
  5
155
330
A
100
AcDbEntity
  8
NAILS
 62
     7
100
AcDbLine
 10
115.0920274522569
 20
175.7717000325521
 30
0.0
 11
115.0920274522569
 21
180.8787095811632
 31
0.0
  0
LINE
  5
154
330
A
100
AcDbEntity
  8
NAILS
 62
     7
100
AcDbLine
 10
115.0920274522569
 20
166.4229166666667
 30
0.0
 11
115.0920274522569
 21
174.8012166341146
 31
0.0
  0
LINE
  5
153
330
A
100
AcDbEntity
  8
NAILS
 62
     7
100
AcDbLine
 10
115.0920274522569
 20
157.6032999674479
 30
0.0
 11
115.0920274522569
 21
165.4527777777778
 31
0.0
  0
LINE
  5
152
330
A
100
AcDbEntity
  8
NAILS
 62
     7
100
AcDbLine
 10
115.0920274522569
 20
149.1369778103299
 30
0.0
 11
115.0920274522569
 21
156.7217000325521
 31
0.0
  0
LINE
  5
151
330
A
100
AcDbEntity
  8
NAILS
 62
     7
100
AcDbLine
 10
115.0920274522569
 20
140.0526055230035
 30
0.0
 11
115.0920274522569
 21
148.2548611111111
 31
0.0
  0
LINE
  5
150
330
A
100
AcDbEntity
  8
NAILS
 62
     7
100
AcDbLine
 10
115.0920274522569
 20
133.2910888671875
 30
0.0
 11
115.0920274522569
 21
138.9942721896701
 31
0.0
  0
LINE
  5
14F
330
A
100
AcDbEntity
  8
NAILS
 62
     7
100
AcDbLine
 10
116.1503607855903
 20
175.6833333333333
 30
0.0
 11
116.1503607855903
 21
181.0147908528646
 31
0.0
  0
LINE
  5
14E
330
A
100
AcDbEntity
  8
NAILS
 62
     7
100
AcDbLine
 10
116.1503607855903
 20
166.423088921441
 30
0.0
 11
116.1503607855903
 21
174.8013888888889
 31
0.0
  0
LINE
  5
14D
330
A
100
AcDbEntity
  8
NAILS
 62
     7
100
AcDbLine
 10
116.1503607855903
 20
157.6036444769965
 30
0.0
 11
116.1503607855903
 21
165.4526055230035
 31
0.0
  0
LINE
  5
14C
330
A
100
AcDbEntity
  8
NAILS
 62
     7
100
AcDbLine
 10
116.1503607855903
 20
151.2030015733507
 30
0.0
 11
116.1503607855903
 21
156.6333333333333
 31
0.0
  0
LINE
  5
14B
330
A
100
AcDbEntity
  8
NAILS
 62
     7
100
AcDbLine
 10
116.1503607855903
 20
149.2248277452257
 30
0.0
 11
116.1503607855903
 21
150.1491468641493
 31
0.0
  0
LINE
  5
14A
330
A
100
AcDbEntity
  8
NAILS
 62
     7
100
AcDbLine
 10
116.1503607855903
 20
139.964411078559
 30
0.0
 11
116.1503607855903
 21
148.2546888563368
 31
0.0
  0
LINE
  5
149
330
A
100
AcDbEntity
  8
NAILS
 62
     7
100
AcDbLine
 10
116.1503607855903
 20
133.4085666232639
 30
0.0
 11
116.1503607855903
 21
139.0826388888889
 31
0.0
  0
LINE
  5
148
330
A
100
AcDbEntity
  8
NAILS
 62
     7
100
AcDbLine
 10
93.39791666666666
 20
115.794482421875
 30
0.0
 11
52.46553141276041
 21
115.794482421875
 31
0.0
  0
LINE
  5
147
330
A
100
AcDbEntity
  8
NAILS
 62
     7
100
AcDbLine
 10
107.6168592664931
 20
115.794482421875
 30
0.0
 11
106.3623277452257
 21
115.794482421875
 31
0.0
  0
LINE
  5
146
330
A
100
AcDbEntity
  8
NAILS
 62
     7
100
AcDbLine
 10
52.46553141276041
 20
190.0307779947917
 30
0.0
 11
52.46553141276041
 21
193.0645290798611
 31
0.0
  0
LINE
  5
145
330
A
100
AcDbEntity
  8
NAILS
 62
     7
100
AcDbLine
 10
52.46553141276041
 20
103.47275390625
 30
0.0
 11
52.46553141276041
 21
106.5065049913194
 31
0.0
  0
LWPOLYLINE
  5
13F
330
A
100
AcDbEntity
  8
NAILS
 62
     7
100
AcDbPolyline
 90
        4
 70
     0
 43
0.0
 10
117.3151475694444
 20
139.0535278320313
 10
117.3265163845486
 20
111.7003309461805
 10
121.2945773654514
 20
111.7451171875
 10
121.2945773654514
 20
151.9623006184896
  0
LINE
  5
13E
330
A
100
AcDbEntity
  8
NAILS
 62
     7
100
AcDbLine
 10
117.3110134548611
 20
148.2839721679687
 30
0.0
 11
117.3146308051215
 21
140.0527777777778
 31
0.0
  0
LINE
  5
13D
330
A
100
AcDbEntity
  8
NAILS
 62
     7
100
AcDbLine
 10
117.3103244357639
 20
149.9944620768229
 30
0.0
 11
117.3106689453125
 21
149.1662611219618
 31
0.0
  0
LINE
  5
13C
330
A
100
AcDbEntity
  8
NAILS
 62
     7
100
AcDbLine
 10
117.3077406141493
 20
156.633161078559
 30
0.0
 11
117.3096354166667
 21
151.9671237521701
 31
0.0
  0
LINE
  5
13B
330
A
100
AcDbEntity
  8
NAILS
 62
     7
100
AcDbLine
 10
117.3039510091146
 20
165.4526055230035
 30
0.0
 11
117.3072238498264
 21
157.574016655816
 31
0.0
  0
LINE
  5
13A
330
A
100
AcDbEntity
  8
NAILS
 62
     7
100
AcDbLine
 10
117.2999891493056
 20
174.7424777560764
 30
0.0
 11
117.3034342447917
 21
166.3936333550347
 31
0.0
  0
LWPOLYLINE
  5
134
330
A
100
AcDbEntity
  8
NAILS
 62
     7
100
AcDbPolyline
 90
        4
 70
     0
 43
0.0
 10
121.2945773654514
 20
152.4311781141493
 10
121.2945773654514
 20
185.5023722330729
 10
117.2955105251736
 20
185.5109849717882
 10
117.2996446397569
 20
175.683161078559
  0
LWPOLYLINE
  5
122
330
A
100
AcDbEntity
  8
NAILS
 62
     7
100
AcDbPolyline
 90
       16
 70
     0
 43
0.0
 10
121.4320366753472
 20
152.58603515625
 10
121.4320366753472
 20
180.9455444335937
 10
121.4144666883681
 20
180.9786173502604
 10
129.8673529730903
 20
180.9786173502604
 10
129.8673529730903
 20
190.9452785915798
 10
108.7420274522569
 20
190.9452785915798
 10
108.6796712239583
 20
133.35
 10
117.1811333550347
 20
133.4085666232639
 10
117.1222222222222
 20
115.7111111111111
 10
108.7971489800347
 20
115.769677734375
 10
108.7971489800347
 20
105.7947482638889
 10
129.9224745008681
 20
105.7947482638889
 10
129.9224745008681
 20
115.782080078125
 10
121.4151557074653
 20
115.782080078125
 10
121.4320366753472
 20
115.782080078125
 10
121.4320366753472
 20
151.9080403645833
  0
LINE
  5
121
330
A
100
AcDbEntity
  8
NAILS
 62
     7
100
AcDbLine
 10
108.762353515625
 20
180.9786173502604
 30
0.0
 11
117.2152398003472
 21
180.9786173502604
 31
0.0
  0
SPLINE
  5
120
330
A
100
AcDbEntity
  8
NAILS
 62
     7
100
AcDbSpline
210
0.0
220
0.0
230
1.0
 70
     8
 71
     3
 72
    11
 73
     7
 74
     0
 42
0.0000000001
 43
0.0000000001
 40
0.0
 40
0.0
 40
0.0
 40
0.0
 40
1.0
 40
1.0
 40
1.0
 40
2.0
 40
2.0
 40
2.0
 40
2.0
 10
108.6862169053819
 20
114.9490559895833
 30
0.0
 10
108.9328857421875
 20
114.9490559895833
 30
0.0
 10
112.4696207682292
 20
115.2777180989583
 30
0.0
 10
112.4696207682292
 20
115.2777180989583
 30
0.0
 10
112.4696207682292
 20
115.2777180989583
 30
0.0
 10
116.335706922743
 20
115.8537380642361
 30
0.0
 10
116.335706922743
 20
115.8537380642361
 30
0.0
  0
LWPOLYLINE
  5
11B
330
A
100
AcDbEntity
  8
NAILS
 62
     7
100
AcDbPolyline
 90
        3
 70
     0
 43
0.0
 10
121.2904432508681
 20
115.0138237847222
 10
124.3965413411458
 20
115.2777180989583
 10
126.3705810546875
 20
115.6656358506944
  0
LINE
  5
11A
330
A
100
AcDbEntity
  8
NAILS
 62
     7
100
AcDbLine
 10
108.9328857421875
 20
113.9616916232639
 30
0.0
 11
117.4057535807292
 21
114.6830946180556
 31
0.0
  0
LWPOLYLINE
  5
115
330
A
100
AcDbEntity
  8
NAILS
 62
     7
100
AcDbPolyline
 90
        3
 70
     0
 43
0.0
 10
121.1946695963542
 20
114.1987141927083
 10
124.9725613064236
 20
114.7023871527778
 10
129.8253228081597
 20
114.7023871527778
  0
LINE
  5
114
330
A
100
AcDbEntity
  8
NAILS
 62
     7
100
AcDbLine
 10
108.9328857421875
 20
112.563671875
 30
0.0
 11
117.4539849175347
 21
113.6998643663194
 31
0.0
  0
SPLINE
  5
113
330
A
100
AcDbEntity
  8
NAILS
 62
     7
100
AcDbSpline
210
0.0
220
0.0
230
1.0
 70
     8
 71
     3
 72
    11
 73
     7
 74
     0
 42
0.0000000001
 43
0.0000000001
 40
0.0
 40
0.0
 40
0.0
 40
0.0
 40
1.0
 40
1.0
 40
1.0
 40
2.0
 40
2.0
 40
2.0
 40
2.0
 10
121.2229193793403
 20
113.3567328559028
 30
0.0
 10
123.0054117838542
 20
113.6723036024306
 30
0.0
 10
124.267005750868
 20
113.8672960069444
 30
0.0
 10
124.3138590494792
 20
113.7970160590278
 30
0.0
 10
124.4785346137153
 20
113.5503472222222
 30
0.0
 10
129.9073160807292
 20
114.1263671875
 30
0.0
 10
129.9073160807292
 20
113.8796983506944
 30
0.0
  0
SPLINE
  5
112
330
A
100
AcDbEntity
  8
NAILS
 62
     7
100
AcDbSpline
210
0.0
220
0.0
230
1.0
 70
     8
 71
     3
 72
     8
 73
     4
 74
     0
 42
0.0000000001
 43
0.0000000001
 40
0.0
 40
0.0
 40
0.0
 40
0.0
 40
1.0
 40
1.0
 40
1.0
 40
1.0
 10
108.9328857421875
 20
111.0009765625
 30
0.0
 10
108.9328857421875
 20
111.0009765625
 30
0.0
 10
113.3646565755208
 20
111.8870551215278
 30
0.0
 10
117.4705213758681
 20
112.6642686631944
 30
0.0
  0
SPLINE
  5
111
330
A
100
AcDbEntity
  8
NAILS
 62
     7
100
AcDbSpline
210
0.0
220
0.0
230
1.0
 70
     8
 71
     3
 72
    11
 73
     7
 74
     0
 42
0.0000000001
 43
0.0000000001
 40
0.0
 40
0.0
 40
0.0
 40
0.0
 40
1.0
 40
1.0
 40
1.0
 40
2.0
 40
2.0
 40
2.0
 40
2.0
 10
121.3159369574653
 20
112.2246744791667
 30
0.0
 10
122.1551622178819
 20
112.3445638020833
 30
0.0
 10
123.0129909939236
 20
112.4665201822917
 30
0.0
 10
123.1631971571181
 20
112.3170030381944
 30
0.0
 10
123.4098659939236
 20
112.0696451822917
 30
0.0
 10
129.9589925130208
 20
111.3489312065972
 30
0.0
 10
129.9589925130208
 20
111.3489312065972
 30
0.0
  0
SPLINE
  5
110
330
A
100
AcDbEntity
  8
NAILS
 62
     7
100
AcDbSpline
210
0.0
220
0.0
230
1.0
 70
     8
 71
     3
 72
     8
 73
     4
 74
     0
 42
0.0000000001
 43
0.0000000001
 40
0.0
 40
0.0
 40
0.0
 40
0.0
 40
1.0
 40
1.0
 40
1.0
 40
1.0
 10
108.8502034505208
 20
109.6842610677083
 30
0.0
 10
108.8502034505208
 20
109.6842610677083
 30
0.0
 10
114.9507785373264
 20
111.0147569444444
 30
0.0
 10
118.1436930338542
 20
111.6886176215278
 30
0.0
  0
SPLINE
  5
10F
330
A
100
AcDbEntity
  8
NAILS
 62
     7
100
AcDbSpline
210
0.0
220
0.0
230
1.0
 70
     8
 71
     3
 72
    14
 73
    10
 74
     0
 42
0.0000000001
 43
0.0000000001
 40
0.0
 40
0.0
 40
0.0
 40
0.0
 40
1.0
 40
1.0
 40
1.0
 40
2.0
 40
2.0
 40
2.0
 40
3.0
 40
3.0
 40
3.0
 40
3.0
 10
108.8502034505208
 20
108.53291015625
 30
0.0
 10
109.0975613064236
 20
108.53291015625
 30
0.0
 10
120.7771240234375
 20
110.5896321614583
 30
0.0
 10
120.7771240234375
 20
110.5896321614583
 30
0.0
 10
120.7771240234375
 20
110.5896321614583
 30
0.0
 10
122.7511637369792
 20
110.4249565972222
 30
0.0
 10
122.7511637369792
 20
110.4249565972222
 30
0.0
 10
122.7511637369792
 20
110.4249565972222
 30
0.0
 10
129.9899983723958
 20
109.9316189236111
 30
0.0
 10
129.9899983723958
 20
109.9316189236111
 30
0.0
  0
LWPOLYLINE
  5
109
330
A
100
AcDbEntity
  8
NAILS
 62
     7
100
AcDbPolyline
 90
        4
 70
     0
 43
0.0
 10
108.9328857421875
 20
107.5462348090278
 10
118.3097466362847
 20
108.8622612847222
 10
126.8646077473958
 20
108.204248046875
 10
129.8838894314236
 20
108.4509168836806
  0
SPLINE
  5
108
330
A
100
AcDbEntity
  8
NAILS
 62
     7
100
AcDbSpline
210
0.0
220
0.0
230
1.0
 70
     8
 71
     3
 72
    14
 73
    10
 74
     0
 42
0.0000000001
 43
0.0000000001
 40
0.0
 40
0.0
 40
0.0
 40
0.0
 40
1.0
 40
1.0
 40
1.0
 40
2.0
 40
2.0
 40
2.0
 40
3.0
 40
3.0
 40
3.0
 40
3.0
 10
108.7682101779514
 20
106.1475260416667
 30
0.0
 10
108.7682101779514
 20
106.1475260416667
 30
0.0
 10
118.3917399088542
 20
107.298876953125
 30
0.0
 10
118.3917399088542
 20
107.298876953125
 30
0.0
 10
118.3917399088542
 20
107.298876953125
 30
0.0
 10
123.0805148654514
 20
106.7235460069444
 30
0.0
 10
123.3271837022569
 20
106.7235460069444
 30
0.0
 10
123.5745415581597
 20
106.7235460069444
 30
0.0
 10
129.9073160807292
 20
106.7235460069444
 30
0.0
 10
129.9073160807292
 20
106.7235460069444
 30
0.0
  0
LWPOLYLINE
  5
102
330
A
100
AcDbEntity
  8
NAILS
 62
     7
100
AcDbPolyline
 90
        4
 70
     0
 43
0.0
 10
108.7923258463542
 20
189.4158284505208
 10
118.258070203993
 20
189.8862562391493
 10
121.433070203993
 20
189.2981784396701
 10
125.6664035373264
 20
190.8269395616319
  0
SPLINE
  5
101
330
A
100
AcDbEntity
  8
NAILS
 62
     7
100
AcDbSpline
210
0.0
220
0.0
230
1.0
 70
     8
 71
     3
 72
    17
 73
    13
 74
     0
 42
0.0000000001
 43
0.0000000001
 40
0.0
 40
0.0
 40
0.0
 40
0.0
 40
1.0
 40
1.0
 40
1.0
 40
2.0
 40
2.0
 40
2.0
 40
3.0
 40
3.0
 40
3.0
 40
4.0
 40
4.0
 40
4.0
 40
4.0
 10
108.7330702039931
 20
188.1223673502604
 30
0.0
 10
108.7330702039931
 20
188.1223673502604
 30
0.0
 10
116.9647813585069
 20
188.4162339952257
 30
0.0
 10
116.9647813585069
 20
188.4162339952257
 30
0.0
 10
116.9647813585069
 20
188.4162339952257
 30
0.0
 10
123.4326036241319
 20
188.0634562174479
 30
0.0
 10
123.4326036241319
 20
188.0634562174479
 30
0.0
 10
123.4326036241319
 20
188.0634562174479
 30
0.0
 10
127.5481146918403
 20
190.0037339952257
 30
0.0
 10
127.900892469618
 20
190.0037339952257
 30
0.0
 10
128.2536702473958
 20
190.0037339952257
 30
0.0
 10
129.8997368706597
 20
190.3565117730035
 30
0.0
 10
129.8997368706597
 20
190.3565117730035
 30
0.0
  0
LWPOLYLINE
  5
FB
330
A
100
AcDbEntity
  8
NAILS
 62
     7
100
AcDbPolyline
 90
        4
 70
     0
 43
0.0
 10
108.7923258463542
 20
186.9463840060764
 10
112.5550591362847
 20
187.4168117947048
 10
126.7247368706597
 20
187.0051228841146
 10
129.8997368706597
 20
188.3574951171875
  0
LWPOLYLINE
  5
F6
330
A
100
AcDbEntity
  8
NAILS
 62
     7
100
AcDbPolyline
 90
        3
 70
     0
 43
0.0
 10
121.2263644748264
 20
184.982679578993
 10
127.1367702907986
 20
184.8884562174479
 10
129.9589925130208
 20
185.5352728949653
  0
LWPOLYLINE
  5
F0
330
A
100
AcDbEntity
  8
NAILS
 62
     7
100
AcDbPolyline
 90
        4
 70
     0
 43
0.0
 10
108.7330702039931
 20
185.1237562391493
 10
111.0261257595486
 20
185.7116617838541
 10
116.0828369140625
 20
185.0648451063368
 10
117.3657904730903
 20
185.0441745334201
  0
LWPOLYLINE
  5
EB
330
A
100
AcDbEntity
  8
NAILS
 62
     7
100
AcDbPolyline
 90
        3
 70
     0
 43
0.0
 10
121.2456570095486
 20
183.7653550889757
 10
125.0786702473958
 20
183.4773451063368
 10
129.9589925130208
 20
183.0658284505208
  0
LWPOLYLINE
  5
E6
330
A
100
AcDbEntity
  8
NAILS
 62
     7
100
AcDbPolyline
 90
        3
 70
     0
 43
0.0
 10
108.7330702039931
 20
183.6537339952257
 10
112.5550591362847
 20
184.4182006835937
 10
117.3451199001736
 20
184.0583604600694
  0
LWPOLYLINE
  5
E1
330
A
100
AcDbEntity
  8
NAILS
 62
     7
100
AcDbPolyline
 90
        3
 70
     0
 43
0.0
 10
121.2442789713542
 20
181.8960462782118
 10
123.0798258463542
 20
181.7134562174479
 10
129.8411702473958
 20
181.4783284505208
  0
SPLINE
  5
E0
330
A
100
AcDbEntity
  8
NAILS
 62
     7
100
AcDbSpline
210
0.0
220
0.0
230
1.0
 70
     8
 71
     3
 72
    11
 73
     7
 74
     0
 42
0.0000000001
 43
0.0000000001
 40
0.0
 40
0.0
 40
0.0
 40
0.0
 40
1.0
 40
1.0
 40
1.0
 40
2.0
 40
2.0
 40
2.0
 40
2.0
 10
108.7923258463542
 20
182.1251451280382
 30
0.0
 10
108.968714735243
 20
182.1251451280382
 30
0.0
 10
113.0256591796875
 20
182.713050672743
 30
0.0
 10
113.0256591796875
 20
182.713050672743
 30
0.0
 10
113.0256591796875
 20
182.713050672743
 30
0.0
 10
117.4009304470486
 20
182.2781073676215
 30
0.0
 10
117.4009304470486
 20
182.2781073676215
 30
0.0
  0
SPLINE
  5
DF
330
A
100
AcDbEntity
  8
NAILS
 62
     7
100
AcDbSpline
210
0.0
220
0.0
230
1.0
 70
     8
 71
     3
 72
    17
 73
    13
 74
     0
 42
0.0000000001
 43
0.0000000001
 40
0.0
 40
0.0
 40
0.0
 40
0.0
 40
1.0
 40
1.0
 40
1.0
 40
2.0
 40
2.0
 40
2.0
 40
3.0
 40
3.0
 40
3.0
 40
4.0
 40
4.0
 40
4.0
 40
4.0
 10
97.23954264322916
 20
116.96650390625
 30
0.0
 10
97.23954264322916
 20
116.96650390625
 30
0.0
 10
96.71037597656249
 20
115.5553927951389
 30
0.0
 10
96.71037597656249
 20
115.5553927951389
 30
0.0
 10
96.71037597656249
 20
115.5553927951389
 30
0.0
 10
96.49195692274304
 20
115.3617784288194
 30
0.0
 10
96.26664767795138
 20
115.5230088975694
 30
0.0
 10
96.26664767795138
 20
115.5230088975694
 30
0.0
 10
96.05753038194443
 20
115.6194715711805
 30
0.0
 10
96.23426378038194
 20
115.9736273871528
 30
0.0
 10
96.23426378038194
 20
115.9736273871528
 30
0.0
 10
96.3631103515625
 20
116.2478569878472
 30
0.0
 10
96.78134494357639
 20
115.9577799479167
 30
0.0
  0
SPLINE
  5
DE
330
A
100
AcDbEntity
  8
NAILS
 62
     7
100
AcDbSpline
210
0.0
220
0.0
230
1.0
 70
    11
 71
     3
 72
    56
 73
    52
 74
     0
 42
0.0000000001
 43
0.0000000001
 40
0.0
 40
0.0
 40
0.0
 40
0.0
 40
1.0
 40
1.0
 40
1.0
 40
2.0
 40
2.0
 40
2.0
 40
3.0
 40
3.0
 40
3.0
 40
4.0
 40
4.0
 40
4.0
 40
5.0
 40
5.0
 40
5.0
 40
6.0
 40
6.0
 40
6.0
 40
7.0
 40
7.0
 40
7.0
 40
8.0
 40
8.0
 40
8.0
 40
9.0
 40
9.0
 40
9.0
 40
10.0
 40
10.0
 40
10.0
 40
11.0
 40
11.0
 40
11.0
 40
12.0
 40
12.0
 40
12.0
 40
13.0
 40
13.0
 40
13.0
 40
14.0
 40
14.0
 40
14.0
 40
15.0
 40
15.0
 40
15.0
 40
16.0
 40
16.0
 40
16.0
 40
17.0
 40
17.0
 40
17.0
 40
17.0
 10
111.2131944444444
 20
191.9552083333333
 30
0.0
 10
111.2131944444444
 20
191.9552083333333
 30
0.0
 10
118.3118136935764
 20
191.9552083333333
 30
0.0
 10
118.3118136935764
 20
191.9552083333333
 30
0.0
 10
118.3118136935764
 20
191.9552083333333
 30
0.0
 10
118.3118136935764
 20
191.2055555555556
 30
0.0
 10
118.3118136935764
 20
191.2055555555556
 30
0.0
 10
118.3118136935764
 20
191.2055555555556
 30
0.0
 10
108.3899386935764
 20
191.1614583333333
 30
0.0
 10
108.3899386935764
 20
191.1614583333333
 30
0.0
 10
108.3899386935764
 20
191.1614583333333
 30
0.0
 10
108.3899386935764
 20
117.8350124782986
 30
0.0
 10
108.3899386935764
 20
117.8350124782986
 30
0.0
 10
108.3899386935764
 20
117.8350124782986
 30
0.0
 10
106.8467081705729
 20
117.8350124782986
 30
0.0
 10
106.8467081705729
 20
117.8350124782986
 30
0.0
 10
106.8467081705729
 20
117.8350124782986
 30
0.0
 10
106.4057359483507
 20
117.8350124782986
 30
0.0
 10
106.4057359483507
 20
117.3058458116319
 30
0.0
 10
106.4057359483507
 20
117.3058458116319
 30
0.0
 10
106.4057359483507
 20
104.9586235894097
 30
0.0
 10
106.4057359483507
 20
104.9586235894097
 30
0.0
 10
106.4057359483507
 20
104.9586235894097
 30
0.0
 10
93.35313042534722
 20
104.9586235894097
 30
0.0
 10
93.35313042534722
 20
104.9586235894097
 30
0.0
 10
93.35313042534722
 20
104.9586235894097
 30
0.0
 10
93.35313042534722
 20
116.6002902560764
 30
0.0
 10
93.35313042534722
 20
116.6002902560764
 30
0.0
 10
93.35313042534722
 20
116.6002902560764
 30
0.0
 10
97.05729709201388
 20
116.6002902560764
 30
0.0
 10
97.05729709201388
 20
116.6002902560764
 30
0.0
 10
97.05729709201388
 20
116.6002902560764
 30
0.0
 10
99.87934705946179
 20
125.2433458116319
 30
0.0
 10
99.87934705946179
 20
125.2433458116319
 30
0.0
 10
99.87934705946179
 20
125.2433458116319
 30
0.0
 10
99.87934705946179
 20
179.0788194444444
 30
0.0
 10
99.87934705946179
 20
179.0788194444444
 30
0.0
 10
99.87934705946179
 20
179.0788194444444
 30
0.0
 10
106.9357638888889
 20
190.0149305555555
 30
0.0
 10
106.9357638888889
 20
190.0149305555555
 30
0.0
 10
106.9357638888889
 20
190.0149305555555
 30
0.0
 10
106.9357638888889
 20
191.690625
 30
0.0
 10
106.9357638888889
 20
191.690625
 30
0.0
 10
106.9357638888889
 20
191.690625
 30
0.0
 10
106.9798611111111
 20
192.7048611111111
 30
0.0
 10
107.95
 20
192.7489583333333
 30
0.0
 10
107.95
 20
192.7489583333333
 30
0.0
 10
110.33125
 20
192.7489583333333
 30
0.0
 10
110.33125
 20
192.7489583333333
 30
0.0
 10
110.33125
 20
192.7489583333333
 30
0.0
 10
111.0809027777778
 20
192.7930555555555
 30
0.0
 10
111.2131944444444
 20
191.9552083333333
 30
0.0
  0
SPLINE
  5
DD
330
A
100
AcDbEntity
  8
NAILS
 62
     7
100
AcDbSpline
210
0.0
220
0.0
230
1.0
 70
    11
 71
     3
 72
    23
 73
    19
 74
     0
 42
0.0000000001
 43
0.0000000001
 40
0.0
 40
0.0
 40
0.0
 40
0.0
 40
1.0
 40
1.0
 40
1.0
 40
2.0
 40
2.0
 40
2.0
 40
3.0
 40
3.0
 40
3.0
 40
4.0
 40
4.0
 40
4.0
 40
5.0
 40
5.0
 40
5.0
 40
6.0
 40
6.0
 40
6.0
 40
6.0
 10
104.0244859483507
 20
139.7511596679688
 30
0.0
 10
104.0244859483507
 20
139.7511596679688
 30
0.0
 10
103.5835137261285
 20
139.0016791449653
 30
0.0
 10
103.5835137261285
 20
139.0016791449653
 30
0.0
 10
103.5835137261285
 20
139.0016791449653
 30
0.0
 10
103.3630276150174
 20
138.6048041449653
 30
0.0
 10
103.8039998372396
 20
138.6048041449653
 30
0.0
 10
103.8039998372396
 20
138.6048041449653
 30
0.0
 10
104.4654581705729
 20
138.6048041449653
 30
0.0
 10
104.4654581705729
 20
138.6048041449653
 30
0.0
 10
104.4654581705729
 20
138.6048041449653
 30
0.0
 10
104.9505276150174
 20
138.560706922743
 30
0.0
 10
104.7300415039062
 20
138.9134847005208
 30
0.0
 10
104.7300415039062
 20
138.9134847005208
 30
0.0
 10
104.3772637261285
 20
139.7511596679688
 30
0.0
 10
104.3772637261285
 20
139.7511596679688
 30
0.0
 10
104.3772637261285
 20
139.7511596679688
 30
0.0
 10
104.2008748372396
 20
140.1039374457465
 30
0.0
 10
104.0244859483507
 20
139.7511596679688
 30
0.0
  0
LINE
  5
DC
330
A
100
AcDbEntity
  8
NAILS
 62
     7
100
AcDbLine
 10
107.5963609483507
 20
190.9478624131944
 30
0.0
 11
107.5963609483507
 21
117.8350124782986
 31
0.0
  0
INSERT
  5
D3
330
A
100
AcDbEntity
  8
NAILS
 62
     7
100
AcDbBlockReference
  2
AI9-BLK8
 10
101.2291354709201
 20
114.5803446451823
 30
0.0
  0
INSERT
  5
C9
330
A
100
AcDbEntity
  8
NAILS
 62
     7
100
AcDbBlockReference
  2
AI9-BLK7
 10
103.3458021375868
 20
114.5803446451823
 30
0.0
  0
SPLINE
  5
C7
330
A
100
AcDbEntity
  8
NAILS
 62
     7
100
AcDbSpline
210
0.0
220
0.0
230
1.0
 70
    11
 71
     3
 72
    56
 73
    52
 74
     0
 42
0.0000000001
 43
0.0000000001
 40
0.0
 40
0.0
 40
0.0
 40
0.0
 40
1.0
 40
1.0
 40
1.0
 40
2.0
 40
2.0
 40
2.0
 40
3.0
 40
3.0
 40
3.0
 40
4.0
 40
4.0
 40
4.0
 40
5.0
 40
5.0
 40
5.0
 40
6.0
 40
6.0
 40
6.0
 40
7.0
 40
7.0
 40
7.0
 40
8.0
 40
8.0
 40
8.0
 40
9.0
 40
9.0
 40
9.0
 40
10.0
 40
10.0
 40
10.0
 40
11.0
 40
11.0
 40
11.0
 40
12.0
 40
12.0
 40
12.0
 40
13.0
 40
13.0
 40
13.0
 40
14.0
 40
14.0
 40
14.0
 40
15.0
 40
15.0
 40
15.0
 40
16.0
 40
16.0
 40
16.0
 40
17.0
 40
17.0
 40
17.0
 40
17.0
 10
111.3454861111111
 20
192.0875
 30
0.0
 10
111.3454861111111
 20
192.0875
 30
0.0
 10
118.444105360243
 20
192.0875
 30
0.0
 10
118.444105360243
 20
192.0875
 30
0.0
 10
118.444105360243
 20
192.0875
 30
0.0
 10
118.4423828125
 20
191.2055555555556
 30
0.0
 10
118.4423828125
 20
191.2055555555556
 30
0.0
 10
118.4423828125
 20
191.2055555555556
 30
0.0
 10
108.3899386935764
 20
191.1614583333333
 30
0.0
 10
108.3899386935764
 20
191.1614583333333
 30
0.0
 10
108.3899386935764
 20
191.1614583333333
 30
0.0
 10
108.3899386935764
 20
117.8350124782986
 30
0.0
 10
108.3899386935764
 20
117.8350124782986
 30
0.0
 10
108.3899386935764
 20
117.8350124782986
 30
0.0
 10
106.8467081705729
 20
117.8350124782986
 30
0.0
 10
106.8467081705729
 20
117.8350124782986
 30
0.0
 10
106.8467081705729
 20
117.8350124782986
 30
0.0
 10
106.4057359483507
 20
117.8350124782986
 30
0.0
 10
106.4057359483507
 20
117.3058458116319
 30
0.0
 10
106.4057359483507
 20
117.3058458116319
 30
0.0
 10
106.4057359483507
 20
104.9586235894097
 30
0.0
 10
106.4057359483507
 20
104.9586235894097
 30
0.0
 10
106.4057359483507
 20
104.9586235894097
 30
0.0
 10
93.35313042534722
 20
104.9586235894097
 30
0.0
 10
93.35313042534722
 20
104.9586235894097
 30
0.0
 10
93.35313042534722
 20
104.9586235894097
 30
0.0
 10
93.35313042534722
 20
116.6002902560764
 30
0.0
 10
93.35313042534722
 20
116.6002902560764
 30
0.0
 10
93.35313042534722
 20
116.6002902560764
 30
0.0
 10
97.05729709201388
 20
116.6002902560764
 30
0.0
 10
97.05729709201388
 20
116.6002902560764
 30
0.0
 10
97.05729709201388
 20
116.6002902560764
 30
0.0
 10
99.87934705946179
 20
125.2433458116319
 30
0.0
 10
99.87934705946179
 20
125.2433458116319
 30
0.0
 10
99.87934705946179
 20
125.2433458116319
 30
0.0
 10
99.87934705946179
 20
179.0788194444444
 30
0.0
 10
99.87934705946179
 20
179.0788194444444
 30
0.0
 10
99.87934705946179
 20
179.0788194444444
 30
0.0
 10
106.9357638888889
 20
190.0149305555555
 30
0.0
 10
106.9357638888889
 20
190.0149305555555
 30
0.0
 10
106.9357638888889
 20
190.0149305555555
 30
0.0
 10
106.9357638888889
 20
191.690625
 30
0.0
 10
106.9357638888889
 20
191.690625
 30
0.0
 10
106.9357638888889
 20
191.690625
 30
0.0
 10
106.9798611111111
 20
192.7048611111111
 30
0.0
 10
107.95
 20
192.7489583333333
 30
0.0
 10
107.95
 20
192.7489583333333
 30
0.0
 10
110.33125
 20
192.7489583333333
 30
0.0
 10
110.33125
 20
192.7489583333333
 30
0.0
 10
110.33125
 20
192.7489583333333
 30
0.0
 10
111.0809027777778
 20
192.7930555555555
 30
0.0
 10
111.3454861111111
 20
192.0875
 30
0.0
  0
SPLINE
  5
C6
330
A
100
AcDbEntity
  8
NAILS
 62
     7
100
AcDbSpline
210
0.0
220
0.0
230
1.0
 70
    11
 71
     3
 72
    23
 73
    19
 74
     0
 42
0.0000000001
 43
0.0000000001
 40
0.0
 40
0.0
 40
0.0
 40
0.0
 40
1.0
 40
1.0
 40
1.0
 40
2.0
 40
2.0
 40
2.0
 40
3.0
 40
3.0
 40
3.0
 40
4.0
 40
4.0
 40
4.0
 40
5.0
 40
5.0
 40
5.0
 40
6.0
 40
6.0
 40
6.0
 40
6.0
 10
104.0244859483507
 20
139.7511596679688
 30
0.0
 10
104.0244859483507
 20
139.7511596679688
 30
0.0
 10
103.5835137261285
 20
139.0016791449653
 30
0.0
 10
103.5835137261285
 20
139.0016791449653
 30
0.0
 10
103.5835137261285
 20
139.0016791449653
 30
0.0
 10
103.3630276150174
 20
138.6048041449653
 30
0.0
 10
103.8039998372396
 20
138.6048041449653
 30
0.0
 10
103.8039998372396
 20
138.6048041449653
 30
0.0
 10
104.4654581705729
 20
138.6048041449653
 30
0.0
 10
104.4654581705729
 20
138.6048041449653
 30
0.0
 10
104.4654581705729
 20
138.6048041449653
 30
0.0
 10
104.9505276150174
 20
138.560706922743
 30
0.0
 10
104.7300415039062
 20
138.9134847005208
 30
0.0
 10
104.7300415039062
 20
138.9134847005208
 30
0.0
 10
104.3772637261285
 20
139.7511596679688
 30
0.0
 10
104.3772637261285
 20
139.7511596679688
 30
0.0
 10
104.3772637261285
 20
139.7511596679688
 30
0.0
 10
104.2008748372396
 20
140.1039374457465
 30
0.0
 10
104.0244859483507
 20
139.7511596679688
 30
0.0
  0
SPLINE
  5
C5
330
A
100
AcDbEntity
  8
NAILS
 62
     7
100
AcDbSpline
210
0.0
220
0.0
230
1.0
 70
     8
 71
     3
 72
    14
 73
    10
 74
     0
 42
0.0000000001
 43
0.0000000001
 40
0.0
 40
0.0
 40
0.0
 40
0.0
 40
1.0
 40
1.0
 40
1.0
 40
2.0
 40
2.0
 40
2.0
 40
3.0
 40
3.0
 40
3.0
 40
3.0
 10
113.7267361111111
 20
191.9552083333333
 30
0.0
 10
113.7267361111111
 20
191.9552083333333
 30
0.0
 10
108.9201388888889
 20
191.9552083333333
 30
0.0
 10
108.9201388888889
 20
191.9552083333333
 30
0.0
 10
108.9201388888889
 20
191.9552083333333
 30
0.0
 10
107.8618055555556
 20
192.2638888888889
 30
0.0
 10
107.3326388888889
 20
190.6322916666667
 30
0.0
 10
107.3326388888889
 20
190.6322916666667
 30
0.0
 10
106.4506944444444
 20
189.2652777777778
 30
0.0
 10
106.4506944444444
 20
189.2652777777778
 30
0.0
  0
LWPOLYLINE
  5
BF
330
A
100
AcDbEntity
  8
NAILS
 62
     7
100
AcDbPolyline
 90
        4
 70
     1
 43
0.0
 10
96.41013590494791
 20
116.7480848524306
 10
93.76430257161458
 20
116.7480848524306
 10
93.76430257161458
 20
117.4536404079861
 10
96.41013590494791
 20
117.4536404079861
  0
LINE
  5
BE
330
A
100
AcDbEntity
  8
NAILS
 62
     7
100
AcDbLine
 10
121.3555555555555
 20
175.6516384548611
 30
0.0
 11
108.596644422743
 21
175.6516384548611
 31
0.0
  0
SPLINE
  5
BD
330
A
100
AcDbEntity
  8
NAILS
 62
     7
100
AcDbSpline
210
0.0
220
0.0
230
1.0
 70
     8
 71
     3
 72
    20
 73
    16
 74
     0
 42
0.0000000001
 43
0.0000000001
 40
0.0
 40
0.0
 40
0.0
 40
0.0
 40
1.0
 40
1.0
 40
1.0
 40
2.0
 40
2.0
 40
2.0
 40
3.0
 40
3.0
 40
3.0
 40
4.0
 40
4.0
 40
4.0
 40
5.0
 40
5.0
 40
5.0
 40
5.0
 10
121.4144666883681
 20
174.7142279730903
 30
0.0
 10
121.4144666883681
 20
174.7142279730903
 30
0.0
 10
121.44375
 20
171.0090277777778
 30
0.0
 10
121.44375
 20
171.0090277777778
 30
0.0
 10
121.44375
 20
171.0090277777778
 30
0.0
 10
122.4759006076389
 20
172.4034301757812
 30
0.0
 10
122.4759006076389
 20
172.4034301757812
 30
0.0
 10
122.4759006076389
 20
172.4034301757812
 30
0.0
 10
122.4724555121528
 20
174.2722222222222
 30
0.0
 10
122.4724555121528
 20
174.2722222222222
 30
0.0
 10
122.4724555121528
 20
174.2722222222222
 30
0.0
 10
122.6491889105903
 20
175.6245944552951
 30
0.0
 10
121.7083333333333
 20
175.6516384548611
 30
0.0
 10
121.7083333333333
 20
175.6516384548611
 30
0.0
 10
121.3555555555555
 20
175.6516384548611
 30
0.0
 10
121.3555555555555
 20
175.6516384548611
 30
0.0
  0
LINE
  5
BC
330
A
100
AcDbEntity
  8
NAILS
 62
     7
100
AcDbLine
 10
108.7144666883681
 20
174.7142279730903
 30
0.0
 11
121.4144666883681
 21
174.7142279730903
 31
0.0
  0
LWPOLYLINE
  5
B2
330
A
100
AcDbEntity
  8
NAILS
 62
     7
100
AcDbPolyline
 90
        8
 70
     0
 43
0.0
 10
108.596644422743
 20
175.6516384548611
 10
107.5996337890625
 20
175.6516384548611
 10
107.5996337890625
 20
176.5008544921875
 10
106.8942504882812
 20
176.5008544921875
 10
106.8942504882812
 20
173.8550211588542
 10
107.5996337890625
 20
173.8550211588542
 10
107.5996337890625
 20
174.7142279730903
 10
108.7144666883681
 20
174.7142279730903
  0
LINE
  5
B1
330
A
100
AcDbEntity
  8
NAILS
 62
     7
100
AcDbLine
 10
107.5996337890625
 20
174.5605767144097
 30
0.0
 11
107.5996337890625
 21
175.5334716796875
 31
0.0
  0
LINE
  5
B0
330
A
100
AcDbEntity
  8
NAILS
 62
     7
100
AcDbLine
 10
121.3555555555555
 20
166.3617662217882
 30
0.0
 11
108.596644422743
 21
166.3617662217882
 31
0.0
  0
SPLINE
  5
AF
330
A
100
AcDbEntity
  8
NAILS
 62
     7
100
AcDbSpline
210
0.0
220
0.0
230
1.0
 70
     8
 71
     3
 72
    20
 73
    16
 74
     0
 42
0.0000000001
 43
0.0000000001
 40
0.0
 40
0.0
 40
0.0
 40
0.0
 40
1.0
 40
1.0
 40
1.0
 40
2.0
 40
2.0
 40
2.0
 40
3.0
 40
3.0
 40
3.0
 40
4.0
 40
4.0
 40
4.0
 40
5.0
 40
5.0
 40
5.0
 40
5.0
 10
121.4144666883681
 20
165.4243557400174
 30
0.0
 10
121.4144666883681
 20
165.4243557400174
 30
0.0
 10
121.44375
 20
161.8368055555555
 30
0.0
 10
121.44375
 20
161.8368055555555
 30
0.0
 10
121.44375
 20
161.8368055555555
 30
0.0
 10
122.4759006076389
 20
163.1135579427083
 30
0.0
 10
122.4759006076389
 20
163.1135579427083
 30
0.0
 10
122.4759006076389
 20
163.1135579427083
 30
0.0
 10
122.4724555121528
 20
164.9823499891493
 30
0.0
 10
122.4724555121528
 20
164.9823499891493
 30
0.0
 10
122.4724555121528
 20
164.9823499891493
 30
0.0
 10
122.6491889105903
 20
166.3347222222222
 30
0.0
 10
121.7083333333333
 20
166.3617662217882
 30
0.0
 10
121.7083333333333
 20
166.3617662217882
 30
0.0
 10
121.3555555555555
 20
166.3617662217882
 30
0.0
 10
121.3555555555555
 20
166.3617662217882
 30
0.0
  0
LINE
  5
AE
330
A
100
AcDbEntity
  8
NAILS
 62
     7
100
AcDbLine
 10
108.7144666883681
 20
165.4243557400174
 30
0.0
 11
121.4144666883681
 21
165.4243557400174
 31
0.0
  0
LWPOLYLINE
  5
A4
330
A
100
AcDbEntity
  8
NAILS
 62
     7
100
AcDbPolyline
 90
        8
 70
     0
 43
0.0
 10
108.596644422743
 20
166.3617662217882
 10
107.5996337890625
 20
166.3617662217882
 10
107.5996337890625
 20
167.2109822591146
 10
106.8942504882812
 20
167.2109822591146
 10
106.8942504882812
 20
164.5651489257812
 10
107.5996337890625
 20
164.5651489257812
 10
107.5996337890625
 20
165.4243557400174
 10
108.7144666883681
 20
165.4243557400174
  0
LINE
  5
A3
330
A
100
AcDbEntity
  8
NAILS
 62
     7
100
AcDbLine
 10
107.5996337890625
 20
165.2707044813368
 30
0.0
 11
107.5996337890625
 21
166.2435994466146
 31
0.0
  0
LINE
  5
A2
330
A
100
AcDbEntity
  8
NAILS
 62
     7
100
AcDbLine
 10
121.3996527777778
 20
157.5423217773437
 30
0.0
 11
108.596644422743
 21
157.5423217773437
 31
0.0
  0
SPLINE
  5
A1
330
A
100
AcDbEntity
  8
NAILS
 62
     7
100
AcDbSpline
210
0.0
220
0.0
230
1.0
 70
     8
 71
     3
 72
    20
 73
    16
 74
     0
 42
0.0000000001
 43
0.0000000001
 40
0.0
 40
0.0
 40
0.0
 40
0.0
 40
1.0
 40
1.0
 40
1.0
 40
2.0
 40
2.0
 40
2.0
 40
3.0
 40
3.0
 40
3.0
 40
4.0
 40
4.0
 40
4.0
 40
5.0
 40
5.0
 40
5.0
 40
5.0
 10
121.4144666883681
 20
156.6049112955729
 30
0.0
 10
121.4144666883681
 20
156.6049112955729
 30
0.0
 10
121.44375
 20
153.0614583333333
 30
0.0
 10
121.44375
 20
153.0614583333333
 30
0.0
 10
121.44375
 20
153.0614583333333
 30
0.0
 10
122.4759006076389
 20
154.2941134982639
 30
0.0
 10
122.4759006076389
 20
154.2941134982639
 30
0.0
 10
122.4759006076389
 20
154.2941134982639
 30
0.0
 10
122.4724555121528
 20
156.1629055447048
 30
0.0
 10
122.4724555121528
 20
156.1629055447048
 30
0.0
 10
122.4724555121528
 20
156.1629055447048
 30
0.0
 10
122.6491889105903
 20
157.5152777777778
 30
0.0
 10
121.7083333333333
 20
157.5423217773437
 30
0.0
 10
121.7083333333333
 20
157.5423217773437
 30
0.0
 10
121.3996527777778
 20
157.5423217773437
 30
0.0
 10
121.3996527777778
 20
157.5423217773437
 30
0.0
  0
LINE
  5
A0
330
A
100
AcDbEntity
  8
NAILS
 62
     7
100
AcDbLine
 10
108.7144666883681
 20
156.6049112955729
 30
0.0
 11
121.4144666883681
 21
156.6049112955729
 31
0.0
  0
LWPOLYLINE
  5
96
330
A
100
AcDbEntity
  8
NAILS
 62
     7
100
AcDbPolyline
 90
        8
 70
     0
 43
0.0
 10
108.596644422743
 20
157.5423217773437
 10
107.5996337890625
 20
157.5423217773437
 10
107.5996337890625
 20
158.3915378146701
 10
106.8942504882812
 20
158.3915378146701
 10
106.8942504882812
 20
155.7457044813368
 10
107.5996337890625
 20
155.7457044813368
 10
107.5996337890625
 20
156.6049112955729
 10
108.7144666883681
 20
156.6049112955729
  0
LINE
  5
95
330
A
100
AcDbEntity
  8
NAILS
 62
     7
100
AcDbLine
 10
107.5996337890625
 20
156.4512600368923
 30
0.0
 11
107.5996337890625
 21
157.4241550021701
 31
0.0
  0
LINE
  5
94
330
A
100
AcDbEntity
  8
NAILS
 62
     7
100
AcDbLine
 10
121.3114583333333
 20
149.1345662434896
 30
0.0
 11
108.596644422743
 21
149.1345662434896
 31
0.0
  0
SPLINE
  5
93
330
A
100
AcDbEntity
  8
NAILS
 62
     7
100
AcDbSpline
210
0.0
220
0.0
230
1.0
 70
     8
 71
     3
 72
    20
 73
    16
 74
     0
 42
0.0000000001
 43
0.0000000001
 40
0.0
 40
0.0
 40
0.0
 40
0.0
 40
1.0
 40
1.0
 40
1.0
 40
2.0
 40
2.0
 40
2.0
 40
3.0
 40
3.0
 40
3.0
 40
4.0
 40
4.0
 40
4.0
 40
5.0
 40
5.0
 40
5.0
 40
5.0
 10
121.4144666883681
 20
148.1971557617187
 30
0.0
 10
121.4144666883681
 20
148.1971557617187
 30
0.0
 10
121.44375
 20
144.5506944444444
 30
0.0
 10
121.44375
 20
144.5506944444444
 30
0.0
 10
121.44375
 20
144.5506944444444
 30
0.0
 10
122.4759006076389
 20
145.8863579644097
 30
0.0
 10
122.4759006076389
 20
145.8863579644097
 30
0.0
 10
122.4759006076389
 20
145.8863579644097
 30
0.0
 10
122.4724555121528
 20
147.7551500108507
 30
0.0
 10
122.4724555121528
 20
147.7551500108507
 30
0.0
 10
122.4724555121528
 20
147.7551500108507
 30
0.0
 10
122.6491889105903
 20
149.1075222439236
 30
0.0
 10
121.7083333333333
 20
149.1345662434896
 30
0.0
 10
121.7083333333333
 20
149.1345662434896
 30
0.0
 10
121.3114583333333
 20
149.1345662434896
 30
0.0
 10
121.3114583333333
 20
149.1345662434896
 30
0.0
  0
LINE
  5
92
330
A
100
AcDbEntity
  8
NAILS
 62
     7
100
AcDbLine
 10
108.7144666883681
 20
148.1971557617187
 30
0.0
 11
121.4144666883681
 21
148.1971557617187
 31
0.0
  0
LWPOLYLINE
  5
88
330
A
100
AcDbEntity
  8
NAILS
 62
     7
100
AcDbPolyline
 90
        8
 70
     0
 43
0.0
 10
108.596644422743
 20
149.1345662434896
 10
107.5996337890625
 20
149.1345662434896
 10
107.5996337890625
 20
149.9837822808159
 10
106.8942504882812
 20
149.9837822808159
 10
106.8942504882812
 20
147.3379489474826
 10
107.5996337890625
 20
147.3379489474826
 10
107.5996337890625
 20
148.1971557617187
 10
108.7144666883681
 20
148.1971557617187
  0
LINE
  5
87
330
A
100
AcDbEntity
  8
NAILS
 62
     7
100
AcDbLine
 10
107.5996337890625
 20
148.0435045030382
 30
0.0
 11
107.5996337890625
 21
149.016399468316
 31
0.0
  0
LINE
  5
86
330
A
100
AcDbEntity
  8
NAILS
 62
     7
100
AcDbLine
 10
121.3996527777778
 20
139.962171766493
 30
0.0
 11
108.596644422743
 21
139.962171766493
 31
0.0
  0
SPLINE
  5
85
330
A
100
AcDbEntity
  8
NAILS
 62
     7
100
AcDbSpline
210
0.0
220
0.0
230
1.0
 70
     8
 71
     3
 72
    20
 73
    16
 74
     0
 42
0.0000000001
 43
0.0000000001
 40
0.0
 40
0.0
 40
0.0
 40
0.0
 40
1.0
 40
1.0
 40
1.0
 40
2.0
 40
2.0
 40
2.0
 40
3.0
 40
3.0
 40
3.0
 40
4.0
 40
4.0
 40
4.0
 40
5.0
 40
5.0
 40
5.0
 40
5.0
 10
121.4144666883681
 20
139.0247612847222
 30
0.0
 10
121.4144666883681
 20
139.0247612847222
 30
0.0
 10
121.3555555555555
 20
135.334375
 30
0.0
 10
121.3555555555555
 20
135.334375
 30
0.0
 10
121.3555555555555
 20
135.334375
 30
0.0
 10
122.4759006076389
 20
136.7137912326389
 30
0.0
 10
122.4759006076389
 20
136.7137912326389
 30
0.0
 10
122.4759006076389
 20
136.7137912326389
 30
0.0
 10
122.4724555121528
 20
138.5827555338541
 30
0.0
 10
122.4724555121528
 20
138.5827555338541
 30
0.0
 10
122.4724555121528
 20
138.5827555338541
 30
0.0
 10
122.6491889105903
 20
139.9351277669271
 30
0.0
 10
121.7083333333333
 20
139.962171766493
 30
0.0
 10
121.7083333333333
 20
139.962171766493
 30
0.0
 10
121.3996527777778
 20
139.962171766493
 30
0.0
 10
121.3996527777778
 20
139.962171766493
 30
0.0
  0
LINE
  5
84
330
A
100
AcDbEntity
  8
NAILS
 62
     7
100
AcDbLine
 10
108.7144666883681
 20
139.0247612847222
 30
0.0
 11
121.4144666883681
 21
139.0247612847222
 31
0.0
  0
LWPOLYLINE
  5
7A
330
A
100
AcDbEntity
  8
NAILS
 62
     7
100
AcDbPolyline
 90
        8
 70
     0
 43
0.0
 10
108.596644422743
 20
139.962171766493
 10
107.5996337890625
 20
139.962171766493
 10
107.5996337890625
 20
140.8113878038194
 10
106.8942504882812
 20
140.8113878038194
 10
106.8942504882812
 20
138.1655544704861
 10
107.5996337890625
 20
138.1655544704861
 10
107.5996337890625
 20
139.0247612847222
 10
108.7144666883681
 20
139.0247612847222
  0
LINE
  5
79
330
A
100
AcDbEntity
  8
NAILS
 62
     7
100
AcDbLine
 10
107.5996337890625
 20
138.8711100260417
 30
0.0
 11
107.5996337890625
 21
139.8440049913194
 31
0.0
  0
LWPOLYLINE
  5
73
330
A
100
AcDbEntity
  8
NAILS
 62
     7
100
AcDbPolyline
 90
        4
 70
     1
 43
0.0
 10
117.2986111111111
 20
192.2197916666667
 10
114.6527777777778
 20
192.2197916666667
 10
114.6527777777778
 20
192.9253472222222
 10
117.2986111111111
 20
192.9253472222222
  0
LWPOLYLINE
  5
6D
330
A
100
AcDbEntity
  8
NAILS
 62
     7
100
AcDbPolyline
 90
        4
 70
     1
 43
0.0
 10
107.3326388888889
 20
186.53125
 10
107.3326388888889
 20
183.8854166666667
 10
106.6270833333333
 20
183.8854166666667
 10
106.6270833333333
 20
186.53125
  0
LINE
  5
6C
330
A
100
AcDbEntity
  8
NAILS
 62
     7
100
AcDbLine
 10
108.5256754557292
 20
133.4457736545139
 30
0.0
 11
108.5256754557292
 21
191.1724826388889
 31
0.0
  0
LINE
  5
6B
330
A
100
AcDbEntity
  8
NAILS
 62
     7
100
AcDbLine
 10
121.3996527777778
 20
152.527985297309
 30
0.0
 11
121.3996527777778
 21
175.9479166666667
 31
0.0
  0
LINE
  5
6A
330
A
100
AcDbEntity
  8
NAILS
 62
     7
100
AcDbLine
 10
121.3996527777778
 20
137.5416476779514
 30
0.0
 11
121.3996527777778
 21
152.0096706814236
 31
0.0
  0
INSERT
  5
5C
330
A
100
AcDbEntity
  8
NAILS
 62
     7
100
AcDbBlockReference
  2
AI9-BLK5
 10
133.4586927625868
 20
165.9995144314236
 30
0.0
  0
INSERT
  5
52
330
A
100
AcDbEntity
  8
NAILS
 62
     7
100
AcDbBlockReference
  2
AI9-BLK4
 10
129.7736463758681
 20
153.2776380750868
 30
0.0
  0
INSERT
  5
48
330
A
100
AcDbEntity
  8
NAILS
 62
     7
100
AcDbBlockReference
  2
AI9-BLK3
 10
154.7685031467014
 20
168.7151109483507
 30
0.0
  0
INSERT
  5
32
330
A
100
AcDbEntity
  8
NAILS
 62
     7
100
AcDbBlockReference
  2
AI9-BLK2
 10
103.6509514702691
 20
161.2730156792535
 30
0.0
  0
INSERT
  5
23
330
A
100
AcDbEntity
  8
NAILS
 62
     7
100
AcDbBlockReference
  2
AI9-BLK1
 10
156.6522813585069
 20
156.1982177734375
 30
0.0
  0
ENDSEC
  0
SECTION
  2
OBJECTS
  0
DICTIONARY
  5
19
330
0
100
AcDbDictionary
281
     1
  3
ACAD_COLOR
350
1BE
  3
ACAD_GROUP
350
1A
  3
ACAD_LAYOUT
350
18B
  3
ACAD_MATERIAL
350
1C0
  3
ACAD_MLINESTYLE
350
1B
  3
ACAD_PLOTSETTINGS
350
18C
  3
ACAD_PLOTSTYLENAME
350
189
  3
ACDBHEADERROUNDTRIPXREC
350
1BD
  0
DICTIONARY
  5
1BE
102
{ACAD_REACTORS
330
19
102
}
330
19
100
AcDbDictionary
281
     1
  0
DICTIONARY
  5
1A
102
{ACAD_REACTORS
330
19
102
}
330
19
100
AcDbDictionary
281
     1
  0
DICTIONARY
  5
18B
102
{ACAD_REACTORS
330
19
102
}
330
19
100
AcDbDictionary
281
     1
  3
Layout1
350
18E
  3
Model
350
18D
  0
DICTIONARY
  5
1C0
102
{ACAD_REACTORS
330
19
102
}
330
19
100
AcDbDictionary
281
     1
  0
DICTIONARY
  5
1B
102
{ACAD_REACTORS
330
19
102
}
330
19
100
AcDbDictionary
281
     1
  3
STANDARD
350
1C
  0
DICTIONARY
  5
18C
102
{ACAD_REACTORS
330
19
102
}
330
19
100
AcDbDictionary
281
     1
  0
ACDBDICTIONARYWDFLT
  5
189
102
{ACAD_REACTORS
330
19
102
}
330
19
100
AcDbDictionary
281
     1
  3
Normal
350
18A
100
AcDbDictionaryWithDefault
340
18A
  0
DICTIONARY
  5
1BD
102
{ACAD_REACTORS
330
19
102
}
330
19
100
AcDbDictionary
281
     1
  3
COLORDICT
350
1BF
  3
MATERIALDICT
350
1C1
  0
LAYOUT
  5
18E
102
{ACAD_REACTORS
330
18B
102
}
102
{ACAD_XDICTIONARY
360
1C2
102
}
330
18B
100
AcDbPlotSettings
  1

  2
Support Center HP LaserJet 4
  4

  6

 40
0.0
 41
0.0
 42
0.0
 43
0.0
 44
0.0
 45
0.0
 46
0.0
 47
0.0
 48
0.0
 49
0.0
140
0.0
141
0.0
142
1.0
143
1.0
 70
   688
 72
     0
 73
     0
 74
     5
  7

 75
    16
147
1.0
148
0.0
149
0.0
100
AcDbLayout
  1
Layout1
 70
     0
 71
     1
 10
0.0
 20
0.0
 11
12.0
 21
9.0
 12
0.0
 22
0.0
 32
0.0
 14
1.000000000000000E+20
 24
1.000000000000000E+20
 34
1.000000000000000E+20
 15
-1.000000000000000E+20
 25
-1.000000000000000E+20
 35
-1.000000000000000E+20
146
0.0
 13
0.0
 23
0.0
 33
0.0
 16
1.0
 26
0.0
 36
0.0
 17
0.0
 27
1.0
 37
0.0
 76
     0
330
B
  0
LAYOUT
  5
18D
102
{ACAD_REACTORS
330
18B
102
}
102
{ACAD_XDICTIONARY
360
1C4
102
}
330
18B
100
AcDbPlotSettings
  1

  2
Support Center HP LaserJet 4
  4

  6

 40
0.0
 41
0.0
 42
0.0
 43
0.0
 44
0.0
 45
0.0
 46
0.0
 47
0.0
 48
0.0
 49
0.0
140
0.0
141
0.0
142
1.0
143
1.0
 70
  1712
 72
     0
 73
     0
 74
     0
  7

 75
     0
147
1.0
148
0.0
149
0.0
100
AcDbLayout
  1
Model
 70
     1
 71
     0
 10
0.0
 20
0.0
 11
12.0
 21
9.0
 12
0.0
 22
0.0
 32
0.0
 14
0.0
 24
0.0
 34
0.0
 15
0.0
 25
0.0
 35
0.0
146
0.0
 13
0.0
 23
0.0
 33
0.0
 16
1.0
 26
0.0
 36
0.0
 17
0.0
 27
1.0
 37
0.0
 76
     0
330
A
  0
MLINESTYLE
  5
1C
102
{ACAD_REACTORS
330
1B
102
}
330
1B
100
AcDbMlineStyle
  2
STANDARD
 70
     0
  3

 62
     0
 51
90.0000000000002
 52
90.0000000000002
 71
     2
 49
0.5
 62
   256
  6
BYLAYER
 49
-0.5
 62
   256
  6
BYLAYER
  0
ACDBPLACEHOLDER
  5
18A
102
{ACAD_REACTORS
330
189
102
}
330
189
  0
XRECORD
  5
1BF
102
{ACAD_REACTORS
330
1BD
102
}
330
1BD
100
AcDbXrecord
340
1BE
  0
XRECORD
  5
1C1
102
{ACAD_REACTORS
330
1BD
102
}
330
1BD
100
AcDbXrecord
340
1C0
  0
DICTIONARY
  5
1C2
330
18E
100
AcDbDictionary
280
     1
281
     1
  3
ACAD_XREC_ROUNDTRIP
360
1C3
  0
DICTIONARY
  5
1C4
330
18D
100
AcDbDictionary
280
     1
281
     1
  3
ACAD_XREC_ROUNDTRIP
360
1C5
  0
XRECORD
  5
1C3
102
{ACAD_REACTORS
330
1C2
102
}
330
1C2
100
AcDbXrecord
102
SHADEPLOT
 70
     0
102
SHADEPLOTRESLEVEL
 70
     0
102
SHADEPLOTCUSTOMDPI
 70
     0
  0
XRECORD
  5
1C5
102
{ACAD_REACTORS
330
1C4
102
}
330
1C4
100
AcDbXrecord
102
SHADEPLOT
 70
     0
102
SHADEPLOTRESLEVEL
 70
     0
102
SHADEPLOTCUSTOMDPI
 70
     0
  0
ENDSEC
  0
EOF
