  0
SECTION
  2
HEADER
  9
$ACADVER
  1
AC1015
  9
$ACADMAINTVER
 70
     6
  9
$DWGCODEPAGE
  3
ANSI_1252
  9
$INSBASE
 10
0.0
 20
0.0
 30
0.0
  9
$EXTMIN
 10
6.073956685022241
 20
13.15856231081519
 30
-0.0015258207003612
  9
$EXTMAX
 10
119.6853993395828
 20
102.9852532128301
 30
0.0000000349246008
  9
$LIMMIN
 10
5.94726833767361
 20
13.03072916666667
  9
$LIMMAX
 10
119.6819281684028
 20
103.1130859375
  9
$ORTHOMODE
 70
     0
  9
$REGENMODE
 70
     1
  9
$FILLMODE
 70
     1
  9
$QTEXTMODE
 70
     0
  9
$MIRRTEXT
 70
     1
  9
$LTSCALE
 40
1.0
  9
$ATTMODE
 70
     1
  9
$TEXTSIZE
 40
0.2
  9
$TRACEWID
 40
0.05
  9
$TEXTSTYLE
  7
STANDARD
  9
$CLAYER
  8
0
  9
$CELTYPE
  6
CONTINUOUS
  9
$CECOLOR
 62
   256
  9
$CELTSCALE
 40
1.0
  9
$DISPSILH
 70
     0
  9
$DIMSCALE
 40
1.0
  9
$DIMASZ
 40
0.18
  9
$DIMEXO
 40
0.0625
  9
$DIMDLI
 40
0.38
  9
$DIMRND
 40
0.0
  9
$DIMDLE
 40
0.0
  9
$DIMEXE
 40
0.18
  9
$DIMTP
 40
0.0
  9
$DIMTM
 40
0.0
  9
$DIMTXT
 40
0.18
  9
$DIMCEN
 40
0.09
  9
$DIMTSZ
 40
0.0
  9
$DIMTOL
 70
     0
  9
$DIMLIM
 70
     0
  9
$DIMTIH
 70
     1
  9
$DIMTOH
 70
     1
  9
$DIMSE1
 70
     0
  9
$DIMSE2
 70
     0
  9
$DIMTAD
 70
     0
  9
$DIMZIN
 70
     0
  9
$DIMBLK
  1

  9
$DIMASO
 70
     1
  9
$DIMSHO
 70
     1
  9
$DIMPOST
  1

  9
$DIMAPOST
  1

  9
$DIMALT
 70
     0
  9
$DIMALTD
 70
     2
  9
$DIMALTF
 40
25.4
  9
$DIMLFAC
 40
1.0
  9
$DIMTOFL
 70
     0
  9
$DIMTVP
 40
0.0
  9
$DIMTIX
 70
     0
  9
$DIMSOXD
 70
     0
  9
$DIMSAH
 70
     0
  9
$DIMBLK1
  1

  9
$DIMBLK2
  1

  9
$DIMSTYLE
  2
STANDARD
  9
$DIMCLRD
 70
     0
  9
$DIMCLRE
 70
     0
  9
$DIMCLRT
 70
     0
  9
$DIMTFAC
 40
1.0
  9
$DIMGAP
 40
0.09
  9
$DIMJUST
 70
     0
  9
$DIMSD1
 70
     0
  9
$DIMSD2
 70
     0
  9
$DIMTOLJ
 70
     1
  9
$DIMTZIN
 70
     0
  9
$DIMALTZ
 70
     0
  9
$DIMALTTZ
 70
     0
  9
$DIMUPT
 70
     0
  9
$DIMDEC
 70
     4
  9
$DIMTDEC
 70
     4
  9
$DIMALTU
 70
     2
  9
$DIMALTTD
 70
     2
  9
$DIMTXSTY
  7
STANDARD
  9
$DIMAUNIT
 70
     0
  9
$DIMADEC
 70
     0
  9
$DIMALTRND
 40
0.0
  9
$DIMAZIN
 70
     0
  9
$DIMDSEP
 70
    46
  9
$DIMATFIT
 70
     3
  9
$DIMFRAC
 70
     0
  9
$DIMLDRBLK
  1

  9
$DIMLUNIT
 70
     2
  9
$DIMLWD
 70
    -2
  9
$DIMLWE
 70
    -2
  9
$DIMTMOVE
 70
     0
  9
$LUNITS
 70
     2
  9
$LUPREC
 70
     4
  9
$SKETCHINC
 40
0.1
  9
$FILLETRAD
 40
0.0
  9
$AUNITS
 70
     0
  9
$AUPREC
 70
     0
  9
$MENU
  1
acad
  9
$ELEVATION
 40
0.0
  9
$PELEVATION
 40
0.0
  9
$THICKNESS
 40
0.0
  9
$LIMCHECK
 70
     0
  9
$CHAMFERA
 40
0.0
  9
$CHAMFERB
 40
0.0
  9
$CHAMFERC
 40
0.0
  9
$CHAMFERD
 40
0.0
  9
$SKPOLY
 70
     0
  9
$TDCREATE
 40
2444971.666666667
  9
$TDUCREATE
 40
2444972.0
  9
$TDUPDATE
 40
2452219.456734028
  9
$TDUUPDATE
 40
2452219.790067361
  9
$TDINDWG
 40
0.0003953704
  9
$TDUSRTIMER
 40
0.0003953704
  9
$USRTIMER
 70
     1
  9
$ANGBASE
 50
0.0
  9
$ANGDIR
 70
     0
  9
$PDMODE
 70
     0
  9
$PDSIZE
 40
0.0
  9
$PLINEWID
 40
0.0
  9
$SPLFRAME
 70
     0
  9
$SPLINETYPE
 70
     6
  9
$SPLINESEGS
 70
     8
  9
$HANDSEED
  5
B8
  9
$SURFTAB1
 70
     6
  9
$SURFTAB2
 70
     6
  9
$SURFTYPE
 70
     6
  9
$SURFU
 70
     6
  9
$SURFV
 70
     6
  9
$UCSBASE
  2

  9
$UCSNAME
  2

  9
$UCSORG
 10
0.0
 20
0.0
 30
0.0
  9
$UCSXDIR
 10
1.0
 20
0.0
 30
0.0
  9
$UCSYDIR
 10
0.0
 20
1.0
 30
0.0
  9
$UCSORTHOREF
  2

  9
$UCSORTHOVIEW
 70
     0
  9
$UCSORGTOP
 10
0.0
 20
0.0
 30
0.0
  9
$UCSORGBOTTOM
 10
0.0
 20
0.0
 30
0.0
  9
$UCSORGLEFT
 10
0.0
 20
0.0
 30
0.0
  9
$UCSORGRIGHT
 10
0.0
 20
0.0
 30
0.0
  9
$UCSORGFRONT
 10
0.0
 20
0.0
 30
0.0
  9
$UCSORGBACK
 10
0.0
 20
0.0
 30
0.0
  9
$PUCSBASE
  2

  9
$PUCSNAME
  2

  9
$PUCSORG
 10
0.0
 20
0.0
 30
0.0
  9
$PUCSXDIR
 10
1.0
 20
0.0
 30
0.0
  9
$PUCSYDIR
 10
0.0
 20
1.0
 30
0.0
  9
$PUCSORTHOREF
  2

  9
$PUCSORTHOVIEW
 70
     0
  9
$PUCSORGTOP
 10
0.0
 20
0.0
 30
0.0
  9
$PUCSORGBOTTOM
 10
0.0
 20
0.0
 30
0.0
  9
$PUCSORGLEFT
 10
0.0
 20
0.0
 30
0.0
  9
$PUCSORGRIGHT
 10
0.0
 20
0.0
 30
0.0
  9
$PUCSORGFRONT
 10
0.0
 20
0.0
 30
0.0
  9
$PUCSORGBACK
 10
0.0
 20
0.0
 30
0.0
  9
$USERI1
 70
     0
  9
$USERI2
 70
     0
  9
$USERI3
 70
     0
  9
$USERI4
 70
     0
  9
$USERI5
 70
     0
  9
$USERR1
 40
0.0
  9
$USERR2
 40
0.0
  9
$USERR3
 40
0.0
  9
$USERR4
 40
0.0
  9
$USERR5
 40
0.0
  9
$WORLDVIEW
 70
     1
  9
$SHADEDGE
 70
     3
  9
$SHADEDIF
 70
    70
  9
$TILEMODE
 70
     1
  9
$MAXACTVP
 70
    16
  9
$PINSBASE
 10
0.0
 20
0.0
 30
0.0
  9
$PLIMCHECK
 70
     0
  9
$PEXTMIN
 10
1.000000000000000E+20
 20
1.000000000000000E+20
 30
1.000000000000000E+20
  9
$PEXTMAX
 10
-1.000000000000000E+20
 20
-1.000000000000000E+20
 30
-1.000000000000000E+20
  9
$PLIMMIN
 10
0.0
 20
0.0
  9
$PLIMMAX
 10
12.0
 20
9.0
  9
$UNITMODE
 70
     0
  9
$VISRETAIN
 70
     0
  9
$PLINEGEN
 70
     1
  9
$PSLTSCALE
 70
     0
  9
$TREEDEPTH
 70
  3020
  9
$CMLSTYLE
  2
STANDARD
  9
$CMLJUST
 70
     0
  9
$CMLSCALE
 40
1.0
  9
$PROXYGRAPHICS
 70
     0
  9
$MEASUREMENT
 70
     0
  9
$CELWEIGHT
370
    -1
  9
$ENDCAPS
280
     0
  9
$JOINSTYLE
280
     0
  9
$LWDISPLAY
290
     0
  9
$INSUNITS
 70
     0
  9
$HYPERLINKBASE
  1

  9
$STYLESHEET
  1

  9
$XEDIT
290
     1
  9
$CEPSNTYPE
380
     0
  9
$PSTYLEMODE
290
     1
  9
$FINGERPRINTGUID
  2
{0AE0D089-D1C7-11D5-923F-00805F198AD5}
  9
$VERSIONGUID
  2
{0AE0D08B-D1C7-11D5-923F-00805F198AD5}
  9
$EXTNAMES
290
     1
  9
$PSVPSCALE
 40
0.0
  9
$OLESTARTUP
290
     0
  0
ENDSEC
  0
SECTION
  2
CLASSES
  0
CLASS
  1
LWPOLYLINE
  2
AcDbPolyline
  3
AutoCAD 2000
 90
        0
280
     0
281
     1
  0
CLASS
  1
IMAGE
  2
AcDbRasterImage
  3
ISM
 90
      127
280
     0
281
     1
  0
CLASS
  1
OLE2FRAME
  2
AcDbOle2Frame
  3
AutoCAD 2000
 90
        0
280
     0
281
     1
  0
CLASS
  1
HATCH
  2
AcDbHatch
  3
AutoCAD 2000
 90
        0
280
     0
281
     1
  0
CLASS
  1
DICTIONARYVAR
  2
AcDbDictionaryVar
  3
AutoCAD 2000
 90
        0
280
     0
281
     0
  0
CLASS
  1
RASTERVARIABLES
  2
AcDbRasterVariables
  3
ISM
 90
        0
280
     0
281
     0
  0
CLASS
  1
IMAGEDEF
  2
AcDbRasterImageDef
  3
ISM
 90
        0
280
     0
281
     0
  0
CLASS
  1
IMAGEDEF_REACTOR
  2
AcDbRasterImageDefReactor
  3
ISM
 90
        1
280
     0
281
     0
  0
CLASS
  1
IDBUFFER
  2
AcDbIdBuffer
  3
AutoCAD 2000
 90
        0
280
     0
281
     0
  0
CLASS
  1
SPATIAL_FILTER
  2
AcDbSpatialFilter
  3
AutoCAD 2000
 90
        0
280
     0
281
     0
  0
CLASS
  1
XRECORD
  2
AcDbXrecord
  3
AutoCAD 2000
 90
        0
280
     0
281
     0
  0
CLASS
  1
SORTENTSTABLE
  2
AcDbSortentsTable
  3
AutoCAD 2000
 90
        0
280
     0
281
     0
  0
CLASS
  1
LAYER_INDEX
  2
AcDbLayerIndex
  3
AutoCAD 2000
 90
        0
280
     0
281
     0
  0
CLASS
  1
SPATIAL_INDEX
  2
AcDbSpatialIndex
  3
AutoCAD 2000
 90
        0
280
     0
281
     0
  0
CLASS
  1
OBJECT_PTR
  2
CAseDLPNTableRecord
  3
ASE-LPNTableRecord
 90
        1
280
     1
281
     0
  0
CLASS
  1
LAYOUT
  2
AcDbLayout
  3
ObjectDBX Classes
 90
        0
280
     0
281
     0
  0
CLASS
  1
PLOTSETTINGS
  2
AcDbPlotSettings
  3
AutoCAD 2000
 90
        0
280
     0
281
     0
  0
CLASS
  1
ACDBDICTIONARYWDFLT
  2
AcDbDictionaryWithDefault
  3
AutoCAD 2000
 90
        0
280
     0
281
     0
  0
CLASS
  1
ACDBPLACEHOLDER
  2
AcDbPlaceHolder
  3
ObjectDBX Classes
 90
        0
280
     0
281
     0
  0
CLASS
  1
VBAPROJECT
  2
AcDbVbaProject
  3
ObjectDBX Classes
 90
        0
280
     0
281
     0
  0
CLASS
  1
WIPEOUT
  2
AcDbWipeout
  3
WipeOut|AutoCAD Express Tool|expresstools@autodesk.com
 90
      127
280
     0
281
     1
  0
CLASS
  1
WIPEOUTVARIABLES
  2
AcDbWipeoutVariables
  3
WipeOut|AutoCAD Express Tool|expresstools@autodesk.com
 90
        0
280
     0
281
     0
  0
CLASS
  1
RTEXT
  2
RText
  3
RText|AutoCAD Express Tool|expresstools@autodesk.com
 90
        0
280
     0
281
     1
  0
CLASS
  1
ARCALIGNEDTEXT
  2
AcDbArcAlignedText
  3
ATEXT|AutoCAD Express Tool|expresstools@autodesk.com
 90
        0
280
     0
281
     1
  0
CLASS
  1
LONG_TRANSACTION
  2
AcDbLongTransaction
  3
AutoCAD 2000
 90
        0
280
     1
281
     0
  0
CLASS
  1
LWPOLYLINE
  2
AcDbPolyline
  3
AutoCAD 2000
 90
        0
280
     0
281
     1
  0
CLASS
  1
HATCH
  2
AcDbHatch
  3
AutoCAD 2000
 90
        0
280
     0
281
     1
  0
CLASS
  1
XRECORD
  2
AcDbXrecord
  3
AutoCAD 2000
 90
        0
280
     0
281
     0
  0
ENDSEC
  0
SECTION
  2
TABLES
  0
TABLE
  2
VPORT
  5
7
330
0
100
AcDbSymbolTable
 70
     2
  0
VPORT
  5
84
330
7
100
AcDbSymbolTableRecord
100
AcDbViewportTableRecord
  2
*Active
 70
     0
 10
0.0
 20
0.0
 11
1.0
 21
1.0
 12
62.87967801230253
 22
58.07190776182266
 13
0.0
 23
0.0
 14
1.0
 24
1.0
 15
0.0
 25
0.0
 16
0.0
 26
0.0
 36
1.0
 17
0.0
 27
0.0
 37
0.0
 40
91.241284459527
 41
1.836842105263158
 42
50.0
 43
0.0
 44
0.0
 50
0.0
 51
0.0
 71
     0
 72
   100
 73
     1
 74
     1
 75
     0
 76
     0
 77
     0
 78
     0
281
     0
 65
     1
110
0.0
120
0.0
130
0.0
111
1.0
121
0.0
131
0.0
112
0.0
122
1.0
132
0.0
 79
     0
146
0.0
  0
ENDTAB
  0
TABLE
  2
LTYPE
  5
4
330
0
100
AcDbSymbolTable
 70
     2
  0
LTYPE
  5
11
330
4
100
AcDbSymbolTableRecord
100
AcDbLinetypeTableRecord
  2
BYBLOCK
 70
     0
  3

 72
    65
 73
     0
 40
0.0
  0
LTYPE
  5
12
330
4
100
AcDbSymbolTableRecord
100
AcDbLinetypeTableRecord
  2
BYLAYER
 70
     0
  3

 72
    65
 73
     0
 40
0.0
  0
LTYPE
  5
13
330
4
100
AcDbSymbolTableRecord
100
AcDbLinetypeTableRecord
  2
CONTINUOUS
 70
     0
  3
Solid line
 72
    65
 73
     0
 40
0.0
  0
LTYPE
  5
5A
330
4
100
AcDbSymbolTableRecord
100
AcDbLinetypeTableRecord
  2
AI9-LTYPE1
 70
     0
  3
Illustrator Dash Style No.1
 72
    65
 73
     4
 40
16.93333333333333
 49
5.291666666666666
 74
     0
 49
-3.175
 74
     0
 49
5.291666666666666
 74
     0
 49
-3.175
 74
     0
  0
ENDTAB
  0
TABLE
  2
LAYER
  5
2
330
0
100
AcDbSymbolTable
 70
     2
  0
LAYER
  5
14
330
2
100
AcDbSymbolTableRecord
100
AcDbLayerTableRecord
  2
0
 70
     0
 62
     7
  6
CONTINUOUS
370
    -3
390
0
  0
LAYER
  5
21
330
2
100
AcDbSymbolTableRecord
100
AcDbLayerTableRecord
  2
LAYER_1
 70
     0
 62
     5
  6
CONTINUOUS
370
    -3
390
0
  0
ENDTAB
  0
TABLE
  2
STYLE
  5
3
330
0
100
AcDbSymbolTable
 70
     5
  0
STYLE
  5
17
330
3
100
AcDbSymbolTableRecord
100
AcDbTextStyleTableRecord
  2
STANDARD
 70
     0
 40
0.0
 41
1.0
 50
0.0
 71
     0
 42
0.2
  3
txt
  4

  0
STYLE
  5
1D
330
3
100
AcDbSymbolTableRecord
100
AcDbTextStyleTableRecord
  2
STD
 70
     0
 40
0.0
 41
1.0
 50
0.0
 71
     0
 42
0.2
  3
txt
  4

  0
STYLE
  5
1E
330
3
100
AcDbSymbolTableRecord
100
AcDbTextStyleTableRecord
  2
TATESTD
 70
     4
 40
0.0
 41
1.0
 50
0.0
 71
     0
 42
0.2
  3
txt
  4

  0
STYLE
  5
1F
330
3
100
AcDbSymbolTableRecord
100
AcDbTextStyleTableRecord
  2
KANJISTD
 70
     0
 40
0.0
 41
1.0
 50
0.0
 71
     0
 42
0.2
  3
txt
  4
extfont
  0
STYLE
  5
20
330
3
100
AcDbSymbolTableRecord
100
AcDbTextStyleTableRecord
  2
KANJITATE
 70
     4
 40
0.0
 41
1.0
 50
0.0
 71
     0
 42
0.2
  3
txt
  4
extfont
  0
ENDTAB
  0
TABLE
  2
VIEW
  5
5
330
0
100
AcDbSymbolTable
 70
     0
  0
ENDTAB
  0
TABLE
  2
UCS
  5
6
330
0
100
AcDbSymbolTable
 70
     0
  0
ENDTAB
  0
TABLE
  2
APPID
  5
8
330
0
100
AcDbSymbolTable
 70
     1
  0
APPID
  5
16
330
8
100
AcDbSymbolTableRecord
100
AcDbRegAppTableRecord
  2
ACAD
 70
     0
  0
ENDTAB
  0
TABLE
  2
DIMSTYLE
  5
9
330
0
100
AcDbSymbolTable
 70
     1
100
AcDbDimStyleTable
  0
DIMSTYLE
105
18
330
9
100
AcDbSymbolTableRecord
100
AcDbDimStyleTableRecord
  2
STANDARD
 70
     0
  3

  4

289
     0
340
17
  0
ENDTAB
  0
TABLE
  2
BLOCK_RECORD
  5
1
330
0
100
AcDbSymbolTable
 70
     1
  0
BLOCK_RECORD
  5
A
330
1
100
AcDbSymbolTableRecord
100
AcDbBlockTableRecord
  2
*MODEL_SPACE
340
7F
  0
BLOCK_RECORD
  5
B
330
1
100
AcDbSymbolTableRecord
100
AcDbBlockTableRecord
  2
*PAPER_SPACE
340
80
  0
BLOCK_RECORD
  5
5C
330
1
100
AcDbSymbolTableRecord
100
AcDbBlockTableRecord
  2
AI9-BLK1
340
0
102
{BLKREFS
331
5D
102
}
  0
ENDTAB
  0
ENDSEC
  0
SECTION
  2
BLOCKS
  0
BLOCK
  5
D
330
A
100
AcDbEntity
  8
0
100
AcDbBlockBegin
  2
*MODEL_SPACE
 70
     0
 10
0.0
 20
0.0
 30
0.0
  3
*MODEL_SPACE
  1

  4

  0
ENDBLK
  5
E
330
A
100
AcDbEntity
  8
0
100
AcDbBlockEnd
  0
BLOCK
  5
F
330
B
100
AcDbEntity
 67
     1
  8
0
100
AcDbBlockBegin
  2
*PAPER_SPACE
 70
     0
 10
0.0
 20
0.0
 30
0.0
  3
*PAPER_SPACE
  1

  4

  0
ENDBLK
  5
10
330
B
100
AcDbEntity
 67
     1
  8
0
100
AcDbBlockEnd
  0
BLOCK
  5
5E
330
5C
100
AcDbEntity
  8
LAYER_1
  6
AI9-LTYPE1
 62
     7
100
AcDbBlockBegin
  2
AI9-BLK1
 70
     0
 10
0.0
 20
0.0
 30
0.0
  3
AI9-BLK1
  1

  4

  0
ENDBLK
  5
5F
330
5C
100
AcDbEntity
  8
LAYER_1
100
AcDbBlockEnd
  0
ENDSEC
  0
SECTION
  2
ENTITIES
  0
LWPOLYLINE
  5
70
330
A
100
AcDbEntity
  8
LAYER_1
 62
     7
100
AcDbPolyline
 90
        8
 70
     1
 43
0.0
 10
26.87260606553819
 20
15.81040445963542
 10
20.67040066189236
 20
21.96816813151041
 10
18.10104844835069
 20
22.18986002604166
 10
18.63279893663194
 20
26.84125569661458
 10
15.48725450303819
 20
27.018505859375
 10
8.119745551215278
 20
34.67436930338541
 10
44.5092556423611
 20
71.32071126302083
 10
82.38239610460069
 20
71.32019449869792
  0
LWPOLYLINE
  5
60
330
A
100
AcDbEntity
  8
LAYER_1
 62
     7
100
AcDbPolyline
 90
       14
 70
     0
 43
0.0
 10
28.5162611219618
 20
73.31387125651041
 10
11.14540066189236
 20
73.31387125651041
 10
11.14540066189236
 20
81.42086995442708
 10
13.07293158637153
 20
83.96851806640625
 10
9.018915473090276
 20
87.73417968749999
 10
11.07925482855903
 20
89.63897298177082
 10
11.03481309678819
 20
99.69520670572916
 10
114.4786282009548
 20
99.69520670572916
 10
114.4786282009548
 20
88.19926757812499
 10
116.1844672309028
 20
86.44898681640625
 10
113.038922797309
 20
83.96851806640625
 10
114.6336574978298
 20
81.86373697916666
 10
114.6336574978298
 20
73.31387125651041
 10
97.42557779947916
 20
73.31387125651041
  0
INSERT
  5
5D
330
A
100
AcDbEntity
  8
LAYER_1
  6
AI9-LTYPE1
 62
     7
100
AcDbBlockReference
  2
AI9-BLK1
 10
58.74766303168402
 20
67.44394531249999
 30
0.0
  0
LINE
  5
5B
330
A
100
AcDbEntity
  8
LAYER_1
  6
AI9-LTYPE1
 62
     7
100
AcDbLine
 10
23.01857774522569
 20
47.57435709635416
 30
0.0
 11
58.1053249782986
 21
47.57435709635416
 31
0.0
  0
LINE
  5
59
330
A
100
AcDbEntity
  8
LAYER_1
 62
     7
100
AcDbLine
 10
8.119745551215278
 20
34.67436930338541
 30
0.0
 11
6.079560004340277
 21
36.6830322265625
 31
0.0
  0
LINE
  5
58
330
A
100
AcDbEntity
  8
LAYER_1
 62
     7
100
AcDbLine
 10
26.87260606553819
 20
15.81040445963542
 30
0.0
 11
29.47658148871528
 21
13.16302083333333
 31
0.0
  0
SPLINE
  5
57
330
A
100
AcDbEntity
  8
LAYER_1
 62
     7
100
AcDbSpline
210
0.0
220
0.0
230
1.0
 70
     8
 71
     3
 72
    11
 73
     7
 74
     0
 42
0.0000000001
 43
0.0000000001
 40
0.0
 40
0.0
 40
0.0
 40
0.0
 40
1.0
 40
1.0
 40
1.0
 40
2.0
 40
2.0
 40
2.0
 40
2.0
 10
72.59177924262153
 20
37.163623046875
 30
0.0
 10
70.19967719184027
 20
31.44872639973958
 30
0.0
 10
76.80030788845485
 20
20.19618326822917
 30
0.0
 10
89.02746853298611
 20
25.82271321614583
 30
0.0
 10
93.75792914496527
 20
27.99880777994791
 30
0.0
 10
98.72971869574651
 20
31.005859375
 30
0.0
 10
98.72971869574651
 20
31.005859375
 30
0.0
  0
SPLINE
  5
56
330
A
100
AcDbEntity
  8
LAYER_1
 62
     7
100
AcDbSpline
210
0.0
220
0.0
230
1.0
 70
     8
 71
     3
 72
     8
 73
     4
 74
     0
 42
0.0000000001
 43
0.0000000001
 40
0.0
 40
0.0
 40
0.0
 40
0.0
 40
1.0
 40
1.0
 40
1.0
 40
1.0
 10
63.51016303168402
 20
42.56846110026041
 30
0.0
 10
69.62348497178819
 20
37.82818196614583
 30
0.0
 10
77.6421169704861
 20
35.70169677734375
 30
0.0
 10
83.1797634548611
 20
35.83450520833333
 30
0.0
  0
HATCH
  5
55
330
A
100
AcDbEntity
  8
LAYER_1
 62
     7
100
AcDbHatch
 10
0.0
 20
0.0
 30
0.0
210
0.0
220
0.0
230
1.0
  2
SOLID
 70
     1
 71
     0
 91
        1
 92
        3
 72
     0
 73
     1
 93
        3
 10
61.60485297309027
 20
44.16319580078125
 10
65.23770616319443
 20
43.011328125
 10
63.51016303168402
 20
40.88484293619791
 97
        0
 75
     0
 76
     1
 98
        1
 10
0.0
 20
0.0
  0
HATCH
  5
54
330
A
100
AcDbEntity
  8
LAYER_1
 62
     7
100
AcDbHatch
 10
0.0
 20
0.0
 30
0.0
210
0.0
220
0.0
230
1.0
  2
SOLID
 70
     1
 71
     0
 91
        1
 92
        3
 72
     0
 73
     1
 93
        3
 10
82.73689643012152
 20
37.11918131510416
 10
82.64801296657986
 20
34.59427083333333
 10
86.19249945746527
 20
35.83450520833333
 97
        0
 75
     0
 76
     1
 98
        1
 10
0.0
 20
0.0
  0
LWPOLYLINE
  5
4F
330
A
100
AcDbEntity
  8
LAYER_1
 62
     7
100
AcDbPolyline
 90
        3
 70
     0
 43
0.0
 10
59.25719265407986
 20
42.25840250651041
 10
86.45811631944444
 20
69.28207600911458
 10
86.63536648220486
 20
32.42334391276042
  0
LWPOLYLINE
  5
47
330
A
100
AcDbEntity
  8
LAYER_1
 62
     7
100
AcDbPolyline
 90
        6
 70
     1
 43
0.0
 10
84.7548611111111
 20
71.3387980143229
 10
60.40906032986111
 20
46.73306477864583
 10
59.0355007595486
 20
47.84049072265625
 10
82.0945583767361
 20
70.94347330729165
 10
82.42683783637152
 20
71.32019449869792
 10
82.80304226345486
 20
71.32019449869792
  0
SPLINE
  5
46
330
A
100
AcDbEntity
  8
LAYER_1
 62
     7
100
AcDbSpline
210
0.0
220
0.0
230
1.0
 70
     8
 71
     3
 72
     8
 73
     4
 74
     0
 42
0.0000000001
 43
0.0000000001
 40
0.0
 40
0.0
 40
0.0
 40
0.0
 40
1.0
 40
1.0
 40
1.0
 40
1.0
 10
85.04063178168403
 20
71.32019449869792
 30
0.0
 10
84.59724799262152
 20
71.1429443359375
 30
0.0
 10
83.75543891059027
 20
70.43446044921875
 30
0.0
 10
83.66707221137152
 20
70.25669352213541
 30
0.0
  0
SPLINE
  5
45
330
A
100
AcDbEntity
  8
LAYER_1
 62
     7
100
AcDbSpline
210
0.0
220
0.0
230
1.0
 70
     8
 71
     3
 72
    14
 73
    10
 74
     0
 42
0.0000000001
 43
0.0000000001
 40
0.0
 40
0.0
 40
0.0
 40
0.0
 40
1.0
 40
1.0
 40
1.0
 40
2.0
 40
2.0
 40
2.0
 40
3.0
 40
3.0
 40
3.0
 40
3.0
 10
86.23642442491318
 20
71.32019449869792
 30
0.0
 10
85.74911566840277
 20
71.01013590494792
 30
0.0
 10
85.4834988064236
 20
70.47838541666665
 30
0.0
 10
85.4834988064236
 20
70.47838541666665
 30
0.0
 10
85.4834988064236
 20
70.47838541666665
 30
0.0
 10
84.90730658637152
 20
70.07996012369792
 30
0.0
 10
84.50888129340277
 20
69.99107666015624
 30
0.0
 10
84.1099392361111
 20
69.9027099609375
 30
0.0
 10
83.62263047960069
 20
69.85826822916665
 30
0.0
 10
83.4898220486111
 20
70.03551839192707
 30
0.0
  0
LWPOLYLINE
  5
3E
330
A
100
AcDbEntity
  8
LAYER_1
 62
     7
100
AcDbPolyline
 90
        5
 70
     1
 43
0.0
 10
42.26184760199652
 20
71.31761067708332
 10
19.87303331163194
 20
48.94791666666666
 10
21.11326768663194
 20
47.75160725911458
 10
44.74800075954861
 20
71.29952392578124
 10
44.25810818142361
 20
71.31761067708332
  0
SPLINE
  5
3D
330
A
100
AcDbEntity
  8
LAYER_1
 62
     7
100
AcDbSpline
210
0.0
220
0.0
230
1.0
 70
    11
 71
     3
 72
    17
 73
    13
 74
     0
 42
0.0000000001
 43
0.0000000001
 40
0.0
 40
0.0
 40
0.0
 40
0.0
 40
1.0
 40
1.0
 40
1.0
 40
2.0
 40
2.0
 40
2.0
 40
3.0
 40
3.0
 40
3.0
 40
4.0
 40
4.0
 40
4.0
 40
4.0
 10
39.89713406032985
 20
68.94979654947916
 30
0.0
 10
41.11566433376736
 20
70.12388509114582
 30
0.0
 10
39.09976671006944
 20
71.1429443359375
 30
0.0
 10
38.39076605902778
 20
71.32019449869792
 30
0.0
 10
38.39076605902778
 20
71.32019449869792
 30
0.0
 10
39.89713406032985
 20
71.32019449869792
 30
0.0
 10
39.89713406032985
 20
71.32019449869792
 30
0.0
 10
40.22941351996528
 20
71.23182779947916
 30
0.0
 10
41.29291449652777
 20
70.50060628255207
 30
0.0
 10
40.84953070746528
 20
69.9027099609375
 30
0.0
 10
40.84953070746528
 20
69.9027099609375
 30
0.0
 10
39.89713406032985
 20
68.94979654947916
 30
0.0
 10
39.89713406032985
 20
68.94979654947916
 30
0.0
  0
LWPOLYLINE
  5
37
330
A
100
AcDbEntity
  8
LAYER_1
 62
     7
100
AcDbPolyline
 90
        4
 70
     1
 43
0.0
 10
28.79962022569444
 20
88.15482584635416
 10
97.6222927517361
 20
88.15482584635416
 10
97.6222927517361
 20
71.32019449869792
 10
28.75517849392361
 20
71.32019449869792
  0
LINE
  5
36
330
A
100
AcDbEntity
  8
LAYER_1
 62
     7
100
AcDbLine
 10
114.4786282009548
 20
99.85747070312499
 30
0.0
 11
114.4786282009548
 21
102.9807942708333
 31
0.0
  0
LINE
  5
35
330
A
100
AcDbEntity
  8
LAYER_1
 62
     7
100
AcDbLine
 10
11.03481309678819
 20
99.8796915690104
 30
0.0
 11
11.03481309678819
 21
102.759619140625
 31
0.0
  0
LINE
  5
34
330
A
100
AcDbEntity
  8
LAYER_1
 62
     7
100
AcDbLine
 10
114.6336574978298
 20
70.17452799479166
 30
0.0
 11
114.6336574978298
 21
73.2978515625
 31
0.0
  0
LINE
  5
33
330
A
100
AcDbEntity
  8
LAYER_1
 62
     7
100
AcDbLine
 10
11.03481309678819
 20
70.19674886067708
 30
0.0
 11
11.03481309678819
 21
73.07615966796874
 31
0.0
  0
CIRCLE
  5
32
330
A
100
AcDbEntity
  8
LAYER_1
 62
     7
100
AcDbCircle
 10
31.42374945746527
 20
84.96794026692707
 30
0.0
 40
0.98753662109375
  0
CIRCLE
  5
31
330
A
100
AcDbEntity
  8
LAYER_1
 62
     7
100
AcDbCircle
 10
63.06574571397569
 20
78.5148457845052
 30
0.0
 40
0.9872782389322916
  0
CIRCLE
  5
30
330
A
100
AcDbEntity
  8
LAYER_1
 62
     7
100
AcDbCircle
 10
94.99971381293402
 20
85.4601582845052
 30
0.0
 40
0.9872782389322916
  0
HATCH
  5
2F
330
A
100
AcDbEntity
  8
LAYER_1
 62
     7
100
AcDbHatch
 10
0.0
 20
0.0
 30
0.0
210
0.0
220
0.0
230
1.0
  2
SOLID
 70
     1
 71
     0
 91
        1
 92
        1
 93
        1
 72
     4
 94
        3
 73
     0
 74
     0
 95
       56
 96
       52
 40
0.0
 40
0.0
 40
0.0
 40
0.0
 40
1.0
 40
1.0
 40
1.0
 40
2.0
 40
2.0
 40
2.0
 40
3.0
 40
3.0
 40
3.0
 40
4.0
 40
4.0
 40
4.0
 40
5.0
 40
5.0
 40
5.0
 40
6.0
 40
6.0
 40
6.0
 40
7.0
 40
7.0
 40
7.0
 40
8.0
 40
8.0
 40
8.0
 40
9.0
 40
9.0
 40
9.0
 40
10.0
 40
10.0
 40
10.0
 40
11.0
 40
11.0
 40
11.0
 40
12.0
 40
12.0
 40
12.0
 40
13.0
 40
13.0
 40
13.0
 40
14.0
 40
14.0
 40
14.0
 40
15.0
 40
15.0
 40
15.0
 40
16.0
 40
16.0
 40
16.0
 40
17.0
 40
17.0
 40
17.0
 40
17.0
 10
94.72479519314236
 20
43.34877522786458
 10
94.69120551215276
 20
44.08671468098958
 10
94.07987331814235
 20
44.31925862630208
 10
93.54140489366318
 20
44.31925862630208
 10
93.13574490017361
 20
44.31925862630208
 10
92.45103217230901
 20
44.20660400390624
 10
92.45103217230901
 20
43.48158365885416
 10
92.45103217230901
 20
43.07644042968749
 10
92.73680284288194
 20
42.94311523437499
 10
93.01585557725694
 20
42.87696940104166
 10
93.01585557725694
 20
42.87696940104166
 10
94.37907986111111
 20
42.56432698567708
 10
94.37907986111111
 20
42.56432698567708
 10
94.99712999131944
 20
42.41808268229166
 10
95.46273464626735
 20
42.04601236979166
 10
95.46273464626735
 20
41.28791910807291
 10
95.46273464626735
 20
40.15775553385416
 10
94.41215277777776
 20
39.8456298828125
 10
93.5946316189236
 20
39.8456298828125
 10
92.71044786241319
 20
39.8456298828125
 10
92.36473253038194
 20
40.11124674479166
 10
92.15182562934027
 20
40.30399983723958
 10
91.74616563585069
 20
40.66986897786458
 10
91.66658393012152
 20
41.06829427083333
 10
91.66658393012152
 20
41.5137451171875
 10
91.66658393012152
 20
41.5137451171875
 10
92.27171495225694
 20
41.5137451171875
 10
92.27171495225694
 20
41.5137451171875
 10
92.27171495225694
 20
40.64971516927083
 10
92.97606472439236
 20
40.39701741536458
 10
93.58791368272568
 20
40.39701741536458
 10
94.05300157335068
 20
40.39701741536458
 10
94.83744981553819
 20
40.51690673828124
 10
94.83744981553819
 20
41.20161946614583
 10
94.83744981553819
 20
41.70029703776041
 10
94.60490587022569
 20
41.85946044921874
 10
93.82045762803818
 20
42.04601236979166
 10
93.82045762803818
 20
42.04601236979166
 10
92.84325629340277
 20
42.27183837890625
 10
92.84325629340277
 20
42.27183837890625
 10
92.53061387803818
 20
42.34521891276042
 10
91.82626410590277
 20
42.56432698567708
 10
91.82626410590277
 20
43.39528401692708
 10
91.82626410590277
 20
44.13994140625
 10
92.31150580512151
 20
44.87116292317708
 10
93.46802435980902
 20
44.87116292317708
 10
95.13665635850694
 20
44.87116292317708
 10
95.3030544704861
 20
43.87380777994791
 10
95.32940945095486
 20
43.34877522786458
 10
95.32940945095486
 20
43.34877522786458
 10
94.72479519314236
 20
43.34877522786458
 10
94.72479519314236
 20
43.34877522786458
 97
        0
 75
     0
 76
     1
 98
        1
 10
0.0
 20
0.0
  0
HATCH
  5
2E
330
A
100
AcDbEntity
  8
LAYER_1
 62
     7
100
AcDbHatch
 10
0.0
 20
0.0
 30
0.0
210
0.0
220
0.0
230
1.0
  2
SOLID
 70
     1
 71
     0
 91
        2
 92
       16
 93
        1
 72
     4
 94
        3
 73
     0
 74
     0
 95
       20
 96
       16
 40
0.0
 40
0.0
 40
0.0
 40
0.0
 40
1.0
 40
1.0
 40
1.0
 40
2.0
 40
2.0
 40
2.0
 40
3.0
 40
3.0
 40
3.0
 40
4.0
 40
4.0
 40
4.0
 40
5.0
 40
5.0
 40
5.0
 40
5.0
 10
96.9897732204861
 20
42.53797200520833
 10
96.9897732204861
 20
42.53797200520833
 10
98.27289903428819
 20
42.53797200520833
 10
98.27289903428819
 20
42.53797200520833
 10
98.85115831163193
 20
42.53797200520833
 10
99.24338243272568
 20
42.75036214192708
 10
99.24338243272568
 20
43.39528401692708
 10
99.24338243272568
 20
44.0004150390625
 10
98.83100450303819
 20
44.19316813151041
 10
98.29925401475694
 20
44.19316813151041
 10
98.29925401475694
 20
44.19316813151041
 10
96.9897732204861
 20
44.19316813151041
 10
96.9897732204861
 20
44.19316813151041
 10
96.9897732204861
 20
44.19316813151041
 10
96.9897732204861
 20
42.53797200520833
 10
96.9897732204861
 20
42.53797200520833
 97
        0
 92
        1
 93
        1
 72
     4
 94
        3
 73
     0
 74
     0
 95
       26
 96
       22
 40
0.0
 40
0.0
 40
0.0
 40
0.0
 40
1.0
 40
1.0
 40
1.0
 40
2.0
 40
2.0
 40
2.0
 40
3.0
 40
3.0
 40
3.0
 40
4.0
 40
4.0
 40
4.0
 40
5.0
 40
5.0
 40
5.0
 40
6.0
 40
6.0
 40
6.0
 40
7.0
 40
7.0
 40
7.0
 40
7.0
 10
96.9897732204861
 20
39.97172037760416
 10
96.9897732204861
 20
39.97172037760416
 10
96.34485134548611
 20
39.97172037760416
 10
96.34485134548611
 20
39.97172037760416
 10
96.34485134548611
 20
39.97172037760416
 10
96.34485134548611
 20
44.74507242838541
 10
96.34485134548611
 20
44.74507242838541
 10
96.34485134548611
 20
44.74507242838541
 10
98.49200710720486
 20
44.74507242838541
 10
98.49200710720486
 20
44.74507242838541
 10
99.37619086371527
 20
44.74507242838541
 10
99.90845811631944
 20
44.17301432291666
 10
99.90845811631944
 20
43.40200195312499
 10
99.90845811631944
 20
42.73744303385416
 10
99.5291531032986
 20
41.98606770833333
 10
98.49200710720486
 20
41.98606770833333
 10
98.49200710720486
 20
41.98606770833333
 10
96.9897732204861
 20
41.98606770833333
 10
96.9897732204861
 20
41.98606770833333
 10
96.9897732204861
 20
41.98606770833333
 10
96.9897732204861
 20
39.97172037760416
 10
96.9897732204861
 20
39.97172037760416
 97
        0
 75
     0
 76
     1
 98
        1
 10
0.0
 20
0.0
  0
HATCH
  5
2D
330
A
100
AcDbEntity
  8
LAYER_1
 62
     7
100
AcDbHatch
 10
0.0
 20
0.0
 30
0.0
210
0.0
220
0.0
230
1.0
  2
SOLID
 70
     1
 71
     0
 91
        1
 92
        1
 93
        1
 72
     4
 94
        3
 73
     0
 74
     0
 95
       41
 96
       37
 40
0.0
 40
0.0
 40
0.0
 40
0.0
 40
1.0
 40
1.0
 40
1.0
 40
2.0
 40
2.0
 40
2.0
 40
3.0
 40
3.0
 40
3.0
 40
4.0
 40
4.0
 40
4.0
 40
5.0
 40
5.0
 40
5.0
 40
6.0
 40
6.0
 40
6.0
 40
7.0
 40
7.0
 40
7.0
 40
8.0
 40
8.0
 40
8.0
 40
9.0
 40
9.0
 40
9.0
 40
10.0
 40
10.0
 40
10.0
 40
11.0
 40
11.0
 40
11.0
 40
12.0
 40
12.0
 40
12.0
 40
12.0
 10
104.3004380967882
 20
39.97172037760416
 10
104.3004380967882
 20
39.97172037760416
 10
100.7771389431424
 20
39.97172037760416
 10
100.7771389431424
 20
39.97172037760416
 10
100.7771389431424
 20
39.97172037760416
 10
100.7771389431424
 20
44.74507242838541
 10
100.7771389431424
 20
44.74507242838541
 10
100.7771389431424
 20
44.74507242838541
 10
104.2539293077257
 20
44.74507242838541
 10
104.2539293077257
 20
44.74507242838541
 10
104.2539293077257
 20
44.74507242838541
 10
104.2539293077257
 20
44.17301432291666
 10
104.2539293077257
 20
44.17301432291666
 10
104.2539293077257
 20
44.17301432291666
 10
101.4220608181424
 20
44.17301432291666
 10
101.4220608181424
 20
44.17301432291666
 10
101.4220608181424
 20
44.17301432291666
 10
101.4220608181424
 20
42.71057128906249
 10
101.4220608181424
 20
42.71057128906249
 10
101.4220608181424
 20
42.71057128906249
 10
104.034821234809
 20
42.71057128906249
 10
104.034821234809
 20
42.71057128906249
 10
104.034821234809
 20
42.71057128906249
 10
104.034821234809
 20
42.13902994791666
 10
104.034821234809
 20
42.13902994791666
 10
104.034821234809
 20
42.13902994791666
 10
101.4220608181424
 20
42.13902994791666
 10
101.4220608181424
 20
42.13902994791666
 10
101.4220608181424
 20
42.13902994791666
 10
101.4220608181424
 20
40.54326171875
 10
101.4220608181424
 20
40.54326171875
 10
101.4220608181424
 20
40.54326171875
 10
104.3004380967882
 20
40.54326171875
 10
104.3004380967882
 20
40.54326171875
 10
104.3004380967882
 20
40.54326171875
 10
104.3004380967882
 20
39.97172037760416
 10
104.3004380967882
 20
39.97172037760416
 97
        0
 75
     0
 76
     1
 98
        1
 10
0.0
 20
0.0
  0
HATCH
  5
2C
330
A
100
AcDbEntity
  8
LAYER_1
 62
     7
100
AcDbHatch
 10
0.0
 20
0.0
 30
0.0
210
0.0
220
0.0
230
1.0
  2
SOLID
 70
     1
 71
     0
 91
        1
 92
        1
 93
        1
 72
     4
 94
        3
 73
     0
 74
     0
 95
       35
 96
       31
 40
0.0
 40
0.0
 40
0.0
 40
0.0
 40
1.0
 40
1.0
 40
1.0
 40
2.0
 40
2.0
 40
2.0
 40
3.0
 40
3.0
 40
3.0
 40
4.0
 40
4.0
 40
4.0
 40
5.0
 40
5.0
 40
5.0
 40
6.0
 40
6.0
 40
6.0
 40
7.0
 40
7.0
 40
7.0
 40
8.0
 40
8.0
 40
8.0
 40
9.0
 40
9.0
 40
9.0
 40
10.0
 40
10.0
 40
10.0
 40
10.0
 10
108.493463812934
 20
43.30898437499999
 10
108.3141465928819
 20
44.14665934244791
 10
107.6159979926215
 20
44.29962158203124
 10
107.1576280381944
 20
44.29962158203124
 10
106.2930813259548
 20
44.29962158203124
 10
105.5949327256944
 20
43.66141764322916
 10
105.5949327256944
 20
42.40464680989583
 10
105.5949327256944
 20
41.281201171875
 10
105.9938747829861
 20
40.41717122395833
 10
107.1772650824653
 20
40.41717122395833
 10
107.5963609483507
 20
40.41717122395833
 10
108.3208645290799
 20
40.61664225260417
 10
108.5399726019965
 20
41.72665201822916
 10
108.5399726019965
 20
41.72665201822916
 10
109.1652574327257
 20
41.72665201822916
 10
109.1652574327257
 20
41.72665201822916
 10
108.8991238064236
 20
39.92521158854166
 10
107.4366807725694
 20
39.8456298828125
 10
107.0775295681424
 20
39.8456298828125
 10
105.9938747829861
 20
39.8456298828125
 10
104.9303738064236
 20
40.54997965494791
 10
104.9303738064236
 20
42.38500976562499
 10
104.9303738064236
 20
43.85417073567708
 10
105.7680487738715
 20
44.87116292317708
 10
107.1576280381944
 20
44.87116292317708
 10
108.3870103624132
 20
44.87116292317708
 10
109.0257310655382
 20
44.10686848958333
 10
109.1187486436632
 20
43.30898437499999
 10
109.1187486436632
 20
43.30898437499999
 10
108.493463812934
 20
43.30898437499999
 10
108.493463812934
 20
43.30898437499999
 97
        0
 75
     0
 76
     1
 98
        1
 10
0.0
 20
0.0
  0
HATCH
  5
2B
330
A
100
AcDbEntity
  8
LAYER_1
 62
     7
100
AcDbHatch
 10
0.0
 20
0.0
 30
0.0
210
0.0
220
0.0
230
1.0
  2
SOLID
 70
     1
 71
     0
 91
        1
 92
        1
 93
        1
 72
     4
 94
        3
 73
     0
 74
     0
 95
       17
 96
       13
 40
0.0
 40
0.0
 40
0.0
 40
0.0
 40
1.0
 40
1.0
 40
1.0
 40
2.0
 40
2.0
 40
2.0
 40
3.0
 40
3.0
 40
3.0
 40
4.0
 40
4.0
 40
4.0
 40
4.0
 10
110.6850613064236
 20
39.97172037760416
 10
110.6850613064236
 20
39.97172037760416
 10
110.0401394314236
 20
39.97172037760416
 10
110.0401394314236
 20
39.97172037760416
 10
110.0401394314236
 20
39.97172037760416
 10
110.0401394314236
 20
44.74507242838541
 10
110.0401394314236
 20
44.74507242838541
 10
110.0401394314236
 20
44.74507242838541
 10
110.6850613064236
 20
44.74507242838541
 10
110.6850613064236
 20
44.74507242838541
 10
110.6850613064236
 20
44.74507242838541
 10
110.6850613064236
 20
39.97172037760416
 10
110.6850613064236
 20
39.97172037760416
 97
        0
 75
     0
 76
     1
 98
        1
 10
0.0
 20
0.0
  0
HATCH
  5
2A
330
A
100
AcDbEntity
  8
LAYER_1
 62
     7
100
AcDbHatch
 10
0.0
 20
0.0
 30
0.0
210
0.0
220
0.0
230
1.0
  2
SOLID
 70
     1
 71
     0
 91
        1
 92
        1
 93
        1
 72
     4
 94
        3
 73
     0
 74
     0
 95
       35
 96
       31
 40
0.0
 40
0.0
 40
0.0
 40
0.0
 40
1.0
 40
1.0
 40
1.0
 40
2.0
 40
2.0
 40
2.0
 40
3.0
 40
3.0
 40
3.0
 40
4.0
 40
4.0
 40
4.0
 40
5.0
 40
5.0
 40
5.0
 40
6.0
 40
6.0
 40
6.0
 40
7.0
 40
7.0
 40
7.0
 40
8.0
 40
8.0
 40
8.0
 40
9.0
 40
9.0
 40
9.0
 40
10.0
 40
10.0
 40
10.0
 40
10.0
 10
112.4978705512153
 20
39.97172037760416
 10
112.4978705512153
 20
39.97172037760416
 10
111.8534654405382
 20
39.97172037760416
 10
111.8534654405382
 20
39.97172037760416
 10
111.8534654405382
 20
39.97172037760416
 10
111.8534654405382
 20
44.74507242838541
 10
111.8534654405382
 20
44.74507242838541
 10
111.8534654405382
 20
44.74507242838541
 10
115.1571397569444
 20
44.74507242838541
 10
115.1571397569444
 20
44.74507242838541
 10
115.1571397569444
 20
44.74507242838541
 10
115.1571397569444
 20
44.17301432291666
 10
115.1571397569444
 20
44.17301432291666
 10
115.1571397569444
 20
44.17301432291666
 10
112.4978705512153
 20
44.17301432291666
 10
112.4978705512153
 20
44.17301432291666
 10
112.4978705512153
 20
44.17301432291666
 10
112.4978705512153
 20
42.71057128906249
 10
112.4978705512153
 20
42.71057128906249
 10
112.4978705512153
 20
42.71057128906249
 10
114.8382961697049
 20
42.71057128906249
 10
114.8382961697049
 20
42.71057128906249
 10
114.8382961697049
 20
42.71057128906249
 10
114.8382961697049
 20
42.13902994791666
 10
114.8382961697049
 20
42.13902994791666
 10
114.8382961697049
 20
42.13902994791666
 10
112.4978705512153
 20
42.13902994791666
 10
112.4978705512153
 20
42.13902994791666
 10
112.4978705512153
 20
42.13902994791666
 10
112.4978705512153
 20
39.97172037760416
 10
112.4978705512153
 20
39.97172037760416
 97
        0
 75
     0
 76
     1
 98
        1
 10
0.0
 20
0.0
  0
HATCH
  5
29
330
A
100
AcDbEntity
  8
LAYER_1
 62
     7
100
AcDbHatch
 10
0.0
 20
0.0
 30
0.0
210
0.0
220
0.0
230
1.0
  2
SOLID
 70
     1
 71
     0
 91
        1
 92
        1
 93
        1
 72
     4
 94
        3
 73
     0
 74
     0
 95
       32
 96
       28
 40
0.0
 40
0.0
 40
0.0
 40
0.0
 40
1.0
 40
1.0
 40
1.0
 40
2.0
 40
2.0
 40
2.0
 40
3.0
 40
3.0
 40
3.0
 40
4.0
 40
4.0
 40
4.0
 40
5.0
 40
5.0
 40
5.0
 40
6.0
 40
6.0
 40
6.0
 40
7.0
 40
7.0
 40
7.0
 40
8.0
 40
8.0
 40
8.0
 40
9.0
 40
9.0
 40
9.0
 40
9.0
 10
117.8799709743924
 20
39.97172037760416
 10
117.8799709743924
 20
39.97172037760416
 10
117.2355658637153
 20
39.97172037760416
 10
117.2355658637153
 20
39.97172037760416
 10
117.2355658637153
 20
39.97172037760416
 10
117.2355658637153
 20
41.89305013020833
 10
117.2355658637153
 20
41.89305013020833
 10
117.2355658637153
 20
41.89305013020833
 10
115.4336086697049
 20
44.74507242838541
 10
115.4336086697049
 20
44.74507242838541
 10
115.4336086697049
 20
44.74507242838541
 10
116.1849839952257
 20
44.74507242838541
 10
116.1849839952257
 20
44.74507242838541
 10
116.1849839952257
 20
44.74507242838541
 10
117.5544094509549
 20
42.45115559895833
 10
117.5544094509549
 20
42.45115559895833
 10
117.5544094509549
 20
42.45115559895833
 10
118.923834906684
 20
44.74507242838541
 10
118.923834906684
 20
44.74507242838541
 10
118.923834906684
 20
44.74507242838541
 10
119.6819281684028
 20
44.74507242838541
 10
119.6819281684028
 20
44.74507242838541
 10
119.6819281684028
 20
44.74507242838541
 10
117.8799709743924
 20
41.89305013020833
 10
117.8799709743924
 20
41.89305013020833
 10
117.8799709743924
 20
41.89305013020833
 10
117.8799709743924
 20
39.97172037760416
 10
117.8799709743924
 20
39.97172037760416
 97
        0
 75
     0
 76
     1
 98
        1
 10
0.0
 20
0.0
  0
HATCH
  5
28
330
A
100
AcDbEntity
  8
LAYER_1
 62
     7
100
AcDbHatch
 10
0.0
 20
0.0
 30
0.0
210
0.0
220
0.0
230
1.0
  2
SOLID
 70
     1
 71
     0
 91
        2
 92
       16
 93
        1
 72
     4
 94
        3
 73
     0
 74
     0
 95
       17
 96
       13
 40
0.0
 40
0.0
 40
0.0
 40
0.0
 40
1.0
 40
1.0
 40
1.0
 40
2.0
 40
2.0
 40
2.0
 40
3.0
 40
3.0
 40
3.0
 40
4.0
 40
4.0
 40
4.0
 40
4.0
 10
94.27934434678819
 20
36.0257080078125
 10
94.27934434678819
 20
36.0257080078125
 10
93.57447781032985
 20
38.12687174479166
 10
93.57447781032985
 20
38.12687174479166
 10
93.57447781032985
 20
38.12687174479166
 10
93.56104193793402
 20
38.12687174479166
 10
93.56104193793402
 20
38.12687174479166
 10
93.56104193793402
 20
38.12687174479166
 10
92.79674750434027
 20
36.0257080078125
 10
92.79674750434027
 20
36.0257080078125
 10
92.79674750434027
 20
36.0257080078125
 10
94.27934434678819
 20
36.0257080078125
 10
94.27934434678819
 20
36.0257080078125
 97
        0
 92
        1
 93
        1
 72
     4
 94
        3
 73
     0
 74
     0
 95
       29
 96
       25
 40
0.0
 40
0.0
 40
0.0
 40
0.0
 40
1.0
 40
1.0
 40
1.0
 40
2.0
 40
2.0
 40
2.0
 40
3.0
 40
3.0
 40
3.0
 40
4.0
 40
4.0
 40
4.0
 40
5.0
 40
5.0
 40
5.0
 40
6.0
 40
6.0
 40
6.0
 40
7.0
 40
7.0
 40
7.0
 40
8.0
 40
8.0
 40
8.0
 40
8.0
 10
92.59727647569444
 20
35.45416666666667
 10
92.59727647569444
 20
35.45416666666667
 10
92.09859890407985
 20
34.06458740234375
 10
92.09859890407985
 20
34.06458740234375
 10
92.09859890407985
 20
34.06458740234375
 10
91.43403998480902
 20
34.06458740234375
 10
91.43403998480902
 20
34.06458740234375
 10
91.43403998480902
 20
34.06458740234375
 10
93.22876247829861
 20
38.837939453125
 10
93.22876247829861
 20
38.837939453125
 10
93.22876247829861
 20
38.837939453125
 10
93.95998399522568
 20
38.837939453125
 10
93.95998399522568
 20
38.837939453125
 10
93.95998399522568
 20
38.837939453125
 10
95.68856065538193
 20
34.06458740234375
 10
95.68856065538193
 20
34.06458740234375
 10
95.68856065538193
 20
34.06458740234375
 10
94.98369411892361
 20
34.06458740234375
 10
94.98369411892361
 20
34.06458740234375
 10
94.98369411892361
 20
34.06458740234375
 10
94.51188829210069
 20
35.45416666666667
 10
94.51188829210069
 20
35.45416666666667
 10
94.51188829210069
 20
35.45416666666667
 10
92.59727647569444
 20
35.45416666666667
 10
92.59727647569444
 20
35.45416666666667
 97
        0
 75
     0
 76
     1
 98
        1
 10
0.0
 20
0.0
  0
HATCH
  5
27
330
A
100
AcDbEntity
  8
LAYER_1
 62
     7
100
AcDbHatch
 10
0.0
 20
0.0
 30
0.0
210
0.0
220
0.0
230
1.0
  2
SOLID
 70
     1
 71
     0
 91
        1
 92
        1
 93
        1
 72
     4
 94
        3
 73
     0
 74
     0
 95
       41
 96
       37
 40
0.0
 40
0.0
 40
0.0
 40
0.0
 40
1.0
 40
1.0
 40
1.0
 40
2.0
 40
2.0
 40
2.0
 40
3.0
 40
3.0
 40
3.0
 40
4.0
 40
4.0
 40
4.0
 40
5.0
 40
5.0
 40
5.0
 40
6.0
 40
6.0
 40
6.0
 40
7.0
 40
7.0
 40
7.0
 40
8.0
 40
8.0
 40
8.0
 40
9.0
 40
9.0
 40
9.0
 40
10.0
 40
10.0
 40
10.0
 40
11.0
 40
11.0
 40
11.0
 40
12.0
 40
12.0
 40
12.0
 40
12.0
 10
99.44285346137151
 20
38.837939453125
 10
99.44285346137151
 20
38.837939453125
 10
100.0676215277778
 20
38.837939453125
 10
100.0676215277778
 20
38.837939453125
 10
100.0676215277778
 20
38.837939453125
 10
100.0676215277778
 20
34.06458740234375
 10
100.0676215277778
 20
34.06458740234375
 10
100.0676215277778
 20
34.06458740234375
 10
99.3431179470486
 20
34.06458740234375
 10
99.3431179470486
 20
34.06458740234375
 10
99.3431179470486
 20
34.06458740234375
 10
96.91639268663194
 20
37.92068277994791
 10
96.91639268663194
 20
37.92068277994791
 10
96.91639268663194
 20
37.92068277994791
 10
96.90347357855902
 20
37.92068277994791
 10
96.90347357855902
 20
37.92068277994791
 10
96.90347357855902
 20
37.92068277994791
 10
96.90347357855902
 20
34.06458740234375
 10
96.90347357855902
 20
34.06458740234375
 10
96.90347357855902
 20
34.06458740234375
 10
96.27818874782986
 20
34.06458740234375
 10
96.27818874782986
 20
34.06458740234375
 10
96.27818874782986
 20
34.06458740234375
 10
96.27818874782986
 20
38.837939453125
 10
96.27818874782986
 20
38.837939453125
 10
96.27818874782986
 20
38.837939453125
 10
97.04299994574652
 20
38.837939453125
 10
97.04299994574652
 20
38.837939453125
 10
97.04299994574652
 20
38.837939453125
 10
99.42941758897568
 20
34.98236083984375
 10
99.42941758897568
 20
34.98236083984375
 10
99.42941758897568
 20
34.98236083984375
 10
99.44285346137151
 20
34.98236083984375
 10
99.44285346137151
 20
34.98236083984375
 10
99.44285346137151
 20
34.98236083984375
 10
99.44285346137151
 20
38.837939453125
 10
99.44285346137151
 20
38.837939453125
 97
        0
 75
     0
 76
     1
 98
        1
 10
0.0
 20
0.0
  0
HATCH
  5
26
330
A
100
AcDbEntity
  8
LAYER_1
 62
     7
100
AcDbHatch
 10
0.0
 20
0.0
 30
0.0
210
0.0
220
0.0
230
1.0
  2
SOLID
 70
     1
 71
     0
 91
        1
 92
        1
 93
        1
 72
     4
 94
        3
 73
     0
 74
     0
 95
       56
 96
       52
 40
0.0
 40
0.0
 40
0.0
 40
0.0
 40
1.0
 40
1.0
 40
1.0
 40
2.0
 40
2.0
 40
2.0
 40
3.0
 40
3.0
 40
3.0
 40
4.0
 40
4.0
 40
4.0
 40
5.0
 40
5.0
 40
5.0
 40
6.0
 40
6.0
 40
6.0
 40
7.0
 40
7.0
 40
7.0
 40
8.0
 40
8.0
 40
8.0
 40
9.0
 40
9.0
 40
9.0
 40
10.0
 40
10.0
 40
10.0
 40
11.0
 40
11.0
 40
11.0
 40
12.0
 40
12.0
 40
12.0
 40
13.0
 40
13.0
 40
13.0
 40
14.0
 40
14.0
 40
14.0
 40
15.0
 40
15.0
 40
15.0
 40
16.0
 40
16.0
 40
16.0
 40
17.0
 40
17.0
 40
17.0
 40
17.0
 10
103.1563218858507
 20
36.61740315755208
 10
103.1563218858507
 20
36.61740315755208
 10
105.2507676866319
 20
36.61740315755208
 10
105.2507676866319
 20
36.61740315755208
 10
105.2507676866319
 20
36.61740315755208
 10
105.2507676866319
 20
34.06458740234375
 10
105.2507676866319
 20
34.06458740234375
 10
105.2507676866319
 20
34.06458740234375
 10
104.8316718207465
 20
34.06458740234375
 10
104.8316718207465
 20
34.06458740234375
 10
104.8316718207465
 20
34.06458740234375
 10
104.6787095811632
 20
34.683154296875
 10
104.6787095811632
 20
34.683154296875
 10
104.3531480577257
 20
34.23098551432291
 10
103.7547349717882
 20
33.93849690755208
 10
103.1036119249132
 20
33.93849690755208
 10
102.2855740017361
 20
33.93849690755208
 10
101.8866319444444
 20
34.23770345052083
 10
101.6406521267361
 20
34.47696533203125
 10
100.909430609809
 20
35.16839599609375
 10
100.8897935655382
 20
35.98591715494791
 10
100.8897935655382
 20
36.49131266276041
 10
100.8897935655382
 20
37.65454915364583
 10
101.5941433376736
 20
38.96402994791666
 10
103.1501207139757
 20
38.96402994791666
 10
104.041022406684
 20
38.96402994791666
 10
105.0311428493924
 20
38.45915120442708
 10
105.1706692165799
 20
37.38893229166666
 10
105.1706692165799
 20
37.38893229166666
 10
104.5459011501736
 20
37.38893229166666
 10
104.5459011501736
 20
37.38893229166666
 10
104.3402289496528
 20
38.21988932291666
 10
103.6420803493924
 20
38.39248860677083
 10
103.1165310329861
 20
38.39248860677083
 10
102.2592190212674
 20
38.39248860677083
 10
101.554352484809
 20
37.70777587890625
 10
101.554352484809
 20
36.45823974609375
 10
101.554352484809
 20
35.48723958333333
 10
101.8737128363715
 20
34.49040120442708
 10
103.1434027777778
 20
34.49040120442708
 10
103.3826646592882
 20
34.49040120442708
 10
103.768170844184
 20
34.51675618489583
 10
104.1206041124132
 20
34.79632568359375
 10
104.5391832139757
 20
35.12860514322917
 10
104.6456366644965
 20
35.55390218098958
 10
104.6456366644965
 20
36.066015625
 10
104.6456366644965
 20
36.066015625
 10
103.1563218858507
 20
36.066015625
 10
103.1563218858507
 20
36.066015625
 10
103.1563218858507
 20
36.066015625
 10
103.1563218858507
 20
36.61740315755208
 10
103.1563218858507
 20
36.61740315755208
 97
        0
 75
     0
 76
     1
 98
        1
 10
0.0
 20
0.0
  0
HATCH
  5
25
330
A
100
AcDbEntity
  8
LAYER_1
 62
     7
100
AcDbHatch
 10
0.0
 20
0.0
 30
0.0
210
0.0
220
0.0
230
1.0
  2
SOLID
 70
     1
 71
     0
 91
        1
 92
        1
 93
        1
 72
     4
 94
        3
 73
     0
 74
     0
 95
       23
 96
       19
 40
0.0
 40
0.0
 40
0.0
 40
0.0
 40
1.0
 40
1.0
 40
1.0
 40
2.0
 40
2.0
 40
2.0
 40
3.0
 40
3.0
 40
3.0
 40
4.0
 40
4.0
 40
4.0
 40
5.0
 40
5.0
 40
5.0
 40
6.0
 40
6.0
 40
6.0
 40
6.0
 10
106.8894273546007
 20
34.6366455078125
 10
106.8894273546007
 20
34.6366455078125
 10
109.3094346788194
 20
34.6366455078125
 10
109.3094346788194
 20
34.6366455078125
 10
109.3094346788194
 20
34.6366455078125
 10
109.3094346788194
 20
34.06458740234375
 10
109.3094346788194
 20
34.06458740234375
 10
109.3094346788194
 20
34.06458740234375
 10
106.2450222439236
 20
34.06458740234375
 10
106.2450222439236
 20
34.06458740234375
 10
106.2450222439236
 20
34.06458740234375
 10
106.2450222439236
 20
38.837939453125
 10
106.2450222439236
 20
38.837939453125
 10
106.2450222439236
 20
38.837939453125
 10
106.8894273546007
 20
38.837939453125
 10
106.8894273546007
 20
38.837939453125
 10
106.8894273546007
 20
38.837939453125
 10
106.8894273546007
 20
34.6366455078125
 10
106.8894273546007
 20
34.6366455078125
 97
        0
 75
     0
 76
     1
 98
        1
 10
0.0
 20
0.0
  0
HATCH
  5
24
330
A
100
AcDbEntity
  8
LAYER_1
 62
     7
100
AcDbHatch
 10
0.0
 20
0.0
 30
0.0
210
0.0
220
0.0
230
1.0
  2
SOLID
 70
     1
 71
     0
 91
        1
 92
        1
 93
        1
 72
     4
 94
        3
 73
     0
 74
     0
 95
       41
 96
       37
 40
0.0
 40
0.0
 40
0.0
 40
0.0
 40
1.0
 40
1.0
 40
1.0
 40
2.0
 40
2.0
 40
2.0
 40
3.0
 40
3.0
 40
3.0
 40
4.0
 40
4.0
 40
4.0
 40
5.0
 40
5.0
 40
5.0
 40
6.0
 40
6.0
 40
6.0
 40
7.0
 40
7.0
 40
7.0
 40
8.0
 40
8.0
 40
8.0
 40
9.0
 40
9.0
 40
9.0
 40
10.0
 40
10.0
 40
10.0
 40
11.0
 40
11.0
 40
11.0
 40
12.0
 40
12.0
 40
12.0
 40
12.0
 10
113.528815375434
 20
34.06458740234375
 10
113.528815375434
 20
34.06458740234375
 10
110.0055162217882
 20
34.06458740234375
 10
110.0055162217882
 20
34.06458740234375
 10
110.0055162217882
 20
34.06458740234375
 10
110.0055162217882
 20
38.837939453125
 10
110.0055162217882
 20
38.837939453125
 10
110.0055162217882
 20
38.837939453125
 10
113.4823065863715
 20
38.837939453125
 10
113.4823065863715
 20
38.837939453125
 10
113.4823065863715
 20
38.837939453125
 10
113.4823065863715
 20
38.26639811197916
 10
113.4823065863715
 20
38.26639811197916
 10
113.4823065863715
 20
38.26639811197916
 10
110.6499213324653
 20
38.26639811197916
 10
110.6499213324653
 20
38.26639811197916
 10
110.6499213324653
 20
38.26639811197916
 10
110.6499213324653
 20
36.803955078125
 10
110.6499213324653
 20
36.803955078125
 10
110.6499213324653
 20
36.803955078125
 10
113.2626817491319
 20
36.803955078125
 10
113.2626817491319
 20
36.803955078125
 10
113.2626817491319
 20
36.803955078125
 10
113.2626817491319
 20
36.23189697265624
 10
113.2626817491319
 20
36.23189697265624
 10
113.2626817491319
 20
36.23189697265624
 10
110.6499213324653
 20
36.23189697265624
 10
110.6499213324653
 20
36.23189697265624
 10
110.6499213324653
 20
36.23189697265624
 10
110.6499213324653
 20
34.6366455078125
 10
110.6499213324653
 20
34.6366455078125
 10
110.6499213324653
 20
34.6366455078125
 10
113.528815375434
 20
34.6366455078125
 10
113.528815375434
 20
34.6366455078125
 10
113.528815375434
 20
34.6366455078125
 10
113.528815375434
 20
34.06458740234375
 10
113.528815375434
 20
34.06458740234375
 97
        0
 75
     0
 76
     1
 98
        1
 10
0.0
 20
0.0
  0
CIRCLE
  5
23
330
A
100
AcDbEntity
  8
LAYER_1
 62
     7
100
AcDbCircle
 10
72.52563340928819
 20
37.65119018554687
 30
0.0
 40
1.314390055338542
  0
HATCH
  5
22
330
A
100
AcDbEntity
  8
LAYER_1
 62
     7
100
AcDbHatch
 10
0.0
 20
0.0
 30
0.0
210
0.0
220
0.0
230
1.0
  2
SOLID
 70
     1
 71
     0
 91
        1
 92
        1
 93
        1
 72
     4
 94
        3
 73
     0
 74
     0
 95
       17
 96
       13
 40
0.0
 40
0.0
 40
0.0
 40
0.0
 40
1.0
 40
1.0
 40
1.0
 40
2.0
 40
2.0
 40
2.0
 40
3.0
 40
3.0
 40
3.0
 40
4.0
 40
4.0
 40
4.0
 40
4.0
 10
72.52563340928819
 20
36.33680013020833
 10
73.25168728298611
 20
36.33680013020833
 10
73.84028184678819
 20
36.92539469401041
 10
73.84028184678819
 20
37.65093180338541
 10
73.84028184678819
 20
38.37698567708333
 10
73.25168728298611
 20
38.96558024088542
 10
72.52563340928819
 20
38.96558024088542
 10
71.80009629991319
 20
38.96558024088542
 10
71.2115017361111
 20
38.37698567708333
 10
71.2115017361111
 20
37.65093180338541
 10
71.2115017361111
 20
36.92539469401041
 10
71.80009629991319
 20
36.33680013020833
 10
72.52563340928819
 20
36.33680013020833
 97
        0
 75
     0
 76
     1
 98
        1
 10
0.0
 20
0.0
  0
ENDSEC
  0
SECTION
  2
OBJECTS
  0
DICTIONARY
  5
19
330
0
100
AcDbDictionary
281
     1
  3
ACAD_COLOR
350
B0
  3
ACAD_GROUP
350
1A
  3
ACAD_LAYOUT
350
7D
  3
ACAD_MATERIAL
350
B2
  3
ACAD_MLINESTYLE
350
1B
  3
ACAD_PLOTSETTINGS
350
7E
  3
ACAD_PLOTSTYLENAME
350
7B
  3
ACDBHEADERROUNDTRIPXREC
350
AF
  0
DICTIONARY
  5
B0
102
{ACAD_REACTORS
330
19
102
}
330
19
100
AcDbDictionary
281
     1
  0
DICTIONARY
  5
1A
102
{ACAD_REACTORS
330
19
102
}
330
19
100
AcDbDictionary
281
     1
  0
DICTIONARY
  5
7D
102
{ACAD_REACTORS
330
19
102
}
330
19
100
AcDbDictionary
281
     1
  3
Layout1
350
80
  3
Model
350
7F
  0
DICTIONARY
  5
B2
102
{ACAD_REACTORS
330
19
102
}
330
19
100
AcDbDictionary
281
     1
  0
DICTIONARY
  5
1B
102
{ACAD_REACTORS
330
19
102
}
330
19
100
AcDbDictionary
281
     1
  3
STANDARD
350
1C
  0
DICTIONARY
  5
7E
102
{ACAD_REACTORS
330
19
102
}
330
19
100
AcDbDictionary
281
     1
  0
ACDBDICTIONARYWDFLT
  5
7B
102
{ACAD_REACTORS
330
19
102
}
330
19
100
AcDbDictionary
281
     1
  3
Normal
350
7C
100
AcDbDictionaryWithDefault
340
7C
  0
DICTIONARY
  5
AF
102
{ACAD_REACTORS
330
19
102
}
330
19
100
AcDbDictionary
281
     1
  3
COLORDICT
350
B1
  3
MATERIALDICT
350
B3
  0
LAYOUT
  5
80
102
{ACAD_REACTORS
330
7D
102
}
102
{ACAD_XDICTIONARY
360
B4
102
}
330
7D
100
AcDbPlotSettings
  1

  2
Support Center HP LaserJet 4
  4

  6

 40
0.0
 41
0.0
 42
0.0
 43
0.0
 44
0.0
 45
0.0
 46
0.0
 47
0.0
 48
0.0
 49
0.0
140
0.0
141
0.0
142
1.0
143
1.0
 70
   688
 72
     0
 73
     0
 74
     5
  7

 75
    16
147
1.0
148
0.0
149
0.0
100
AcDbLayout
  1
Layout1
 70
     0
 71
     1
 10
0.0
 20
0.0
 11
12.0
 21
9.0
 12
0.0
 22
0.0
 32
0.0
 14
1.000000000000000E+20
 24
1.000000000000000E+20
 34
1.000000000000000E+20
 15
-1.000000000000000E+20
 25
-1.000000000000000E+20
 35
-1.000000000000000E+20
146
0.0
 13
0.0
 23
0.0
 33
0.0
 16
1.0
 26
0.0
 36
0.0
 17
0.0
 27
1.0
 37
0.0
 76
     0
330
B
  0
LAYOUT
  5
7F
102
{ACAD_REACTORS
330
7D
102
}
102
{ACAD_XDICTIONARY
360
B6
102
}
330
7D
100
AcDbPlotSettings
  1

  2
Support Center HP LaserJet 4
  4

  6

 40
0.0
 41
0.0
 42
0.0
 43
0.0
 44
0.0
 45
0.0
 46
0.0
 47
0.0
 48
0.0
 49
0.0
140
0.0
141
0.0
142
1.0
143
1.0
 70
  1712
 72
     0
 73
     0
 74
     0
  7

 75
     0
147
1.0
148
0.0
149
0.0
100
AcDbLayout
  1
Model
 70
     1
 71
     0
 10
0.0
 20
0.0
 11
12.0
 21
9.0
 12
0.0
 22
0.0
 32
0.0
 14
0.0
 24
0.0
 34
0.0
 15
0.0
 25
0.0
 35
0.0
146
0.0
 13
0.0
 23
0.0
 33
0.0
 16
1.0
 26
0.0
 36
0.0
 17
0.0
 27
1.0
 37
0.0
 76
     0
330
A
  0
MLINESTYLE
  5
1C
102
{ACAD_REACTORS
330
1B
102
}
330
1B
100
AcDbMlineStyle
  2
STANDARD
 70
     0
  3

 62
     0
 51
90.0000000000002
 52
90.0000000000002
 71
     2
 49
0.5
 62
   256
  6
BYLAYER
 49
-0.5
 62
   256
  6
BYLAYER
  0
ACDBPLACEHOLDER
  5
7C
102
{ACAD_REACTORS
330
7B
102
}
330
7B
  0
XRECORD
  5
B1
102
{ACAD_REACTORS
330
AF
102
}
330
AF
100
AcDbXrecord
340
B0
  0
XRECORD
  5
B3
102
{ACAD_REACTORS
330
AF
102
}
330
AF
100
AcDbXrecord
340
B2
  0
DICTIONARY
  5
B4
330
80
100
AcDbDictionary
280
     1
281
     1
  3
ACAD_XREC_ROUNDTRIP
360
B5
  0
DICTIONARY
  5
B6
330
7F
100
AcDbDictionary
280
     1
281
     1
  3
ACAD_XREC_ROUNDTRIP
360
B7
  0
XRECORD
  5
B5
102
{ACAD_REACTORS
330
B4
102
}
330
B4
100
AcDbXrecord
102
SHADEPLOT
 70
     0
102
SHADEPLOTRESLEVEL
 70
     0
102
SHADEPLOTCUSTOMDPI
 70
     0
  0
XRECORD
  5
B7
102
{ACAD_REACTORS
330
B6
102
}
330
B6
100
AcDbXrecord
102
SHADEPLOT
 70
     0
102
SHADEPLOTRESLEVEL
 70
     0
102
SHADEPLOTCUSTOMDPI
 70
     0
  0
ENDSEC
  0
EOF
