  0
SECTION
  2
HEADER
  9
$ACADVER
  1
AC1015
  9
$ACADMAINTVER
 70
     6
  9
$DWGCODEPAGE
  3
ANSI_1252
  9
$INSBASE
 10
0.0
 20
0.0
 30
0.0
  9
$EXTMIN
 10
30.70513313120955
 20
40.70686836014907
 30
-0.0015258207003612
  9
$EXTMAX
 10
155.7982884130876
 20
180.255363480897
 30
0.0000000349246008
  9
$LIMMIN
 10
30.57746175130208
 20
40.5403333875868
  9
$LIMMAX
 10
137.8473999023437
 20
164.5632541232639
  9
$ORTHOMODE
 70
     0
  9
$REGENMODE
 70
     1
  9
$FILLMODE
 70
     1
  9
$QTEXTMODE
 70
     0
  9
$MIRRTEXT
 70
     1
  9
$LTSCALE
 40
1.0
  9
$ATTMODE
 70
     1
  9
$TEXTSIZE
 40
0.2
  9
$TRACEWID
 40
0.05
  9
$TEXTSTYLE
  7
STANDARD
  9
$CLAYER
  8
0
  9
$CELTYPE
  6
CONTINUOUS
  9
$CECOLOR
 62
   256
  9
$CELTSCALE
 40
1.0
  9
$DISPSILH
 70
     0
  9
$DIMSCALE
 40
1.0
  9
$DIMASZ
 40
0.18
  9
$DIMEXO
 40
0.0625
  9
$DIMDLI
 40
0.38
  9
$DIMRND
 40
0.0
  9
$DIMDLE
 40
0.0
  9
$DIMEXE
 40
0.18
  9
$DIMTP
 40
0.0
  9
$DIMTM
 40
0.0
  9
$DIMTXT
 40
0.18
  9
$DIMCEN
 40
0.09
  9
$DIMTSZ
 40
0.0
  9
$DIMTOL
 70
     0
  9
$DIMLIM
 70
     0
  9
$DIMTIH
 70
     1
  9
$DIMTOH
 70
     1
  9
$DIMSE1
 70
     0
  9
$DIMSE2
 70
     0
  9
$DIMTAD
 70
     0
  9
$DIMZIN
 70
     0
  9
$DIMBLK
  1

  9
$DIMASO
 70
     1
  9
$DIMSHO
 70
     1
  9
$DIMPOST
  1

  9
$DIMAPOST
  1

  9
$DIMALT
 70
     0
  9
$DIMALTD
 70
     2
  9
$DIMALTF
 40
25.4
  9
$DIMLFAC
 40
1.0
  9
$DIMTOFL
 70
     0
  9
$DIMTVP
 40
0.0
  9
$DIMTIX
 70
     0
  9
$DIMSOXD
 70
     0
  9
$DIMSAH
 70
     0
  9
$DIMBLK1
  1

  9
$DIMBLK2
  1

  9
$DIMSTYLE
  2
STANDARD
  9
$DIMCLRD
 70
     0
  9
$DIMCLRE
 70
     0
  9
$DIMCLRT
 70
     0
  9
$DIMTFAC
 40
1.0
  9
$DIMGAP
 40
0.09
  9
$DIMJUST
 70
     0
  9
$DIMSD1
 70
     0
  9
$DIMSD2
 70
     0
  9
$DIMTOLJ
 70
     1
  9
$DIMTZIN
 70
     0
  9
$DIMALTZ
 70
     0
  9
$DIMALTTZ
 70
     0
  9
$DIMUPT
 70
     0
  9
$DIMDEC
 70
     4
  9
$DIMTDEC
 70
     4
  9
$DIMALTU
 70
     2
  9
$DIMALTTD
 70
     2
  9
$DIMTXSTY
  7
STANDARD
  9
$DIMAUNIT
 70
     0
  9
$DIMADEC
 70
     0
  9
$DIMALTRND
 40
0.0
  9
$DIMAZIN
 70
     0
  9
$DIMDSEP
 70
    46
  9
$DIMATFIT
 70
     3
  9
$DIMFRAC
 70
     0
  9
$DIMLDRBLK
  1

  9
$DIMLUNIT
 70
     2
  9
$DIMLWD
 70
    -2
  9
$DIMLWE
 70
    -2
  9
$DIMTMOVE
 70
     0
  9
$LUNITS
 70
     2
  9
$LUPREC
 70
     4
  9
$SKETCHINC
 40
0.1
  9
$FILLETRAD
 40
0.0
  9
$AUNITS
 70
     0
  9
$AUPREC
 70
     0
  9
$MENU
  1
acad
  9
$ELEVATION
 40
0.0
  9
$PELEVATION
 40
0.0
  9
$THICKNESS
 40
0.0
  9
$LIMCHECK
 70
     0
  9
$CHAMFERA
 40
0.0
  9
$CHAMFERB
 40
0.0
  9
$CHAMFERC
 40
0.0
  9
$CHAMFERD
 40
0.0
  9
$SKPOLY
 70
     0
  9
$TDCREATE
 40
2444971.666666667
  9
$TDUCREATE
 40
2444972.0
  9
$TDUPDATE
 40
2452219.45731956
  9
$TDUUPDATE
 40
2452219.790652894
  9
$TDINDWG
 40
0.0003427083
  9
$TDUSRTIMER
 40
0.0003427083
  9
$USRTIMER
 70
     1
  9
$ANGBASE
 50
0.0
  9
$ANGDIR
 70
     0
  9
$PDMODE
 70
     0
  9
$PDSIZE
 40
0.0
  9
$PLINEWID
 40
0.0
  9
$SPLFRAME
 70
     0
  9
$SPLINETYPE
 70
     6
  9
$SPLINESEGS
 70
     8
  9
$HANDSEED
  5
10C
  9
$SURFTAB1
 70
     6
  9
$SURFTAB2
 70
     6
  9
$SURFTYPE
 70
     6
  9
$SURFU
 70
     6
  9
$SURFV
 70
     6
  9
$UCSBASE
  2

  9
$UCSNAME
  2

  9
$UCSORG
 10
0.0
 20
0.0
 30
0.0
  9
$UCSXDIR
 10
1.0
 20
0.0
 30
0.0
  9
$UCSYDIR
 10
0.0
 20
1.0
 30
0.0
  9
$UCSORTHOREF
  2

  9
$UCSORTHOVIEW
 70
     0
  9
$UCSORGTOP
 10
0.0
 20
0.0
 30
0.0
  9
$UCSORGBOTTOM
 10
0.0
 20
0.0
 30
0.0
  9
$UCSORGLEFT
 10
0.0
 20
0.0
 30
0.0
  9
$UCSORGRIGHT
 10
0.0
 20
0.0
 30
0.0
  9
$UCSORGFRONT
 10
0.0
 20
0.0
 30
0.0
  9
$UCSORGBACK
 10
0.0
 20
0.0
 30
0.0
  9
$PUCSBASE
  2

  9
$PUCSNAME
  2

  9
$PUCSORG
 10
0.0
 20
0.0
 30
0.0
  9
$PUCSXDIR
 10
1.0
 20
0.0
 30
0.0
  9
$PUCSYDIR
 10
0.0
 20
1.0
 30
0.0
  9
$PUCSORTHOREF
  2

  9
$PUCSORTHOVIEW
 70
     0
  9
$PUCSORGTOP
 10
0.0
 20
0.0
 30
0.0
  9
$PUCSORGBOTTOM
 10
0.0
 20
0.0
 30
0.0
  9
$PUCSORGLEFT
 10
0.0
 20
0.0
 30
0.0
  9
$PUCSORGRIGHT
 10
0.0
 20
0.0
 30
0.0
  9
$PUCSORGFRONT
 10
0.0
 20
0.0
 30
0.0
  9
$PUCSORGBACK
 10
0.0
 20
0.0
 30
0.0
  9
$USERI1
 70
     0
  9
$USERI2
 70
     0
  9
$USERI3
 70
     0
  9
$USERI4
 70
     0
  9
$USERI5
 70
     0
  9
$USERR1
 40
0.0
  9
$USERR2
 40
0.0
  9
$USERR3
 40
0.0
  9
$USERR4
 40
0.0
  9
$USERR5
 40
0.0
  9
$WORLDVIEW
 70
     1
  9
$SHADEDGE
 70
     3
  9
$SHADEDIF
 70
    70
  9
$TILEMODE
 70
     1
  9
$MAXACTVP
 70
    16
  9
$PINSBASE
 10
0.0
 20
0.0
 30
0.0
  9
$PLIMCHECK
 70
     0
  9
$PEXTMIN
 10
1.000000000000000E+20
 20
1.000000000000000E+20
 30
1.000000000000000E+20
  9
$PEXTMAX
 10
-1.000000000000000E+20
 20
-1.000000000000000E+20
 30
-1.000000000000000E+20
  9
$PLIMMIN
 10
0.0
 20
0.0
  9
$PLIMMAX
 10
12.0
 20
9.0
  9
$UNITMODE
 70
     0
  9
$VISRETAIN
 70
     0
  9
$PLINEGEN
 70
     1
  9
$PSLTSCALE
 70
     0
  9
$TREEDEPTH
 70
  3020
  9
$CMLSTYLE
  2
STANDARD
  9
$CMLJUST
 70
     0
  9
$CMLSCALE
 40
1.0
  9
$PROXYGRAPHICS
 70
     0
  9
$MEASUREMENT
 70
     0
  9
$CELWEIGHT
370
    -1
  9
$ENDCAPS
280
     0
  9
$JOINSTYLE
280
     0
  9
$LWDISPLAY
290
     0
  9
$INSUNITS
 70
     0
  9
$HYPERLINKBASE
  1

  9
$STYLESHEET
  1

  9
$XEDIT
290
     1
  9
$CEPSNTYPE
380
     0
  9
$PSTYLEMODE
290
     1
  9
$FINGERPRINTGUID
  2
{0AE0D08C-D1C7-11D5-923F-00805F198AD5}
  9
$VERSIONGUID
  2
{0AE0D08E-D1C7-11D5-923F-00805F198AD5}
  9
$EXTNAMES
290
     1
  9
$PSVPSCALE
 40
0.0
  9
$OLESTARTUP
290
     0
  0
ENDSEC
  0
SECTION
  2
CLASSES
  0
CLASS
  1
LWPOLYLINE
  2
AcDbPolyline
  3
AutoCAD 2000
 90
        0
280
     0
281
     1
  0
CLASS
  1
IMAGE
  2
AcDbRasterImage
  3
ISM
 90
      127
280
     0
281
     1
  0
CLASS
  1
OLE2FRAME
  2
AcDbOle2Frame
  3
AutoCAD 2000
 90
        0
280
     0
281
     1
  0
CLASS
  1
HATCH
  2
AcDbHatch
  3
AutoCAD 2000
 90
        0
280
     0
281
     1
  0
CLASS
  1
DICTIONARYVAR
  2
AcDbDictionaryVar
  3
AutoCAD 2000
 90
        0
280
     0
281
     0
  0
CLASS
  1
RASTERVARIABLES
  2
AcDbRasterVariables
  3
ISM
 90
        0
280
     0
281
     0
  0
CLASS
  1
IMAGEDEF
  2
AcDbRasterImageDef
  3
ISM
 90
        0
280
     0
281
     0
  0
CLASS
  1
IMAGEDEF_REACTOR
  2
AcDbRasterImageDefReactor
  3
ISM
 90
        1
280
     0
281
     0
  0
CLASS
  1
IDBUFFER
  2
AcDbIdBuffer
  3
AutoCAD 2000
 90
        0
280
     0
281
     0
  0
CLASS
  1
SPATIAL_FILTER
  2
AcDbSpatialFilter
  3
AutoCAD 2000
 90
        0
280
     0
281
     0
  0
CLASS
  1
XRECORD
  2
AcDbXrecord
  3
AutoCAD 2000
 90
        0
280
     0
281
     0
  0
CLASS
  1
SORTENTSTABLE
  2
AcDbSortentsTable
  3
AutoCAD 2000
 90
        0
280
     0
281
     0
  0
CLASS
  1
LAYER_INDEX
  2
AcDbLayerIndex
  3
AutoCAD 2000
 90
        0
280
     0
281
     0
  0
CLASS
  1
SPATIAL_INDEX
  2
AcDbSpatialIndex
  3
AutoCAD 2000
 90
        0
280
     0
281
     0
  0
CLASS
  1
OBJECT_PTR
  2
CAseDLPNTableRecord
  3
ASE-LPNTableRecord
 90
        1
280
     1
281
     0
  0
CLASS
  1
LAYOUT
  2
AcDbLayout
  3
ObjectDBX Classes
 90
        0
280
     0
281
     0
  0
CLASS
  1
PLOTSETTINGS
  2
AcDbPlotSettings
  3
AutoCAD 2000
 90
        0
280
     0
281
     0
  0
CLASS
  1
ACDBDICTIONARYWDFLT
  2
AcDbDictionaryWithDefault
  3
AutoCAD 2000
 90
        0
280
     0
281
     0
  0
CLASS
  1
ACDBPLACEHOLDER
  2
AcDbPlaceHolder
  3
ObjectDBX Classes
 90
        0
280
     0
281
     0
  0
CLASS
  1
VBAPROJECT
  2
AcDbVbaProject
  3
ObjectDBX Classes
 90
        0
280
     0
281
     0
  0
CLASS
  1
WIPEOUT
  2
AcDbWipeout
  3
WipeOut|AutoCAD Express Tool|expresstools@autodesk.com
 90
      127
280
     0
281
     1
  0
CLASS
  1
WIPEOUTVARIABLES
  2
AcDbWipeoutVariables
  3
WipeOut|AutoCAD Express Tool|expresstools@autodesk.com
 90
        0
280
     0
281
     0
  0
CLASS
  1
RTEXT
  2
RText
  3
RText|AutoCAD Express Tool|expresstools@autodesk.com
 90
        0
280
     0
281
     1
  0
CLASS
  1
ARCALIGNEDTEXT
  2
AcDbArcAlignedText
  3
ATEXT|AutoCAD Express Tool|expresstools@autodesk.com
 90
        0
280
     0
281
     1
  0
CLASS
  1
LONG_TRANSACTION
  2
AcDbLongTransaction
  3
AutoCAD 2000
 90
        0
280
     1
281
     0
  0
CLASS
  1
LWPOLYLINE
  2
AcDbPolyline
  3
AutoCAD 2000
 90
        0
280
     0
281
     1
  0
CLASS
  1
HATCH
  2
AcDbHatch
  3
AutoCAD 2000
 90
        0
280
     0
281
     1
  0
CLASS
  1
XRECORD
  2
AcDbXrecord
  3
AutoCAD 2000
 90
        0
280
     0
281
     0
  0
ENDSEC
  0
SECTION
  2
TABLES
  0
TABLE
  2
VPORT
  5
7
330
0
100
AcDbSymbolTable
 70
     2
  0
VPORT
  5
D8
330
7
100
AcDbSymbolTableRecord
100
AcDbViewportTableRecord
  2
*Active
 70
     0
 10
0.0
 20
0.0
 11
1.0
 21
1.0
 12
93.25171077214858
 22
110.481115920523
 13
0.0
 23
0.0
 14
1.0
 24
1.0
 15
0.0
 25
0.0
 16
0.0
 26
0.0
 36
1.0
 17
0.0
 27
0.0
 37
0.0
 40
141.7461092171376
 41
1.836842105263158
 42
50.0
 43
0.0
 44
0.0
 50
0.0
 51
0.0
 71
     0
 72
   100
 73
     1
 74
     1
 75
     0
 76
     0
 77
     0
 78
     0
281
     0
 65
     1
110
0.0
120
0.0
130
0.0
111
1.0
121
0.0
131
0.0
112
0.0
122
1.0
132
0.0
 79
     0
146
0.0
  0
ENDTAB
  0
TABLE
  2
LTYPE
  5
4
330
0
100
AcDbSymbolTable
 70
     1
  0
LTYPE
  5
11
330
4
100
AcDbSymbolTableRecord
100
AcDbLinetypeTableRecord
  2
BYBLOCK
 70
     0
  3

 72
    65
 73
     0
 40
0.0
  0
LTYPE
  5
12
330
4
100
AcDbSymbolTableRecord
100
AcDbLinetypeTableRecord
  2
BYLAYER
 70
     0
  3

 72
    65
 73
     0
 40
0.0
  0
LTYPE
  5
13
330
4
100
AcDbSymbolTableRecord
100
AcDbLinetypeTableRecord
  2
CONTINUOUS
 70
     0
  3
Solid line
 72
    65
 73
     0
 40
0.0
  0
ENDTAB
  0
TABLE
  2
LAYER
  5
2
330
0
100
AcDbSymbolTable
 70
     2
  0
LAYER
  5
14
330
2
100
AcDbSymbolTableRecord
100
AcDbLayerTableRecord
  2
0
 70
     0
 62
     7
  6
CONTINUOUS
370
    -3
390
0
  0
LAYER
  5
21
330
2
100
AcDbSymbolTableRecord
100
AcDbLayerTableRecord
  2
LAYER_1
 70
     0
 62
     5
  6
CONTINUOUS
370
    -3
390
0
  0
ENDTAB
  0
TABLE
  2
STYLE
  5
3
330
0
100
AcDbSymbolTable
 70
     5
  0
STYLE
  5
17
330
3
100
AcDbSymbolTableRecord
100
AcDbTextStyleTableRecord
  2
STANDARD
 70
     0
 40
0.0
 41
1.0
 50
0.0
 71
     0
 42
0.2
  3
txt
  4

  0
STYLE
  5
1D
330
3
100
AcDbSymbolTableRecord
100
AcDbTextStyleTableRecord
  2
STD
 70
     0
 40
0.0
 41
1.0
 50
0.0
 71
     0
 42
0.2
  3
txt
  4

  0
STYLE
  5
1E
330
3
100
AcDbSymbolTableRecord
100
AcDbTextStyleTableRecord
  2
TATESTD
 70
     4
 40
0.0
 41
1.0
 50
0.0
 71
     0
 42
0.2
  3
txt
  4

  0
STYLE
  5
1F
330
3
100
AcDbSymbolTableRecord
100
AcDbTextStyleTableRecord
  2
KANJISTD
 70
     0
 40
0.0
 41
1.0
 50
0.0
 71
     0
 42
0.2
  3
txt
  4
extfont
  0
STYLE
  5
20
330
3
100
AcDbSymbolTableRecord
100
AcDbTextStyleTableRecord
  2
KANJITATE
 70
     4
 40
0.0
 41
1.0
 50
0.0
 71
     0
 42
0.2
  3
txt
  4
extfont
  0
ENDTAB
  0
TABLE
  2
VIEW
  5
5
330
0
100
AcDbSymbolTable
 70
     0
  0
ENDTAB
  0
TABLE
  2
UCS
  5
6
330
0
100
AcDbSymbolTable
 70
     0
  0
ENDTAB
  0
TABLE
  2
APPID
  5
8
330
0
100
AcDbSymbolTable
 70
     1
  0
APPID
  5
16
330
8
100
AcDbSymbolTableRecord
100
AcDbRegAppTableRecord
  2
ACAD
 70
     0
  0
ENDTAB
  0
TABLE
  2
DIMSTYLE
  5
9
330
0
100
AcDbSymbolTable
 70
     1
100
AcDbDimStyleTable
  0
DIMSTYLE
105
18
330
9
100
AcDbSymbolTableRecord
100
AcDbDimStyleTableRecord
  2
STANDARD
 70
     0
  3

  4

289
     0
340
17
  0
ENDTAB
  0
TABLE
  2
BLOCK_RECORD
  5
1
330
0
100
AcDbSymbolTable
 70
     0
  0
BLOCK_RECORD
  5
A
330
1
100
AcDbSymbolTableRecord
100
AcDbBlockTableRecord
  2
*MODEL_SPACE
340
D3
  0
BLOCK_RECORD
  5
B
330
1
100
AcDbSymbolTableRecord
100
AcDbBlockTableRecord
  2
*PAPER_SPACE
340
D4
  0
ENDTAB
  0
ENDSEC
  0
SECTION
  2
BLOCKS
  0
BLOCK
  5
D
330
A
100
AcDbEntity
  8
0
100
AcDbBlockBegin
  2
*MODEL_SPACE
 70
     0
 10
0.0
 20
0.0
 30
0.0
  3
*MODEL_SPACE
  1

  4

  0
ENDBLK
  5
E
330
A
100
AcDbEntity
  8
0
100
AcDbBlockEnd
  0
BLOCK
  5
F
330
B
100
AcDbEntity
 67
     1
  8
0
100
AcDbBlockBegin
  2
*PAPER_SPACE
 70
     0
 10
0.0
 20
0.0
 30
0.0
  3
*PAPER_SPACE
  1

  4

  0
ENDBLK
  5
10
330
B
100
AcDbEntity
 67
     1
  8
0
100
AcDbBlockEnd
  0
ENDSEC
  0
SECTION
  2
ENTITIES
  0
LWPOLYLINE
  5
BC
330
A
100
AcDbEntity
  8
LAYER_1
 62
     7
100
AcDbPolyline
 90
       16
 70
     0
 43
0.0
 10
74.08023274739583
 20
77.97353515624999
 10
47.90870361328125
 20
69.71012912326388
 10
32.65829942491319
 20
87.84097764756943
 10
32.74304877387152
 20
116.6467990451389
 10
34.09869384765625
 20
118.1719428168403
 10
30.70975341796875
 20
121.5608832465278
 10
32.87017279730902
 20
125.5003499348958
 10
33.08204616970486
 20
149.3500569661458
 10
116.5343166775174
 20
164.4309624565972
 10
135.088567437066
 20
154.094642469618
 10
135.1733167860243
 20
130.7110568576389
 10
134.4956665039063
 20
129.4401611328125
 10
137.7151082356771
 20
127.1526177300347
 10
134.8346638997396
 20
123.0856825086806
 10
134.5804158528646
 20
97.07590060763889
 10
112.9142103407118
 20
90.23514675564235
  0
SPLINE
  5
BB
330
A
100
AcDbEntity
  8
LAYER_1
 62
     7
100
AcDbSpline
210
0.0
220
0.0
230
1.0
 70
    11
 71
     3
 72
    74
 73
    70
 74
     0
 42
0.0000000001
 43
0.0000000001
 40
0.0
 40
0.0
 40
0.0
 40
0.0
 40
1.0
 40
1.0
 40
1.0
 40
2.0
 40
2.0
 40
2.0
 40
3.0
 40
3.0
 40
3.0
 40
4.0
 40
4.0
 40
4.0
 40
5.0
 40
5.0
 40
5.0
 40
6.0
 40
6.0
 40
6.0
 40
7.0
 40
7.0
 40
7.0
 40
8.0
 40
8.0
 40
8.0
 40
9.0
 40
9.0
 40
9.0
 40
10.0
 40
10.0
 40
10.0
 40
11.0
 40
11.0
 40
11.0
 40
12.0
 40
12.0
 40
12.0
 40
13.0
 40
13.0
 40
13.0
 40
14.0
 40
14.0
 40
14.0
 40
15.0
 40
15.0
 40
15.0
 40
16.0
 40
16.0
 40
16.0
 40
17.0
 40
17.0
 40
17.0
 40
18.0
 40
18.0
 40
18.0
 40
19.0
 40
19.0
 40
19.0
 40
20.0
 40
20.0
 40
20.0
 40
21.0
 40
21.0
 40
21.0
 40
22.0
 40
22.0
 40
22.0
 40
23.0
 40
23.0
 40
23.0
 40
23.0
 10
53.41568874782985
 20
146.808265516493
 30
0.0
 10
53.41568874782985
 20
146.808265516493
 30
0.0
 10
53.45806342230902
 20
148.0367865668403
 30
0.0
 10
53.45806342230902
 20
148.0367865668403
 30
0.0
 10
53.45806342230902
 20
148.0367865668403
 30
0.0
 10
109.6293117947049
 20
158.5426052517361
 30
0.0
 10
110.0106838650174
 20
158.6273546006944
 30
0.0
 10
110.3920559353299
 20
158.7121039496528
 30
0.0
 10
110.9849568684896
 20
158.7544786241319
 30
0.0
 10
111.4087036132812
 20
158.5002305772569
 30
0.0
 10
111.8321058485243
 20
158.2459825303819
 30
0.0
 10
120.4248630099826
 20
153.1534423828125
 30
0.0
 10
120.9399047851562
 20
152.7813720703125
 30
0.0
 10
121.7023044162326
 20
152.2305013020833
 30
0.0
 10
122.0836764865451
 20
151.8070990668403
 30
0.0
 10
121.9989271375868
 20
150.4514539930555
 30
0.0
 10
121.9141777886285
 20
149.0958089192708
 30
0.0
 10
121.8718031141493
 20
136.0061686197917
 30
0.0
 10
121.8718031141493
 20
136.0061686197917
 30
0.0
 10
121.8718031141493
 20
136.0061686197917
 30
0.0
 10
116.3224433051215
 20
134.7352728949653
 30
0.0
 10
116.3224433051215
 20
134.7352728949653
 30
0.0
 10
116.3224433051215
 20
134.7352728949653
 30
0.0
 10
116.0685397677951
 20
105.1670518663194
 30
0.0
 10
116.0685397677951
 20
105.1670518663194
 30
0.0
 10
116.0685397677951
 20
105.1670518663194
 30
0.0
 10
115.1362969292535
 20
104.7856797960069
 30
0.0
 10
115.1362969292535
 20
104.7856797960069
 30
0.0
 10
115.1362969292535
 20
104.7856797960069
 30
0.0
 10
113.0606268988715
 20
106.22607421875
 30
0.0
 10
113.0606268988715
 20
106.22607421875
 30
0.0
 10
113.0606268988715
 20
106.22607421875
 30
0.0
 10
113.0182522243924
 20
83.43538953993055
 30
0.0
 10
113.0182522243924
 20
83.43538953993055
 30
0.0
 10
113.0182522243924
 20
83.43538953993055
 30
0.0
 10
106.918366156684
 20
68.65110677083332
 30
0.0
 10
106.7064927842882
 20
68.05820583767361
 30
0.0
 10
106.4946194118923
 20
67.46496039496527
 30
0.0
 10
106.155622016059
 20
67.04155815972221
 30
0.0
 10
105.223723687066
 20
67.80395779079861
 30
0.0
 10
105.3508477105035
 20
68.14295518663194
 30
0.0
 10
105.5627210828993
 20
68.94772949218749
 30
0.0
 10
105.5627210828993
 20
68.94772949218749
 30
0.0
 10
105.5627210828993
 20
68.94772949218749
 30
0.0
 10
105.9017184787326
 20
122.4080322265625
 30
0.0
 10
105.9017184787326
 20
122.4080322265625
 30
0.0
 10
105.9017184787326
 20
122.4080322265625
 30
0.0
 10
112.2982272677951
 20
137.0651909722222
 30
0.0
 10
112.2982272677951
 20
137.0651909722222
 30
0.0
 10
112.2982272677951
 20
137.0651909722222
 30
0.0
 10
92.09170871310764
 20
144.2668185763889
 30
0.0
 10
92.09170871310764
 20
144.2668185763889
 30
0.0
 10
92.09170871310764
 20
144.2668185763889
 30
0.0
 10
83.61952989366318
 20
127.1949924045139
 30
0.0
 10
83.61952989366318
 20
127.1949924045139
 30
0.0
 10
83.61952989366318
 20
127.1949924045139
 30
0.0
 10
63.28588731553819
 20
122.6199055989583
 30
0.0
 10
63.28588731553819
 20
122.6199055989583
 30
0.0
 10
63.28588731553819
 20
122.6199055989583
 30
0.0
 10
62.09974093967013
 20
123.4246799045139
 30
0.0
 10
62.09974093967013
 20
123.4246799045139
 30
0.0
 10
62.09974093967013
 20
123.4246799045139
 30
0.0
 10
62.18449028862847
 20
137.0651909722222
 30
0.0
 10
62.18449028862847
 20
137.9970893012153
 30
0.0
 10
62.18449028862847
 20
138.9289876302083
 30
0.0
 10
62.3963636610243
 20
139.5222330729167
 30
0.0
 10
61.50684000651041
 20
140.1998833550347
 30
0.0
 10
60.61697184244791
 20
140.8778781467014
 30
0.0
 10
53.41568874782985
 20
146.808265516493
 30
0.0
 10
53.41568874782985
 20
146.808265516493
 30
0.0
  0
LWPOLYLINE
  5
AD
330
A
100
AcDbEntity
  8
LAYER_1
 62
     7
100
AcDbPolyline
 90
       12
 70
     1
 43
0.0
 10
92.09170871310764
 20
144.2668185763889
 10
112.2772121853298
 20
137.0651909722222
 10
105.9017184787326
 20
122.4080322265625
 10
105.5627210828993
 20
68.96874457465277
 10
105.2264797634549
 20
67.82497287326389
 10
94.16737874348958
 20
40.7137939453125
 10
72.32995198567707
 20
49.82159288194444
 10
72.32995198567707
 20
75.17473958333332
 10
74.82936876085068
 20
78.83928765190971
 10
71.05940077039929
 20
80.38544650607638
 10
72.52081027560763
 20
85.57479383680555
 10
72.37232666015625
 20
104.595166015625
  0
LINE
  5
AC
330
A
100
AcDbEntity
  8
LAYER_1
 62
     7
100
AcDbLine
 10
94.46400146484375
 20
96.35553114149305
 30
0.0
 11
105.9017184787326
 21
122.3232828776042
 31
0.0
  0
SPLINE
  5
AB
330
A
100
AcDbEntity
  8
LAYER_1
 62
     7
100
AcDbSpline
210
0.0
220
0.0
230
1.0
 70
     8
 71
     3
 72
    11
 73
     7
 74
     0
 42
0.0000000001
 43
0.0000000001
 40
0.0
 40
0.0
 40
0.0
 40
0.0
 40
1.0
 40
1.0
 40
1.0
 40
2.0
 40
2.0
 40
2.0
 40
2.0
 10
93.78600667317707
 20
66.78731011284722
 30
0.0
 10
93.91347520616318
 20
68.22770453559028
 30
0.0
 10
93.95550537109374
 20
68.6934814453125
 30
0.0
 10
94.29450276692708
 20
69.71012912326388
 30
0.0
 10
94.63350016276041
 20
70.72677680121527
 30
0.0
 10
94.63350016276041
 20
71.15052354600694
 30
0.0
 10
94.8877482096354
 20
71.61664496527777
 30
0.0
  0
SPLINE
  5
AA
330
A
100
AcDbEntity
  8
LAYER_1
 62
     7
100
AcDbSpline
210
0.0
220
0.0
230
1.0
 70
     8
 71
     3
 72
    23
 73
    19
 74
     0
 42
0.0000000001
 43
0.0000000001
 40
0.0
 40
0.0
 40
0.0
 40
0.0
 40
1.0
 40
1.0
 40
1.0
 40
2.0
 40
2.0
 40
2.0
 40
3.0
 40
3.0
 40
3.0
 40
4.0
 40
4.0
 40
4.0
 40
5.0
 40
5.0
 40
5.0
 40
6.0
 40
6.0
 40
6.0
 40
6.0
 10
92.76935899522569
 20
71.87054850260417
 30
0.0
 10
92.64223497178818
 20
71.65901963975693
 30
0.0
 10
92.30358208550346
 20
70.89627549913193
 30
0.0
 10
92.17645806206596
 20
70.09150119357638
 30
0.0
 10
92.04933403862846
 20
69.28672688802082
 30
0.0
 10
91.66796196831596
 20
68.22770453559028
 30
0.0
 10
91.62593180338541
 20
67.63445909288194
 30
0.0
 10
91.58321261935762
 20
67.04155815972221
 30
0.0
 10
91.83746066623263
 20
66.87205946180555
 30
0.0
 10
91.96458468967013
 20
65.77066243489583
 30
0.0
 10
92.09170871310764
 20
64.6692654079861
 30
0.0
 10
92.2612074110243
 20
61.83085123697916
 30
0.0
 10
92.81173366970485
 20
60.7718288845486
 30
0.0
 10
93.36260443793402
 20
59.71280653211805
 30
0.0
 10
93.70160183376736
 20
57.42526312934027
 30
0.0
 10
93.70160183376736
 20
57.00151638454861
 30
0.0
 10
93.70160183376736
 20
56.57811414930555
 30
0.0
 10
93.95550537109374
 20
55.519091796875
 30
0.0
 10
94.08262939453124
 20
55.09534505208333
 30
0.0
  0
SPLINE
  5
A9
330
A
100
AcDbEntity
  8
LAYER_1
 62
     7
100
AcDbSpline
210
0.0
220
0.0
230
1.0
 70
     8
 71
     3
 72
    23
 73
    19
 74
     0
 42
0.0000000001
 43
0.0000000001
 40
0.0
 40
0.0
 40
0.0
 40
0.0
 40
1.0
 40
1.0
 40
1.0
 40
2.0
 40
2.0
 40
2.0
 40
3.0
 40
3.0
 40
3.0
 40
4.0
 40
4.0
 40
4.0
 40
5.0
 40
5.0
 40
5.0
 40
6.0
 40
6.0
 40
6.0
 40
6.0
 10
93.95550537109374
 20
48.6140869140625
 30
0.0
 10
93.53210313585069
 20
50.64738226996527
 30
0.0
 10
92.93885769314235
 20
51.32537706163194
 30
0.0
 10
92.85410834418401
 20
52.59627278645833
 30
0.0
 10
92.76935899522569
 20
53.86682400173611
 30
0.0
 10
91.96458468967013
 20
57.04423556857638
 30
0.0
 10
91.62593180338541
 20
58.44191080729166
 30
0.0
 10
91.28693440755208
 20
59.83993055555555
 30
0.0
 10
91.41405843098957
 20
60.94132758246527
 30
0.0
 10
90.86318766276041
 20
62.25459798177083
 30
0.0
 10
90.31266140407985
 20
63.56786838107638
 30
0.0
 10
89.3807630750868
 20
67.6768337673611
 30
0.0
 10
89.42279324001736
 20
68.43923339843749
 30
0.0
 10
89.46551242404513
 20
69.2019775390625
 30
0.0
 10
89.63466661241318
 20
68.77823079427083
 30
0.0
 10
89.71941596137152
 20
69.83725314670139
 30
0.0
 10
89.80416531032985
 20
70.89627549913193
 30
0.0
 10
90.39741075303819
 20
72.54854329427083
 30
0.0
 10
90.43944091796874
 20
72.71804199218749
 30
0.0
  0
SPLINE
  5
A8
330
A
100
AcDbEntity
  8
LAYER_1
 62
     7
100
AcDbSpline
210
0.0
220
0.0
230
1.0
 70
     8
 71
     3
 72
    32
 73
    28
 74
     0
 42
0.0000000001
 43
0.0000000001
 40
0.0
 40
0.0
 40
0.0
 40
0.0
 40
1.0
 40
1.0
 40
1.0
 40
2.0
 40
2.0
 40
2.0
 40
3.0
 40
3.0
 40
3.0
 40
4.0
 40
4.0
 40
4.0
 40
5.0
 40
5.0
 40
5.0
 40
6.0
 40
6.0
 40
6.0
 40
7.0
 40
7.0
 40
7.0
 40
8.0
 40
8.0
 40
8.0
 40
9.0
 40
9.0
 40
9.0
 40
9.0
 10
88.95701633029513
 20
73.35331759982638
 30
0.0
 10
88.44852023654514
 20
72.29429524739582
 30
0.0
 10
88.4908949110243
 20
72.25192057291666
 30
0.0
 10
88.27902153862847
 20
71.1928982204861
 30
0.0
 10
88.06749267578124
 20
70.13387586805555
 30
0.0
 10
87.85561930338541
 20
69.37147623697916
 30
0.0
 10
87.85561930338541
 20
69.07485351562499
 30
0.0
 10
87.85561930338541
 20
68.77823079427083
 30
0.0
 10
87.89799397786457
 20
68.18498535156249
 30
0.0
 10
88.19461669921874
 20
66.95680881076389
 30
0.0
 10
88.4908949110243
 20
65.72828776041666
 30
0.0
 10
88.15224202473958
 20
64.75401475694444
 30
0.0
 10
88.87226698133679
 20
62.93224826388888
 30
0.0
 10
89.59229193793402
 20
61.11082628038194
 30
0.0
 10
89.29601372612846
 20
60.26367730034722
 30
0.0
 10
89.76179063585069
 20
58.56903483072916
 30
0.0
 10
90.22791205512152
 20
56.87473687065972
 30
0.0
 10
90.65131429036458
 20
54.75634765624999
 30
0.0
 10
90.90556233723957
 20
53.18917371961805
 30
0.0
 10
91.15981038411458
 20
51.6216552734375
 30
0.0
 10
91.7527113172743
 20
48.69883626302083
 30
0.0
 10
92.04933403862846
 20
47.30081651475694
 30
0.0
 10
92.34595675998263
 20
45.90279676649305
 30
0.0
 10
92.64223497178818
 20
44.12374945746527
 30
0.0
 10
92.81173366970485
 20
42.76810438368055
 30
0.0
 10
92.98123236762152
 20
41.41280381944444
 30
0.0
 10
92.93885769314235
 20
41.28567979600694
 30
0.0
 10
92.93885769314235
 20
41.28567979600694
 30
0.0
  0
SPLINE
  5
A7
330
A
100
AcDbEntity
  8
LAYER_1
 62
     7
100
AcDbSpline
210
0.0
220
0.0
230
1.0
 70
     8
 71
     3
 72
    29
 73
    25
 74
     0
 42
0.0000000001
 43
0.0000000001
 40
0.0
 40
0.0
 40
0.0
 40
0.0
 40
1.0
 40
1.0
 40
1.0
 40
2.0
 40
2.0
 40
2.0
 40
3.0
 40
3.0
 40
3.0
 40
4.0
 40
4.0
 40
4.0
 40
5.0
 40
5.0
 40
5.0
 40
6.0
 40
6.0
 40
6.0
 40
7.0
 40
7.0
 40
7.0
 40
8.0
 40
8.0
 40
8.0
 40
8.0
 10
91.15981038411458
 20
42.04807942708333
 30
0.0
 10
90.99031168619791
 20
44.25087348090278
 30
0.0
 10
90.48216010199651
 20
45.3522705078125
 30
0.0
 10
90.35469156901041
 20
47.34319118923611
 30
0.0
 10
90.22791205512152
 20
49.33411187065972
 30
0.0
 10
89.2536390516493
 20
52.13015136718749
 30
0.0
 10
88.95701633029513
 20
54.24819607204861
 30
0.0
 10
88.66039360894096
 20
56.36624077690972
 30
0.0
 10
88.53326958550346
 20
57.67951117621527
 30
0.0
 10
88.32139621310763
 20
59.50093315972222
 30
0.0
 10
88.10986735026042
 20
61.32269965277777
 30
0.0
 10
87.38949788411458
 20
61.9156005859375
 30
0.0
 10
87.26237386067707
 20
63.69499240451388
 30
0.0
 10
87.13559434678818
 20
65.47403971354166
 30
0.0
 10
86.16097683376735
 20
67.25308702256943
 30
0.0
 10
86.07622748480902
 20
68.39685872395833
 30
0.0
 10
85.99147813585068
 20
69.54063042534722
 30
0.0
 10
85.99147813585068
 20
69.79487847222222
 30
0.0
 10
85.99147813585068
 20
69.79487847222222
 30
0.0
 10
85.99147813585068
 20
69.79487847222222
 30
0.0
 10
85.99147813585068
 20
70.76915147569444
 30
0.0
 10
86.24572618272569
 20
71.36239691840277
 30
0.0
 10
86.49997422960068
 20
71.95529785156249
 30
0.0
 10
87.05084499782986
 20
73.86146918402777
 30
0.0
 10
87.05084499782986
 20
74.11571723090277
 30
0.0
  0
SPLINE
  5
A6
330
A
100
AcDbEntity
  8
LAYER_1
 62
     7
100
AcDbSpline
210
0.0
220
0.0
230
1.0
 70
     8
 71
     3
 72
    32
 73
    28
 74
     0
 42
0.0000000001
 43
0.0000000001
 40
0.0
 40
0.0
 40
0.0
 40
0.0
 40
1.0
 40
1.0
 40
1.0
 40
2.0
 40
2.0
 40
2.0
 40
3.0
 40
3.0
 40
3.0
 40
4.0
 40
4.0
 40
4.0
 40
5.0
 40
5.0
 40
5.0
 40
6.0
 40
6.0
 40
6.0
 40
7.0
 40
7.0
 40
7.0
 40
8.0
 40
8.0
 40
8.0
 40
9.0
 40
9.0
 40
9.0
 40
9.0
 10
83.91580810546874
 20
75.30186360677082
 30
0.0
 10
83.61952989366318
 20
74.7089626736111
 30
0.0
 10
83.70427924262152
 20
73.73468967013888
 30
0.0
 10
83.32290717230902
 20
73.05669487847221
 30
0.0
 10
82.94153510199652
 20
72.37904459635416
 30
0.0
 10
82.94153510199652
 20
71.7010498046875
 30
0.0
 10
82.81441107855902
 20
71.15052354600694
 30
0.0
 10
82.68728705512152
 20
70.59965277777778
 30
0.0
 10
83.02628445095485
 20
70.47287326388889
 30
0.0
 10
83.23815782335069
 20
69.66775444878472
 30
0.0
 10
83.45003119574652
 20
68.86298014322917
 30
0.0
 10
84.12768147786457
 20
67.33783637152777
 30
0.0
 10
84.33955485026041
 20
66.15168999565972
 30
0.0
 10
84.55142822265624
 20
64.96554361979166
 30
0.0
 10
84.9748304578993
 20
64.0336452907986
 30
0.0
 10
85.18670383029513
 20
62.33934733072916
 30
0.0
 10
85.39857720269096
 20
60.64470486111111
 30
0.0
 10
85.90707329644097
 20
60.09417860243055
 30
0.0
 10
85.99147813585068
 20
58.31478678385416
 30
0.0
 10
86.07622748480902
 20
56.53573947482639
 30
0.0
 10
86.75422227647569
 20
54.58719346788194
 30
0.0
 10
86.96609564887152
 20
53.48579644097222
 30
0.0
 10
87.17796902126736
 20
52.38439941406249
 30
0.0
 10
87.55899658203124
 20
51.70640462239583
 30
0.0
 10
87.89799397786457
 20
49.12258300781249
 30
0.0
 10
88.2369913736979
 20
46.53841688368055
 30
0.0
 10
88.87226698133679
 20
43.65762803819444
 30
0.0
 10
88.91464165581597
 20
43.06472710503472
 30
0.0
  0
SPLINE
  5
A5
330
A
100
AcDbEntity
  8
LAYER_1
 62
     7
100
AcDbSpline
210
0.0
220
0.0
230
1.0
 70
     8
 71
     3
 72
    17
 73
    13
 74
     0
 42
0.0000000001
 43
0.0000000001
 40
0.0
 40
0.0
 40
0.0
 40
0.0
 40
1.0
 40
1.0
 40
1.0
 40
2.0
 40
2.0
 40
2.0
 40
3.0
 40
3.0
 40
3.0
 40
4.0
 40
4.0
 40
4.0
 40
4.0
 10
91.83746066623263
 20
97.16064995659721
 30
0.0
 10
91.83746066623263
 20
95.50838216145833
 30
0.0
 10
91.83746066623263
 20
95.46600748697915
 30
0.0
 10
92.34595675998263
 20
93.68696017795138
 30
0.0
 10
92.85410834418401
 20
91.90756835937499
 30
0.0
 10
92.81173366970485
 20
90.38276909722221
 30
0.0
 10
92.93885769314235
 20
89.36612141927083
 30
0.0
 10
93.06598171657986
 20
88.34947374131944
 30
0.0
 10
93.53210313585069
 20
86.23108452690971
 30
0.0
 10
93.70160183376736
 20
85.34156087239583
 30
0.0
 10
93.87075602213541
 20
84.45203721788194
 30
0.0
 10
94.2521280924479
 20
83.13876681857639
 30
0.0
 10
94.29450276692708
 20
82.33399251302083
 30
0.0
  0
SPLINE
  5
A4
330
A
100
AcDbEntity
  8
LAYER_1
 62
     7
100
AcDbSpline
210
0.0
220
0.0
230
1.0
 70
     8
 71
     3
 72
    23
 73
    19
 74
     0
 42
0.0000000001
 43
0.0000000001
 40
0.0
 40
0.0
 40
0.0
 40
0.0
 40
1.0
 40
1.0
 40
1.0
 40
2.0
 40
2.0
 40
2.0
 40
3.0
 40
3.0
 40
3.0
 40
4.0
 40
4.0
 40
4.0
 40
5.0
 40
5.0
 40
5.0
 40
6.0
 40
6.0
 40
6.0
 40
6.0
 10
89.2536390516493
 20
98.26204698350693
 30
0.0
 10
89.2536390516493
 20
97.54167751736111
 30
0.0
 10
89.50754258897568
 20
96.10162760416665
 30
0.0
 10
89.71941596137152
 20
94.19511176215276
 30
0.0
 10
89.93128933376735
 20
92.28894042968749
 30
0.0
 10
90.90556233723957
 20
90.08614637586805
 30
0.0
 10
90.90556233723957
 20
88.56100260416666
 30
0.0
 10
90.90556233723957
 20
87.03620334201388
 30
0.0
 10
91.20218505859374
 20
85.59580891927082
 30
0.0
 10
91.79508599175347
 20
83.9859157986111
 30
0.0
 10
92.38833143446179
 20
82.37636718749999
 30
0.0
 10
92.85410834418401
 20
78.90267740885416
 30
0.0
 10
92.76935899522569
 20
78.14027777777777
 30
0.0
 10
92.68495415581596
 20
77.37753363715277
 30
0.0
 10
92.47308078342013
 20
77.37753363715277
 30
0.0
 10
92.55783013237847
 20
75.81035970052082
 30
0.0
 10
92.64223497178818
 20
74.24284125434028
 30
0.0
 10
92.60020480685763
 20
73.35331759982638
 30
0.0
 10
92.21883273654512
 20
72.12479654947916
 30
0.0
  0
SPLINE
  5
A3
330
A
100
AcDbEntity
  8
LAYER_1
 62
     7
100
AcDbSpline
210
0.0
220
0.0
230
1.0
 70
     8
 71
     3
 72
    26
 73
    22
 74
     0
 42
0.0000000001
 43
0.0000000001
 40
0.0
 40
0.0
 40
0.0
 40
0.0
 40
1.0
 40
1.0
 40
1.0
 40
2.0
 40
2.0
 40
2.0
 40
3.0
 40
3.0
 40
3.0
 40
4.0
 40
4.0
 40
4.0
 40
5.0
 40
5.0
 40
5.0
 40
6.0
 40
6.0
 40
6.0
 40
7.0
 40
7.0
 40
7.0
 40
7.0
 10
86.71184760199652
 20
99.19394531249999
 30
0.0
 10
86.71184760199652
 20
97.96542426215277
 30
0.0
 10
86.65500352647568
 20
97.56579318576388
 30
0.0
 10
87.17796902126736
 20
95.72025553385416
 30
0.0
 10
87.81324462890625
 20
93.47508680555555
 30
0.0
 10
87.68612060546874
 20
93.34796278211805
 30
0.0
 10
87.85561930338541
 20
92.03469238281249
 30
0.0
 10
88.02511800130208
 20
90.72142198350694
 30
0.0
 10
88.15224202473958
 20
89.78952365451389
 30
0.0
 10
88.57564425998262
 20
88.56100260416666
 30
0.0
 10
88.9993910047743
 20
87.33248155381943
 30
0.0
 10
89.08414035373264
 20
85.76530761718749
 30
0.0
 10
89.54991726345486
 20
84.32491319444443
 30
0.0
 10
90.01603868272569
 20
82.88486328124999
 30
0.0
 10
90.82081298828125
 20
79.66507703993055
 30
0.0
 10
90.6089396158854
 20
78.90267740885416
 30
0.0
 10
90.39741075303819
 20
78.14027777777777
 30
0.0
 10
90.73606363932291
 20
77.9707790798611
 30
0.0
 10
90.56690945095485
 20
76.57275933159721
 30
0.0
 10
90.39741075303819
 20
75.17473958333332
 30
0.0
 10
90.35469156901041
 20
73.48044162326389
 30
0.0
 10
90.01603868272569
 20
73.05669487847221
 30
0.0
  0
SPLINE
  5
A2
330
A
100
AcDbEntity
  8
LAYER_1
 62
     7
100
AcDbSpline
210
0.0
220
0.0
230
1.0
 70
     8
 71
     3
 72
    29
 73
    25
 74
     0
 42
0.0000000001
 43
0.0000000001
 40
0.0
 40
0.0
 40
0.0
 40
0.0
 40
1.0
 40
1.0
 40
1.0
 40
2.0
 40
2.0
 40
2.0
 40
3.0
 40
3.0
 40
3.0
 40
4.0
 40
4.0
 40
4.0
 40
5.0
 40
5.0
 40
5.0
 40
6.0
 40
6.0
 40
6.0
 40
7.0
 40
7.0
 40
7.0
 40
8.0
 40
8.0
 40
8.0
 40
8.0
 10
83.23815782335069
 20
100.4648410373264
 30
0.0
 10
83.40765652126736
 20
99.27869466145832
 30
0.0
 10
83.78902859157985
 20
98.38917100694444
 30
0.0
 10
84.08530680338541
 20
97.03352593315971
 30
0.0
 10
84.38192952473958
 20
95.67788085937499
 30
0.0
 10
85.01754964192708
 20
94.0256130642361
 30
0.0
 10
85.14432915581597
 20
93.13608940972222
 30
0.0
 10
85.27145317925347
 20
92.24656575520832
 30
0.0
 10
85.6104505750868
 20
90.17089572482638
 30
0.0
 10
85.90707329644097
 20
89.06949869791666
 30
0.0
 10
86.20335150824651
 20
87.96810167100693
 30
0.0
 10
86.24572618272569
 20
87.6291042751736
 30
0.0
 10
86.58472357855902
 20
86.14633517795139
 30
0.0
 10
86.92372097439235
 20
84.66391059027777
 30
0.0
 10
87.68612060546874
 20
82.12211914062499
 30
0.0
 10
87.72849527994791
 20
81.44446885850694
 30
0.0
 10
87.77086995442707
 20
80.76647406684027
 30
0.0
 10
88.02511800130208
 20
80.13119845920139
 30
0.0
 10
87.98274332682291
 20
79.87695041232638
 30
0.0
 10
87.94036865234374
 20
79.62270236545139
 30
0.0
 10
87.64374593098958
 20
79.49557834201389
 30
0.0
 10
87.68612060546874
 20
78.47893066406249
 30
0.0
 10
87.72849527994791
 20
77.46228298611111
 30
0.0
 10
87.68612060546874
 20
74.49708930121527
 30
0.0
 10
87.34712320963541
 20
73.98859320746527
 30
0.0
  0
SPLINE
  5
A1
330
A
100
AcDbEntity
  8
LAYER_1
 62
     7
100
AcDbSpline
210
0.0
220
0.0
230
1.0
 70
     8
 71
     3
 72
    26
 73
    22
 74
     0
 42
0.0000000001
 43
0.0000000001
 40
0.0
 40
0.0
 40
0.0
 40
0.0
 40
1.0
 40
1.0
 40
1.0
 40
2.0
 40
2.0
 40
2.0
 40
3.0
 40
3.0
 40
3.0
 40
4.0
 40
4.0
 40
4.0
 40
5.0
 40
5.0
 40
5.0
 40
6.0
 40
6.0
 40
6.0
 40
7.0
 40
7.0
 40
7.0
 40
7.0
 10
80.52686767578125
 20
101.4814887152778
 30
0.0
 10
80.61161702473957
 20
100.1682183159722
 30
0.0
 10
80.61161702473957
 20
99.82922092013888
 30
0.0
 10
81.07773844401041
 20
98.60069986979165
 30
0.0
 10
81.54351535373263
 20
97.37217881944443
 30
0.0
 10
81.92488742404512
 20
95.59313151041665
 30
0.0
 10
82.30625949435763
 20
94.23748643663194
 30
0.0
 10
82.68728705512152
 20
92.88184136284721
 30
0.0
 10
82.98390977647568
 20
91.2722927517361
 30
0.0
 10
83.61952989366318
 20
89.62002495659722
 30
0.0
 10
84.25480550130207
 20
87.96810167100693
 30
0.0
 10
84.84805094401041
 20
86.01955566406249
 30
0.0
 10
84.9748304578993
 20
84.53678656684028
 30
0.0
 10
85.1019544813368
 20
83.05401746961805
 30
0.0
 10
86.03419731987846
 20
81.27497016059027
 30
0.0
 10
85.86469862196179
 20
80.63935004340277
 30
0.0
 10
85.69519992404513
 20
80.00407443576388
 30
0.0
 10
85.52570122612846
 20
79.07217610677083
 30
0.0
 10
85.6104505750868
 20
78.05552842881944
 30
0.0
 10
85.69519992404513
 20
77.03888075086805
 30
0.0
 10
85.44095187717014
 20
75.08999023437499
 30
0.0
 10
85.3562025282118
 20
74.7089626736111
 30
0.0
  0
SPLINE
  5
A0
330
A
100
AcDbEntity
  8
LAYER_1
 62
     7
100
AcDbSpline
210
0.0
220
0.0
230
1.0
 70
     8
 71
     3
 72
    29
 73
    25
 74
     0
 42
0.0000000001
 43
0.0000000001
 40
0.0
 40
0.0
 40
0.0
 40
0.0
 40
1.0
 40
1.0
 40
1.0
 40
2.0
 40
2.0
 40
2.0
 40
3.0
 40
3.0
 40
3.0
 40
4.0
 40
4.0
 40
4.0
 40
5.0
 40
5.0
 40
5.0
 40
6.0
 40
6.0
 40
6.0
 40
7.0
 40
7.0
 40
7.0
 40
8.0
 40
8.0
 40
8.0
 40
8.0
 10
78.19729410807291
 20
102.2438883463542
 30
0.0
 10
77.90067138671874
 20
101.4391140407986
 30
0.0
 10
78.62069634331597
 20
99.91397026909722
 30
0.0
 10
78.8325697157118
 20
99.19394531249999
 30
0.0
 10
79.04444308810763
 20
98.47357584635415
 30
0.0
 10
79.51021999782985
 20
96.39790581597221
 30
0.0
 10
79.84921739366318
 20
95.76263020833332
 30
0.0
 10
80.18821478949653
 20
95.12701009114582
 30
0.0
 10
80.78111572265624
 20
92.67031249999999
 30
0.0
 10
81.16248779296875
 20
91.7807888454861
 30
0.0
 10
81.54351535373263
 20
90.89092068142361
 30
0.0
 10
82.43338351779514
 20
88.81525065104165
 30
0.0
 10
82.43338351779514
 20
87.71385362413194
 30
0.0
 10
82.43338351779514
 20
86.61245659722222
 30
0.0
 10
82.98390977647568
 20
85.63818359374999
 30
0.0
 10
83.19578314887153
 20
84.57916124131944
 30
0.0
 10
83.40765652126736
 20
83.52013888888888
 30
0.0
 10
83.83105875651042
 20
81.95262044270832
 30
0.0
 10
83.87377794053819
 20
81.40209418402777
 30
0.0
 10
83.91580810546874
 20
80.8512234157986
 30
0.0
 10
83.70427924262152
 20
80.13119845920139
 30
0.0
 10
83.66190456814235
 20
79.41117350260416
 30
0.0
 10
83.61952989366318
 20
78.69080403645833
 30
0.0
 10
83.49240587022568
 20
76.19138726128472
 30
0.0
 10
83.36528184678819
 20
75.64086100260415
 30
0.0
  0
SPLINE
  5
9F
330
A
100
AcDbEntity
  8
LAYER_1
 62
     7
100
AcDbSpline
210
0.0
220
0.0
230
1.0
 70
     8
 71
     3
 72
    17
 73
    13
 74
     0
 42
0.0000000001
 43
0.0000000001
 40
0.0
 40
0.0
 40
0.0
 40
0.0
 40
1.0
 40
1.0
 40
1.0
 40
2.0
 40
2.0
 40
2.0
 40
3.0
 40
3.0
 40
3.0
 40
4.0
 40
4.0
 40
4.0
 40
4.0
 10
72.52081027560763
 20
90.17089572482638
 30
0.0
 10
73.02896185980902
 20
88.98474934895833
 30
0.0
 10
73.15608588324652
 20
88.73050130208333
 30
0.0
 10
73.41033393012152
 20
87.71385362413194
 30
0.0
 10
73.66458197699652
 20
86.69720594618055
 30
0.0
 10
74.17273356119792
 20
85.63818359374999
 30
0.0
 10
74.04560953776041
 20
85.17206217447917
 30
0.0
 10
73.91848551432291
 20
84.70628526475694
 30
0.0
 10
73.57983262803819
 20
84.40966254340277
 30
0.0
 10
73.74933132595486
 20
83.60488823784722
 30
0.0
 10
73.91848551432291
 20
82.80011393229167
 30
0.0
 10
73.57983262803819
 20
79.53795301649305
 30
0.0
 10
73.53745795355903
 20
79.32642415364583
 30
0.0
  0
SPLINE
  5
9E
330
A
100
AcDbEntity
  8
LAYER_1
 62
     7
100
AcDbSpline
210
0.0
220
0.0
230
1.0
 70
     8
 71
     3
 72
    20
 73
    16
 74
     0
 42
0.0000000001
 43
0.0000000001
 40
0.0
 40
0.0
 40
0.0
 40
0.0
 40
1.0
 40
1.0
 40
1.0
 40
2.0
 40
2.0
 40
2.0
 40
3.0
 40
3.0
 40
3.0
 40
4.0
 40
4.0
 40
4.0
 40
5.0
 40
5.0
 40
5.0
 40
5.0
 10
75.48600396050347
 20
78.73317871093749
 30
0.0
 10
75.74025200737846
 20
79.66507703993055
 30
0.0
 10
75.90975070529514
 20
81.6139675564236
 30
0.0
 10
75.9521253797743
 20
82.5034912109375
 30
0.0
 10
75.99415554470485
 20
83.39301486545138
 30
0.0
 10
76.12162407769097
 20
83.60488823784722
 30
0.0
 10
76.12162407769097
 20
84.45203721788194
 30
0.0
 10
76.12162407769097
 20
85.29918619791665
 30
0.0
 10
76.07890489366319
 20
85.34156087239583
 30
0.0
 10
75.65550265842013
 20
87.07857801649305
 30
0.0
 10
75.23175591362846
 20
88.81525065104165
 30
0.0
 10
74.63885498046875
 20
90.04377170138888
 30
0.0
 10
74.08798421223958
 20
91.18754340277776
 30
0.0
 10
73.53745795355903
 20
92.33131510416666
 30
0.0
 10
72.47843560112847
 20
93.85645887586804
 30
0.0
 10
72.47843560112847
 20
94.7883572048611
 30
0.0
  0
SPLINE
  5
9D
330
A
100
AcDbEntity
  8
LAYER_1
 62
     7
100
AcDbSpline
210
0.0
220
0.0
230
1.0
 70
     8
 71
     3
 72
    26
 73
    22
 74
     0
 42
0.0000000001
 43
0.0000000001
 40
0.0
 40
0.0
 40
0.0
 40
0.0
 40
1.0
 40
1.0
 40
1.0
 40
2.0
 40
2.0
 40
2.0
 40
3.0
 40
3.0
 40
3.0
 40
4.0
 40
4.0
 40
4.0
 40
5.0
 40
5.0
 40
5.0
 40
6.0
 40
6.0
 40
6.0
 40
7.0
 40
7.0
 40
7.0
 40
7.0
 10
72.39368625217013
 20
102.7947591145833
 30
0.0
 10
72.94421251085069
 20
101.1001166449653
 30
0.0
 10
73.28320990668402
 20
100.2529676649306
 30
0.0
 10
73.83408067491318
 20
98.8125732421875
 30
0.0
 10
74.38460693359374
 20
97.37217881944443
 30
0.0
 10
75.40125461154513
 20
94.0256130642361
 30
0.0
 10
75.90975070529514
 20
92.92456054687499
 30
0.0
 10
76.41790228949652
 20
91.82281901041665
 30
0.0
 10
77.01080322265625
 20
91.10279405381944
 30
0.0
 10
77.13827175564235
 20
89.91664767795137
 30
0.0
 10
77.26505126953124
 20
88.73050130208333
 30
0.0
 10
78.11254475911457
 20
87.45960557725694
 30
0.0
 10
78.23932427300346
 20
86.06193033854166
 30
0.0
 10
78.36644829644096
 20
84.66391059027777
 30
0.0
 10
78.49357231987847
 20
84.19778917100693
 30
0.0
 10
78.49357231987847
 20
83.52013888888888
 30
0.0
 10
78.49357231987847
 20
82.84214409722222
 30
0.0
 10
78.3240736219618
 20
82.54586588541666
 30
0.0
 10
78.36644829644096
 20
81.78312174479166
 30
0.0
 10
78.40882297092013
 20
81.02072211371527
 30
0.0
 10
78.28204345703124
 20
78.26740180121527
 30
0.0
 10
78.11254475911457
 20
77.75890570746527
 30
0.0
  0
SPLINE
  5
9C
330
A
100
AcDbEntity
  8
LAYER_1
 62
     7
100
AcDbSpline
210
0.0
220
0.0
230
1.0
 70
     8
 71
     3
 72
    44
 73
    40
 74
     0
 42
0.0000000001
 43
0.0000000001
 40
0.0
 40
0.0
 40
0.0
 40
0.0
 40
1.0
 40
1.0
 40
1.0
 40
2.0
 40
2.0
 40
2.0
 40
3.0
 40
3.0
 40
3.0
 40
4.0
 40
4.0
 40
4.0
 40
5.0
 40
5.0
 40
5.0
 40
6.0
 40
6.0
 40
6.0
 40
7.0
 40
7.0
 40
7.0
 40
8.0
 40
8.0
 40
8.0
 40
9.0
 40
9.0
 40
9.0
 40
10.0
 40
10.0
 40
10.0
 40
11.0
 40
11.0
 40
11.0
 40
12.0
 40
12.0
 40
12.0
 40
13.0
 40
13.0
 40
13.0
 40
13.0
 10
86.62709825303818
 20
43.86950141059027
 30
0.0
 10
86.62709825303818
 20
45.26752115885417
 30
0.0
 10
86.07622748480902
 20
47.42794053819444
 30
0.0
 10
85.77994927300347
 20
48.44458821614583
 30
0.0
 10
85.4833265516493
 20
49.46123589409721
 30
0.0
 10
84.46667887369792
 20
53.65529513888888
 30
0.0
 10
84.12768147786457
 20
54.96822102864583
 30
0.0
 10
83.78902859157985
 20
56.28149142795139
 30
0.0
 10
83.06865912543402
 20
58.48428548177083
 30
0.0
 10
83.06865912543402
 20
59.88230523003472
 30
0.0
 10
83.06865912543402
 20
61.28032497829861
 30
0.0
 10
82.17913547092013
 20
63.90652126736111
 30
0.0
 10
81.92488742404512
 20
65.09266764322916
 30
0.0
 10
81.67098388671874
 20
66.27881401909721
 30
0.0
 10
80.78111572265624
 20
68.99010416666665
 30
0.0
 10
80.52686767578125
 20
69.96437717013889
 30
0.0
 10
80.27296413845485
 20
70.93865017361111
 30
0.0
 10
79.93396674262152
 20
71.91292317708333
 30
0.0
 10
79.97634141710068
 20
72.2095458984375
 30
0.0
 10
80.01871609157985
 20
72.50616861979167
 30
0.0
 10
80.31533881293402
 20
73.56519097222221
 30
0.0
 10
80.56924235026041
 20
74.2004665798611
 30
0.0
 10
80.82349039713542
 20
74.8360866970486
 30
0.0
 10
81.20486246744791
 20
75.852734375
 30
0.0
 10
81.24723714192707
 20
76.44563530815971
 30
0.0
 10
81.28961181640624
 20
77.03888075086805
 30
0.0
 10
81.88251274956596
 20
81.57159288194444
 30
0.0
 10
81.7130140516493
 20
82.24924316406249
 30
0.0
 10
81.54351535373263
 20
82.92689344618054
 30
0.0
 10
81.54351535373263
 20
84.19778917100693
 30
0.0
 10
81.20486246744791
 20
85.25681152343749
 30
0.0
 10
80.86586507161458
 20
86.31583387586805
 30
0.0
 10
79.76446804470486
 20
88.64575195312499
 30
0.0
 10
79.63734402126735
 20
89.91664767795137
 30
0.0
 10
79.51021999782985
 20
91.18754340277776
 30
0.0
 10
78.19729410807291
 20
93.60221082899305
 30
0.0
 10
78.07017008463541
 20
94.36461046006944
 30
0.0
 10
77.9430460611979
 20
95.12701009114582
 30
0.0
 10
74.89310302734374
 20
102.6676350911458
 30
0.0
 10
75.14700656467014
 20
103.4300347222222
 30
0.0
  0
SPLINE
  5
9B
330
A
100
AcDbEntity
  8
LAYER_1
 62
     7
100
AcDbSpline
210
0.0
220
0.0
230
1.0
 70
     8
 71
     3
 72
    20
 73
    16
 74
     0
 42
0.0000000001
 43
0.0000000001
 40
0.0
 40
0.0
 40
0.0
 40
0.0
 40
1.0
 40
1.0
 40
1.0
 40
2.0
 40
2.0
 40
2.0
 40
3.0
 40
3.0
 40
3.0
 40
4.0
 40
4.0
 40
4.0
 40
5.0
 40
5.0
 40
5.0
 40
5.0
 10
84.50905354817708
 20
44.75936957465277
 30
0.0
 10
84.17005615234375
 20
47.76693793402777
 30
0.0
 10
84.08530680338541
 20
47.93643663194444
 30
0.0
 10
83.78902859157985
 20
49.84260796440972
 30
0.0
 10
83.49240587022568
 20
51.74877929687499
 30
0.0
 10
82.56050754123262
 20
56.83236219618055
 30
0.0
 10
82.00963677300346
 20
58.35716145833333
 30
0.0
 10
81.4587660047743
 20
59.88230523003472
 30
0.0
 10
80.69636637369791
 20
62.72071940104166
 30
0.0
 10
80.48483751085068
 20
63.77974175347222
 30
0.0
 10
80.27296413845485
 20
64.83876410590277
 30
0.0
 10
78.79019504123264
 20
71.61664496527777
 30
0.0
 10
78.3240736219618
 20
72.80244683159721
 30
0.0
 10
78.36644829644096
 20
73.56519097222221
 30
0.0
 10
79.17156711154513
 20
76.23376193576388
 30
0.0
 10
79.29869113498263
 20
76.95413140190972
 30
0.0
  0
SPLINE
  5
9A
330
A
100
AcDbEntity
  8
LAYER_1
 62
     7
100
AcDbSpline
210
0.0
220
0.0
230
1.0
 70
     8
 71
     3
 72
    29
 73
    25
 74
     0
 42
0.0000000001
 43
0.0000000001
 40
0.0
 40
0.0
 40
0.0
 40
0.0
 40
1.0
 40
1.0
 40
1.0
 40
2.0
 40
2.0
 40
2.0
 40
3.0
 40
3.0
 40
3.0
 40
4.0
 40
4.0
 40
4.0
 40
5.0
 40
5.0
 40
5.0
 40
6.0
 40
6.0
 40
6.0
 40
7.0
 40
7.0
 40
7.0
 40
8.0
 40
8.0
 40
8.0
 40
8.0
 10
77.05352240668402
 20
77.9707790798611
 30
0.0
 10
76.96877305772568
 20
77.29278428819444
 30
0.0
 10
76.71452501085069
 20
76.57275933159721
 30
0.0
 10
76.50265163845485
 20
76.06460774739583
 30
0.0
 10
76.29077826605902
 20
75.55611165364583
 30
0.0
 10
76.12162407769097
 20
74.45471462673611
 30
0.0
 10
75.90975070529514
 20
73.86146918402777
 30
0.0
 10
76.20637342664929
 20
72.845166015625
 30
0.0
 10
76.37552761501735
 20
72.336669921875
 30
0.0
 10
76.67215033637152
 20
71.27764756944444
 30
0.0
 10
76.96877305772568
 20
70.21862521701388
 30
0.0
 10
77.26505126953124
 20
69.62537977430554
 30
0.0
 10
77.43454996744791
 20
68.65110677083332
 30
0.0
 10
77.60404866536457
 20
67.6768337673611
 30
0.0
 10
78.07017008463541
 20
66.02456597222222
 30
0.0
 10
78.3240736219618
 20
64.6692654079861
 30
0.0
 10
78.57832166883679
 20
63.31362033420138
 30
0.0
 10
78.66307101779513
 20
62.25459798177083
 30
0.0
 10
79.12919243706597
 20
60.7718288845486
 30
0.0
 10
79.59496934678819
 20
59.28905978732638
 30
0.0
 10
79.97634141710068
 20
57.51001247829861
 30
0.0
 10
80.23058946397569
 20
56.28149142795139
 30
0.0
 10
80.48483751085068
 20
55.05297037760416
 30
0.0
 10
81.92488742404512
 20
46.79266493055555
 30
0.0
 10
81.9672620985243
 20
45.81804741753472
 30
0.0
  0
SPLINE
  5
99
330
A
100
AcDbEntity
  8
LAYER_1
 62
     7
100
AcDbSpline
210
0.0
220
0.0
230
1.0
 70
     8
 71
     3
 72
    29
 73
    25
 74
     0
 42
0.0000000001
 43
0.0000000001
 40
0.0
 40
0.0
 40
0.0
 40
0.0
 40
1.0
 40
1.0
 40
1.0
 40
2.0
 40
2.0
 40
2.0
 40
3.0
 40
3.0
 40
3.0
 40
4.0
 40
4.0
 40
4.0
 40
5.0
 40
5.0
 40
5.0
 40
6.0
 40
6.0
 40
6.0
 40
7.0
 40
7.0
 40
7.0
 40
8.0
 40
8.0
 40
8.0
 40
8.0
 10
80.35771348741319
 20
46.49604220920138
 30
0.0
 10
80.23058946397569
 20
48.02084147135416
 30
0.0
 10
79.51021999782985
 20
50.35110405815972
 30
0.0
 10
79.42547064887152
 20
51.3677517361111
 30
0.0
 10
79.3410658094618
 20
52.38439941406249
 30
0.0
 10
78.62069634331597
 20
56.53573947482639
 30
0.0
 10
78.11254475911457
 20
58.14528808593749
 30
0.0
 10
77.60404866536457
 20
59.75518120659721
 30
0.0
 10
77.34980061848958
 20
62.04272460937499
 30
0.0
 10
76.88402370876736
 20
63.61024305555555
 30
0.0
 10
76.41790228949652
 20
65.17741699218749
 30
0.0
 10
76.20637342664929
 20
66.99918348524305
 30
0.0
 10
75.57075330946179
 20
68.86298014322917
 30
0.0
 10
74.93513319227429
 20
70.72677680121527
 30
0.0
 10
74.2998575846354
 20
73.73468967013888
 30
0.0
 10
74.25748291015624
 20
74.41233995225694
 30
0.0
 10
74.17273356119792
 20
74.66658799913193
 30
0.0
 10
74.08798421223958
 20
75.13236490885416
 30
0.0
 10
74.34223225911458
 20
75.51373697916667
 30
0.0
 10
74.59648030598957
 20
75.89510904947916
 30
0.0
 10
74.97785237630208
 20
76.69988335503471
 30
0.0
 10
75.10463189019096
 20
77.08125542534721
 30
0.0
 10
75.23175591362846
 20
77.46228298611111
 30
0.0
 10
75.74025200737846
 20
78.22502712673611
 30
0.0
 10
75.8250013563368
 20
78.43655598958333
 30
0.0
  0
LINE
  5
98
330
A
100
AcDbEntity
  8
LAYER_1
 62
     7
100
AcDbLine
 10
72.52081027560763
 20
85.76530761718749
 30
0.0
 11
94.20975341796874
 21
77.41990831163194
 31
0.0
  0
LINE
  5
97
330
A
100
AcDbEntity
  8
LAYER_1
 62
     7
100
AcDbLine
 10
74.80835367838542
 20
78.90267740885416
 30
0.0
 11
92.47308078342013
 21
71.99767252604165
 31
0.0
  0
LINE
  5
96
330
A
100
AcDbEntity
  8
LAYER_1
 62
     7
100
AcDbLine
 10
72.4360609266493
 20
75.2171142578125
 30
0.0
 11
94.20975341796874
 21
66.53306206597222
 31
0.0
  0
SPLINE
  5
95
330
A
100
AcDbEntity
  8
LAYER_1
 62
     7
100
AcDbSpline
210
0.0
220
0.0
230
1.0
 70
     8
 71
     3
 72
    26
 73
    22
 74
     0
 42
0.0000000001
 43
0.0000000001
 40
0.0
 40
0.0
 40
0.0
 40
0.0
 40
1.0
 40
1.0
 40
1.0
 40
2.0
 40
2.0
 40
2.0
 40
3.0
 40
3.0
 40
3.0
 40
4.0
 40
4.0
 40
4.0
 40
5.0
 40
5.0
 40
5.0
 40
6.0
 40
6.0
 40
6.0
 40
7.0
 40
7.0
 40
7.0
 40
7.0
 10
77.22267659505208
 20
47.80931260850694
 30
0.0
 10
77.26505126953124
 20
49.08020833333333
 30
0.0
 10
76.58740098741319
 20
51.53725043402778
 30
0.0
 10
76.50265163845485
 20
52.80780164930555
 30
0.0
 10
76.41790228949652
 20
54.07869737413194
 30
0.0
 10
76.16365424262152
 20
54.96822102864583
 30
0.0
 10
76.12162407769097
 20
55.64621582031249
 30
0.0
 10
76.07890489366319
 20
56.32386610243055
 30
0.0
 10
76.16365424262152
 20
57.3828884548611
 30
0.0
 10
75.90975070529514
 20
58.0185085720486
 30
0.0
 10
75.65550265842013
 20
58.65378417968749
 30
0.0
 10
75.52837863498263
 20
59.41652832031249
 30
0.0
 10
75.35887993706596
 20
61.19557562934028
 30
0.0
 10
75.1893812391493
 20
62.97462293836805
 30
0.0
 10
75.14700656467014
 20
62.76274956597221
 30
0.0
 10
74.85038384331597
 20
63.39836968315971
 30
0.0
 10
74.55410563151041
 20
64.0336452907986
 30
0.0
 10
74.38460693359374
 20
65.77066243489583
 30
0.0
 10
74.17273356119792
 20
66.57543674045138
 30
0.0
 10
73.96086018880207
 20
67.38021104600693
 30
0.0
 10
72.47843560112847
 20
73.43806694878471
 30
0.0
 10
72.39368625217013
 20
74.49708930121527
 30
0.0
  0
SPLINE
  5
94
330
A
100
AcDbEntity
  8
LAYER_1
 62
     7
100
AcDbSpline
210
0.0
220
0.0
230
1.0
 70
     8
 71
     3
 72
    17
 73
    13
 74
     0
 42
0.0000000001
 43
0.0000000001
 40
0.0
 40
0.0
 40
0.0
 40
0.0
 40
1.0
 40
1.0
 40
1.0
 40
2.0
 40
2.0
 40
2.0
 40
3.0
 40
3.0
 40
3.0
 40
4.0
 40
4.0
 40
4.0
 40
4.0
 10
74.46935628255207
 20
48.91070963541667
 30
0.0
 10
74.42698160807291
 20
50.26635470920139
 30
0.0
 10
74.21510823567708
 20
50.81688096788194
 30
0.0
 10
74.04560953776041
 20
51.8759033203125
 30
0.0
 10
73.87611083984375
 20
52.93492567274305
 30
0.0
 10
73.66458197699652
 20
53.86682400173611
 30
0.0
 10
73.41033393012152
 20
55.26484375
 30
0.0
 10
73.15608588324652
 20
56.66286349826388
 30
0.0
 10
73.15608588324652
 20
57.80663519965277
 30
0.0
 10
73.11371120876736
 20
58.9080322265625
 30
0.0
 10
73.07133653428819
 20
60.00942925347222
 30
0.0
 10
72.6903089735243
 20
62.25459798177083
 30
0.0
 10
72.35131157769096
 20
62.80512424045138
 30
0.0
  0
LWPOLYLINE
  5
8B
330
A
100
AcDbEntity
  8
LAYER_1
 62
     7
100
AcDbPolyline
 90
        7
 70
     0
 43
0.0
 10
72.4360609266493
 20
104.6161810980903
 10
94.46400146484375
 20
96.31315646701388
 10
94.33687744140624
 20
77.46228298611111
 10
92.51545545789929
 20
71.99767252604165
 10
96.58204616970485
 20
71.40477159288194
 10
94.29450276692708
 20
66.44831271701388
 10
94.04025472005208
 20
40.90430772569444
  0
SPLINE
  5
8A
330
A
100
AcDbEntity
  8
LAYER_1
 62
     7
100
AcDbSpline
210
0.0
220
0.0
230
1.0
 70
     8
 71
     3
 72
    11
 73
     7
 74
     0
 42
0.0000000001
 43
0.0000000001
 40
0.0
 40
0.0
 40
0.0
 40
0.0
 40
1.0
 40
1.0
 40
1.0
 40
2.0
 40
2.0
 40
2.0
 40
2.0
 10
108.6739868164062
 20
156.6224812825521
 30
0.0
 10
108.5024210611979
 20
156.3218967013889
 30
0.0
 10
108.8030056423611
 20
155.975836859809
 30
0.0
 10
109.8201700846354
 20
156.0431884765625
 30
0.0
 10
110.7413886176215
 20
156.1039944118924
 30
0.0
 10
110.8581773546007
 20
156.581829155816
 30
0.0
 10
110.4454549153646
 20
156.8503743489583
 30
0.0
  0
SPLINE
  5
89
330
A
100
AcDbEntity
  8
LAYER_1
 62
     7
100
AcDbSpline
210
0.0
220
0.0
230
1.0
 70
    11
 71
     3
 72
    11
 73
     7
 74
     0
 42
0.0000000001
 43
0.0000000001
 40
0.0
 40
0.0
 40
0.0
 40
0.0
 40
1.0
 40
1.0
 40
1.0
 40
2.0
 40
2.0
 40
2.0
 40
2.0
 10
109.7864081488715
 20
156.4748589409722
 30
0.0
 10
111.1699584960937
 20
156.5661539713541
 30
0.0
 10
110.7396660698785
 20
157.5972710503472
 30
0.0
 10
109.4263956705729
 20
157.4491319444444
 30
0.0
 10
108.3687513563368
 20
157.329931640625
 30
0.0
 10
108.1489542643229
 20
156.3663384331597
 30
0.0
 10
109.7864081488715
 20
156.4748589409722
 30
0.0
  0
SPLINE
  5
88
330
A
100
AcDbEntity
  8
LAYER_1
 62
     7
100
AcDbSpline
210
0.0
220
0.0
230
1.0
 70
     8
 71
     3
 72
    11
 73
     7
 74
     0
 42
0.0000000001
 43
0.0000000001
 40
0.0
 40
0.0
 40
0.0
 40
0.0
 40
1.0
 40
1.0
 40
1.0
 40
2.0
 40
2.0
 40
2.0
 40
2.0
 10
90.56070827907985
 20
147.8827907986111
 30
0.0
 10
90.12938232421874
 20
147.5663587782118
 30
0.0
 10
90.31283365885416
 20
147.0445990668403
 30
0.0
 10
91.54118245442707
 20
147.1262478298611
 30
0.0
 10
92.23278537326388
 20
147.1718953450521
 30
0.0
 10
92.47101372612846
 20
147.4524983723958
 30
0.0
 10
92.37231174045138
 20
147.7031290690104
 30
0.0
  0
SPLINE
  5
87
330
A
100
AcDbEntity
  8
LAYER_1
 62
     7
100
AcDbSpline
210
0.0
220
0.0
230
1.0
 70
    11
 71
     3
 72
    11
 73
     7
 74
     0
 42
0.0000000001
 43
0.0000000001
 40
0.0
 40
0.0
 40
0.0
 40
0.0
 40
1.0
 40
1.0
 40
1.0
 40
2.0
 40
2.0
 40
2.0
 40
2.0
 10
91.50742051866318
 20
147.5575737847222
 30
0.0
 10
92.89097086588541
 20
147.6488688151042
 30
0.0
 10
92.46067843967013
 20
148.6803304036458
 30
0.0
 10
91.14740804036458
 20
148.5318467881944
 30
0.0
 10
90.08976372612847
 20
148.412646484375
 30
0.0
 10
89.86996663411458
 20
147.4490532769097
 30
0.0
 10
91.50742051866318
 20
147.5575737847222
 30
0.0
  0
SPLINE
  5
86
330
A
100
AcDbEntity
  8
LAYER_1
 62
     7
100
AcDbSpline
210
0.0
220
0.0
230
1.0
 70
     8
 71
     3
 72
    11
 73
     7
 74
     0
 42
0.0000000001
 43
0.0000000001
 40
0.0
 40
0.0
 40
0.0
 40
0.0
 40
1.0
 40
1.0
 40
1.0
 40
2.0
 40
2.0
 40
2.0
 40
2.0
 10
57.28573676215277
 20
147.1625935872396
 30
0.0
 10
56.85441080729166
 20
146.8463338216146
 30
0.0
 10
57.03786214192708
 20
146.3244018554688
 30
0.0
 10
58.26603868272569
 20
146.4058783637153
 30
0.0
 10
59.12541775173611
 20
146.4625501844618
 30
0.0
 10
59.28492567274305
 20
146.8819905598958
 30
0.0
 10
58.96797688802083
 20
147.156047905816
 30
0.0
  0
SPLINE
  5
85
330
A
100
AcDbEntity
  8
LAYER_1
 62
     7
100
AcDbSpline
210
0.0
220
0.0
230
1.0
 70
    11
 71
     3
 72
    11
 73
     7
 74
     0
 42
0.0000000001
 43
0.0000000001
 40
0.0
 40
0.0
 40
0.0
 40
0.0
 40
1.0
 40
1.0
 40
1.0
 40
2.0
 40
2.0
 40
2.0
 40
2.0
 10
58.23262125651041
 20
146.837548828125
 30
0.0
 10
59.61582709418402
 20
146.9288438585069
 30
0.0
 10
59.18553466796875
 20
147.9599609375
 30
0.0
 10
57.87226426866319
 20
147.8118218315972
 30
0.0
 10
56.81461995442708
 20
147.6926215277778
 30
0.0
 10
56.5951673719618
 20
146.7290283203125
 30
0.0
 10
58.23262125651041
 20
146.837548828125
 30
0.0
  0
LINE
  5
84
330
A
100
AcDbEntity
  8
LAYER_1
 62
     7
100
AcDbLine
 10
48.07820231119791
 20
136.1756673177083
 30
0.0
 11
62.06287841796875
 21
139.025794813368
 31
0.0
  0
SPLINE
  5
83
330
A
100
AcDbEntity
  8
LAYER_1
 62
     7
100
AcDbSpline
210
0.0
220
0.0
230
1.0
 70
     8
 71
     3
 72
     8
 73
     4
 74
     0
 42
0.0000000001
 43
0.0000000001
 40
0.0
 40
0.0
 40
0.0
 40
0.0
 40
1.0
 40
1.0
 40
1.0
 40
1.0
 10
135.8089369032118
 20
127.1316026475694
 30
0.0
 10
136.0842000325521
 20
127.491615125868
 30
0.0
 10
136.1265747070312
 20
127.8516276041667
 30
0.0
 10
136.2113240559896
 20
128.1268907335069
 30
0.0
  0
SPLINE
  5
82
330
A
100
AcDbEntity
  8
LAYER_1
 62
     7
100
AcDbSpline
210
0.0
220
0.0
230
1.0
 70
     8
 71
     3
 72
     8
 73
     4
 74
     0
 42
0.0000000001
 43
0.0000000001
 40
0.0
 40
0.0
 40
0.0
 40
0.0
 40
1.0
 40
1.0
 40
1.0
 40
1.0
 10
134.4743069118923
 20
127.2583821614583
 30
0.0
 10
134.6651652018229
 20
127.6183946397569
 30
0.0
 10
134.898053656684
 20
128.6777615017361
 30
0.0
 10
135.2156914605035
 20
128.804541015625
 30
0.0
  0
LWPOLYLINE
  5
7D
330
A
100
AcDbEntity
  8
LAYER_1
 62
     7
100
AcDbPolyline
 90
        3
 70
     0
 43
0.0
 10
134.4743069118923
 20
129.4401611328125
 10
133.2037556966146
 20
127.3431315104167
 10
137.5032348632813
 20
126.983119032118
  0
SPLINE
  5
7C
330
A
100
AcDbEntity
  8
LAYER_1
 62
     7
100
AcDbSpline
210
0.0
220
0.0
230
1.0
 70
     8
 71
     3
 72
    11
 73
     7
 74
     0
 42
0.0000000001
 43
0.0000000001
 40
0.0
 40
0.0
 40
0.0
 40
0.0
 40
1.0
 40
1.0
 40
1.0
 40
2.0
 40
2.0
 40
2.0
 40
2.0
 10
108.4407538519965
 20
84.35557454427082
 30
0.0
 10
108.2359429253472
 20
83.9297607421875
 30
0.0
 10
107.8971177842882
 20
84.19537760416667
 30
0.0
 10
107.8926391601562
 20
85.17206217447917
 30
0.0
 10
107.8891940646701
 20
86.01938340928818
 30
0.0
 10
108.1517103407118
 20
86.36251491970485
 30
0.0
 10
108.3561767578125
 20
86.21592610677082
 30
0.0
  0
SPLINE
  5
7B
330
A
100
AcDbEntity
  8
LAYER_1
 62
     7
100
AcDbSpline
210
0.0
220
0.0
230
1.0
 70
    11
 71
     3
 72
    11
 73
     7
 74
     0
 42
0.0000000001
 43
0.0000000001
 40
0.0
 40
0.0
 40
0.0
 40
0.0
 40
1.0
 40
1.0
 40
1.0
 40
2.0
 40
2.0
 40
2.0
 40
2.0
 10
108.8579549153646
 20
85.42183159722221
 30
0.0
 10
108.8989515516493
 20
83.83329806857638
 30
0.0
 10
108.1658352322049
 20
83.72753363715277
 30
0.0
 10
108.1589450412326
 20
85.16758355034722
 30
0.0
 10
108.1537773980035
 20
86.52322862413193
 30
0.0
 10
108.8290161132812
 20
86.58834092881943
 30
0.0
 10
108.8579549153646
 20
85.42183159722221
 30
0.0
  0
SPLINE
  5
7A
330
A
100
AcDbEntity
  8
LAYER_1
 62
     7
100
AcDbSpline
210
0.0
220
0.0
230
1.0
 70
     8
 71
     3
 72
    11
 73
     7
 74
     0
 42
0.0000000001
 43
0.0000000001
 40
0.0
 40
0.0
 40
0.0
 40
0.0
 40
1.0
 40
1.0
 40
1.0
 40
2.0
 40
2.0
 40
2.0
 40
2.0
 10
108.4750325520833
 20
90.41050211588541
 30
0.0
 10
108.2695326063368
 20
90.11801350911458
 30
0.0
 10
107.9815226236979
 20
90.41429172092013
 30
0.0
 10
107.9773885091146
 20
91.31466742621527
 30
0.0
 10
107.9739434136285
 20
92.1619886610243
 30
0.0
 10
108.2364596896701
 20
92.50494791666665
 30
0.0
 10
108.4409261067708
 20
92.35835910373262
 30
0.0
  0
SPLINE
  5
79
330
A
100
AcDbEntity
  8
LAYER_1
 62
     7
100
AcDbSpline
210
0.0
220
0.0
230
1.0
 70
    11
 71
     3
 72
    11
 73
     7
 74
     0
 42
0.0000000001
 43
0.0000000001
 40
0.0
 40
0.0
 40
0.0
 40
0.0
 40
1.0
 40
1.0
 40
1.0
 40
2.0
 40
2.0
 40
2.0
 40
2.0
 10
108.9427042643229
 20
91.56443684895832
 30
0.0
 10
108.9837009006076
 20
89.9759033203125
 30
0.0
 10
108.2505845811632
 20
89.86979437934026
 30
0.0
 10
108.243694390191
 20
91.31018880208333
 30
0.0
 10
108.2385267469618
 20
92.66583387586805
 30
0.0
 10
108.9137654622396
 20
92.73060167100694
 30
0.0
 10
108.9427042643229
 20
91.56443684895832
 30
0.0
  0
SPLINE
  5
78
330
A
100
AcDbEntity
  8
LAYER_1
 62
     7
100
AcDbSpline
210
0.0
220
0.0
230
1.0
 70
     8
 71
     3
 72
    11
 73
     7
 74
     0
 42
0.0000000001
 43
0.0000000001
 40
0.0
 40
0.0
 40
0.0
 40
0.0
 40
1.0
 40
1.0
 40
1.0
 40
2.0
 40
2.0
 40
2.0
 40
2.0
 10
108.4962198893229
 20
96.97702636718749
 30
0.0
 10
108.2907199435764
 20
96.68402099609374
 30
0.0
 10
108.0025377061632
 20
96.98012695312499
 30
0.0
 10
107.9984035915798
 20
97.88067491319444
 30
0.0
 10
107.9946139865451
 20
98.86511094835069
 30
0.0
 10
108.3498033311632
 20
99.16879611545139
 30
0.0
 10
108.5556477864583
 20
98.81481255425346
 30
0.0
  0
SPLINE
  5
77
330
A
100
AcDbEntity
  8
LAYER_1
 62
     7
100
AcDbSpline
210
0.0
220
0.0
230
1.0
 70
    11
 71
     3
 72
    11
 73
     7
 74
     0
 42
0.0000000001
 43
0.0000000001
 40
0.0
 40
0.0
 40
0.0
 40
0.0
 40
1.0
 40
1.0
 40
1.0
 40
2.0
 40
2.0
 40
2.0
 40
2.0
 10
108.9640638563368
 20
98.1304443359375
 30
0.0
 10
109.0050604926215
 20
96.54191080729166
 30
0.0
 10
108.2715996636285
 20
96.43580186631944
 30
0.0
 10
108.2650539822049
 20
97.87619628906249
 30
0.0
 10
108.2595418294271
 20
99.23184136284722
 30
0.0
 10
108.9347805447049
 20
99.2966091579861
 30
0.0
 10
108.9640638563368
 20
98.1304443359375
 30
0.0
  0
SPLINE
  5
76
330
A
100
AcDbEntity
  8
LAYER_1
 62
     7
100
AcDbSpline
210
0.0
220
0.0
230
1.0
 70
     8
 71
     3
 72
    11
 73
     7
 74
     0
 42
0.0000000001
 43
0.0000000001
 40
0.0
 40
0.0
 40
0.0
 40
0.0
 40
1.0
 40
1.0
 40
1.0
 40
2.0
 40
2.0
 40
2.0
 40
2.0
 10
108.5597819010417
 20
102.9284288194444
 30
0.0
 10
108.3542819552951
 20
102.6359402126736
 30
0.0
 10
108.0662719726562
 20
102.9320461697049
 30
0.0
 10
108.0621378580729
 20
103.832421875
 30
0.0
 10
108.0586927625868
 20
104.679743109809
 30
0.0
 10
108.3212090386285
 20
105.0227023654514
 30
0.0
 10
108.5256754557292
 20
104.8761135525174
 30
0.0
  0
SPLINE
  5
75
330
A
100
AcDbEntity
  8
LAYER_1
 62
     7
100
AcDbSpline
210
0.0
220
0.0
230
1.0
 70
    11
 71
     3
 72
    11
 73
     7
 74
     0
 42
0.0000000001
 43
0.0000000001
 40
0.0
 40
0.0
 40
0.0
 40
0.0
 40
1.0
 40
1.0
 40
1.0
 40
2.0
 40
2.0
 40
2.0
 40
2.0
 10
109.0274536132812
 20
104.0821912977431
 30
0.0
 10
109.068450249566
 20
102.4936577690972
 30
0.0
 10
108.3353339301215
 20
102.3878933376736
 30
0.0
 10
108.3284437391493
 20
103.8279432508681
 30
0.0
 10
108.3232760959201
 20
105.1835883246528
 30
0.0
 10
108.9985148111979
 20
105.2483561197917
 30
0.0
 10
109.0274536132812
 20
104.0821912977431
 30
0.0
  0
LINE
  5
74
330
A
100
AcDbEntity
  8
LAYER_1
 62
     7
100
AcDbLine
 10
106.3674953884549
 20
122.4504069010417
 30
0.0
 11
107.0454901801215
 21
122.280908203125
 31
0.0
  0
SPLINE
  5
73
330
A
100
AcDbEntity
  8
LAYER_1
 62
     7
100
AcDbSpline
210
0.0
220
0.0
230
1.0
 70
     8
 71
     3
 72
    17
 73
    13
 74
     0
 42
0.0000000001
 43
0.0000000001
 40
0.0
 40
0.0
 40
0.0
 40
0.0
 40
1.0
 40
1.0
 40
1.0
 40
2.0
 40
2.0
 40
2.0
 40
3.0
 40
3.0
 40
3.0
 40
4.0
 40
4.0
 40
4.0
 40
4.0
 10
112.2134779188368
 20
137.1075656467014
 30
0.0
 10
112.2134779188368
 20
137.1075656467014
 30
0.0
 10
113.3148749457465
 20
136.8533175998264
 30
0.0
 10
113.3148749457465
 20
136.8533175998264
 30
0.0
 10
113.3148749457465
 20
136.8533175998264
 30
0.0
 10
107.0878648546007
 20
122.1961588541667
 30
0.0
 10
107.0878648546007
 20
122.1961588541667
 30
0.0
 10
107.0878648546007
 20
122.1961588541667
 30
0.0
 10
106.7064927842882
 20
70.26099989149304
 30
0.0
 10
106.7064927842882
 20
69.71012912326388
 30
0.0
 10
106.7064927842882
 20
69.15960286458332
 30
0.0
 10
106.8336168077257
 20
68.26973470052083
 30
0.0
 10
106.5369940863715
 20
67.76158311631944
 30
0.0
  0
SPLINE
  5
72
330
A
100
AcDbEntity
  8
LAYER_1
 62
     7
100
AcDbSpline
210
0.0
220
0.0
230
1.0
 70
     8
 71
     3
 72
     8
 73
     4
 74
     0
 42
0.0000000001
 43
0.0000000001
 40
0.0
 40
0.0
 40
0.0
 40
0.0
 40
1.0
 40
1.0
 40
1.0
 40
1.0
 10
112.4677259657118
 20
106.6918511284722
 30
0.0
 10
112.7216295030382
 20
107.0308485243055
 30
0.0
 10
113.3572496202257
 20
107.6237494574653
 30
0.0
 10
113.696247016059
 20
107.0308485243055
 30
0.0
  0
SPLINE
  5
71
330
A
100
AcDbEntity
  8
LAYER_1
 62
     7
100
AcDbSpline
210
0.0
220
0.0
230
1.0
 70
     8
 71
     3
 72
     8
 73
     4
 74
     0
 42
0.0000000001
 43
0.0000000001
 40
0.0
 40
0.0
 40
0.0
 40
0.0
 40
1.0
 40
1.0
 40
1.0
 40
1.0
 10
112.4677259657118
 20
107.8779975043403
 30
0.0
 10
112.7216295030382
 20
108.2169949001736
 30
0.0
 10
113.3572496202257
 20
108.8098958333333
 30
0.0
 10
113.696247016059
 20
108.2169949001736
 30
0.0
  0
SPLINE
  5
70
330
A
100
AcDbEntity
  8
LAYER_1
 62
     7
100
AcDbSpline
210
0.0
220
0.0
230
1.0
 70
     8
 71
     3
 72
     8
 73
     4
 74
     0
 42
0.0000000001
 43
0.0000000001
 40
0.0
 40
0.0
 40
0.0
 40
0.0
 40
1.0
 40
1.0
 40
1.0
 40
1.0
 10
112.4677259657118
 20
109.1065185546875
 30
0.0
 10
112.7216295030382
 20
109.4455159505208
 30
0.0
 10
113.3572496202257
 20
110.0384168836805
 30
0.0
 10
113.696247016059
 20
109.4455159505208
 30
0.0
  0
SPLINE
  5
6F
330
A
100
AcDbEntity
  8
LAYER_1
 62
     7
100
AcDbSpline
210
0.0
220
0.0
230
1.0
 70
     8
 71
     3
 72
     8
 73
     4
 74
     0
 42
0.0000000001
 43
0.0000000001
 40
0.0
 40
0.0
 40
0.0
 40
0.0
 40
1.0
 40
1.0
 40
1.0
 40
1.0
 10
112.5524753146701
 20
110.165540907118
 30
0.0
 10
112.8063788519965
 20
110.5045383029514
 30
0.0
 10
113.441998969184
 20
111.0974392361111
 30
0.0
 10
113.7809963650173
 20
110.5045383029514
 30
0.0
  0
SPLINE
  5
6E
330
A
100
AcDbEntity
  8
LAYER_1
 62
     7
100
AcDbSpline
210
0.0
220
0.0
230
1.0
 70
     8
 71
     3
 72
     8
 73
     4
 74
     0
 42
0.0000000001
 43
0.0000000001
 40
0.0
 40
0.0
 40
0.0
 40
0.0
 40
1.0
 40
1.0
 40
1.0
 40
1.0
 10
112.5524753146701
 20
111.3940619574653
 30
0.0
 10
112.8063788519965
 20
111.7330593532986
 30
0.0
 10
113.441998969184
 20
112.3259602864583
 30
0.0
 10
113.7809963650173
 20
111.7330593532986
 30
0.0
  0
SPLINE
  5
6D
330
A
100
AcDbEntity
  8
LAYER_1
 62
     7
100
AcDbSpline
210
0.0
220
0.0
230
1.0
 70
     8
 71
     3
 72
     8
 73
     4
 74
     0
 42
0.0000000001
 43
0.0000000001
 40
0.0
 40
0.0
 40
0.0
 40
0.0
 40
1.0
 40
1.0
 40
1.0
 40
1.0
 10
112.5524753146701
 20
112.5802083333333
 30
0.0
 10
112.8063788519965
 20
112.9192057291667
 30
0.0
 10
113.441998969184
 20
113.5121066623264
 30
0.0
 10
113.7809963650173
 20
112.9192057291667
 30
0.0
  0
SPLINE
  5
6C
330
A
100
AcDbEntity
  8
LAYER_1
 62
     7
100
AcDbSpline
210
0.0
220
0.0
230
1.0
 70
     8
 71
     3
 72
     8
 73
     4
 74
     0
 42
0.0000000001
 43
0.0000000001
 40
0.0
 40
0.0
 40
0.0
 40
0.0
 40
1.0
 40
1.0
 40
1.0
 40
1.0
 10
112.510100640191
 20
113.681605360243
 30
0.0
 10
112.7640041775174
 20
114.0202582465278
 30
0.0
 10
113.3996242947049
 20
114.6135036892361
 30
0.0
 10
113.7386216905382
 20
114.0202582465278
 30
0.0
  0
SPLINE
  5
6B
330
A
100
AcDbEntity
  8
LAYER_1
 62
     7
100
AcDbSpline
210
0.0
220
0.0
230
1.0
 70
     8
 71
     3
 72
     8
 73
     4
 74
     0
 42
0.0000000001
 43
0.0000000001
 40
0.0
 40
0.0
 40
0.0
 40
0.0
 40
1.0
 40
1.0
 40
1.0
 40
1.0
 10
112.5524753146701
 20
114.8677517361111
 30
0.0
 10
112.8063788519965
 20
115.2067491319444
 30
0.0
 10
113.441998969184
 20
115.7996500651042
 30
0.0
 10
113.7809963650173
 20
115.2067491319444
 30
0.0
  0
SPLINE
  5
6A
330
A
100
AcDbEntity
  8
LAYER_1
 62
     7
100
AcDbSpline
210
0.0
220
0.0
230
1.0
 70
     8
 71
     3
 72
     8
 73
     4
 74
     0
 42
0.0000000001
 43
0.0000000001
 40
0.0
 40
0.0
 40
0.0
 40
0.0
 40
1.0
 40
1.0
 40
1.0
 40
1.0
 10
112.6372246636285
 20
116.1810221354167
 30
0.0
 10
112.8911282009549
 20
116.5196750217014
 30
0.0
 10
113.5267483181424
 20
117.1129204644097
 30
0.0
 10
113.8657457139757
 20
116.5196750217014
 30
0.0
  0
SPLINE
  5
69
330
A
100
AcDbEntity
  8
LAYER_1
 62
     7
100
AcDbSpline
210
0.0
220
0.0
230
1.0
 70
     8
 71
     3
 72
     8
 73
     4
 74
     0
 42
0.0000000001
 43
0.0000000001
 40
0.0
 40
0.0
 40
0.0
 40
0.0
 40
1.0
 40
1.0
 40
1.0
 40
1.0
 10
112.5524753146701
 20
117.2400444878472
 30
0.0
 10
112.8063788519965
 20
117.5786973741319
 30
0.0
 10
113.441998969184
 20
118.1719428168403
 30
0.0
 10
113.7809963650173
 20
117.5786973741319
 30
0.0
  0
SPLINE
  5
68
330
A
100
AcDbEntity
  8
LAYER_1
 62
     7
100
AcDbSpline
210
0.0
220
0.0
230
1.0
 70
     8
 71
     3
 72
     8
 73
     4
 74
     0
 42
0.0000000001
 43
0.0000000001
 40
0.0
 40
0.0
 40
0.0
 40
0.0
 40
1.0
 40
1.0
 40
1.0
 40
1.0
 10
112.510100640191
 20
118.4685655381944
 30
0.0
 10
112.9758775499132
 20
118.8495930989583
 30
0.0
 10
113.3572496202257
 20
119.0614664713542
 30
0.0
 10
113.8230265299479
 20
118.8072184244792
 30
0.0
  0
SPLINE
  5
67
330
A
100
AcDbEntity
  8
LAYER_1
 62
     7
100
AcDbSpline
210
0.0
220
0.0
230
1.0
 70
     8
 71
     3
 72
     8
 73
     4
 74
     0
 42
0.0000000001
 43
0.0000000001
 40
0.0
 40
0.0
 40
0.0
 40
0.0
 40
1.0
 40
1.0
 40
1.0
 40
1.0
 10
112.5524753146701
 20
119.8238661024305
 30
0.0
 10
113.0182522243924
 20
120.2052381727431
 30
0.0
 10
113.3996242947049
 20
120.4171115451389
 30
0.0
 10
113.8657457139757
 20
120.1628634982639
 30
0.0
  0
SPLINE
  5
66
330
A
100
AcDbEntity
  8
LAYER_1
 62
     7
100
AcDbSpline
210
0.0
220
0.0
230
1.0
 70
     8
 71
     3
 72
     8
 73
     4
 74
     0
 42
0.0000000001
 43
0.0000000001
 40
0.0
 40
0.0
 40
0.0
 40
0.0
 40
1.0
 40
1.0
 40
1.0
 40
1.0
 10
112.6372246636285
 20
121.0523871527778
 30
0.0
 10
113.1030015733507
 20
121.4337592230903
 30
0.0
 10
113.4843736436632
 20
121.6456325954861
 30
0.0
 10
113.9501505533854
 20
121.3913845486111
 30
0.0
  0
SPLINE
  5
65
330
A
100
AcDbEntity
  8
LAYER_1
 62
     7
100
AcDbSpline
210
0.0
220
0.0
230
1.0
 70
     8
 71
     3
 72
     8
 73
     4
 74
     0
 42
0.0000000001
 43
0.0000000001
 40
0.0
 40
0.0
 40
0.0
 40
0.0
 40
1.0
 40
1.0
 40
1.0
 40
1.0
 10
112.4677259657118
 20
122.1114095052083
 30
0.0
 10
112.933502875434
 20
122.4927815755208
 30
0.0
 10
113.3148749457465
 20
122.7046549479167
 30
0.0
 10
113.7809963650173
 20
122.4504069010417
 30
0.0
  0
SPLINE
  5
64
330
A
100
AcDbEntity
  8
LAYER_1
 62
     7
100
AcDbSpline
210
0.0
220
0.0
230
1.0
 70
     8
 71
     3
 72
     8
 73
     4
 74
     0
 42
0.0000000001
 43
0.0000000001
 40
0.0
 40
0.0
 40
0.0
 40
0.0
 40
1.0
 40
1.0
 40
1.0
 40
1.0
 10
112.4677259657118
 20
123.04365234375
 30
0.0
 10
112.933502875434
 20
123.4246799045139
 30
0.0
 10
113.3148749457465
 20
123.6365532769097
 30
0.0
 10
113.7809963650173
 20
123.3823052300347
 30
0.0
  0
SPLINE
  5
63
330
A
100
AcDbEntity
  8
LAYER_1
 62
     7
100
AcDbSpline
210
0.0
220
0.0
230
1.0
 70
     8
 71
     3
 72
     8
 73
     4
 74
     0
 42
0.0000000001
 43
0.0000000001
 40
0.0
 40
0.0
 40
0.0
 40
0.0
 40
1.0
 40
1.0
 40
1.0
 40
1.0
 10
112.4677259657118
 20
124.0603000217014
 30
0.0
 10
112.933502875434
 20
124.4413275824653
 30
0.0
 10
113.3148749457465
 20
124.6532009548611
 30
0.0
 10
113.7809963650173
 20
124.3989529079861
 30
0.0
  0
SPLINE
  5
62
330
A
100
AcDbEntity
  8
LAYER_1
 62
     7
100
AcDbSpline
210
0.0
220
0.0
230
1.0
 70
     8
 71
     3
 72
     8
 73
     4
 74
     0
 42
0.0000000001
 43
0.0000000001
 40
0.0
 40
0.0
 40
0.0
 40
0.0
 40
1.0
 40
1.0
 40
1.0
 40
1.0
 10
112.510100640191
 20
125.2040717230903
 30
0.0
 10
112.9758775499132
 20
125.5850992838542
 30
0.0
 10
113.3572496202257
 20
125.79697265625
 30
0.0
 10
113.8230265299479
 20
125.542724609375
 30
0.0
  0
SPLINE
  5
61
330
A
100
AcDbEntity
  8
LAYER_1
 62
     7
100
AcDbSpline
210
0.0
220
0.0
230
1.0
 70
     8
 71
     3
 72
     8
 73
     4
 74
     0
 42
0.0000000001
 43
0.0000000001
 40
0.0
 40
0.0
 40
0.0
 40
0.0
 40
1.0
 40
1.0
 40
1.0
 40
1.0
 10
112.4253512912326
 20
126.1783447265625
 30
0.0
 10
112.8911282009549
 20
126.5593722873264
 30
0.0
 10
113.2725002712674
 20
126.7712456597222
 30
0.0
 10
113.7386216905382
 20
126.5169976128472
 30
0.0
  0
SPLINE
  5
60
330
A
100
AcDbEntity
  8
LAYER_1
 62
     7
100
AcDbSpline
210
0.0
220
0.0
230
1.0
 70
     8
 71
     3
 72
     8
 73
     4
 74
     0
 42
0.0000000001
 43
0.0000000001
 40
0.0
 40
0.0
 40
0.0
 40
0.0
 40
1.0
 40
1.0
 40
1.0
 40
1.0
 10
112.4677259657118
 20
127.1949924045139
 30
0.0
 10
112.933502875434
 20
127.5763644748264
 30
0.0
 10
113.3148749457465
 20
127.7878933376736
 30
0.0
 10
113.7809963650173
 20
127.5339898003472
 30
0.0
  0
SPLINE
  5
5F
330
A
100
AcDbEntity
  8
LAYER_1
 62
     7
100
AcDbSpline
210
0.0
220
0.0
230
1.0
 70
     8
 71
     3
 72
     8
 73
     4
 74
     0
 42
0.0000000001
 43
0.0000000001
 40
0.0
 40
0.0
 40
0.0
 40
0.0
 40
1.0
 40
1.0
 40
1.0
 40
1.0
 10
112.510100640191
 20
128.2540147569444
 30
0.0
 10
112.9758775499132
 20
128.6353868272569
 30
0.0
 10
113.3572496202257
 20
128.8469156901042
 30
0.0
 10
113.8230265299479
 20
128.5930121527778
 30
0.0
  0
SPLINE
  5
5E
330
A
100
AcDbEntity
  8
LAYER_1
 62
     7
100
AcDbSpline
210
0.0
220
0.0
230
1.0
 70
     8
 71
     3
 72
     8
 73
     4
 74
     0
 42
0.0000000001
 43
0.0000000001
 40
0.0
 40
0.0
 40
0.0
 40
0.0
 40
1.0
 40
1.0
 40
1.0
 40
1.0
 10
112.5524753146701
 20
129.3554117838542
 30
0.0
 10
113.0182522243924
 20
129.7367838541667
 30
0.0
 10
113.3996242947049
 20
129.9483127170139
 30
0.0
 10
113.8657457139757
 20
129.6944091796875
 30
0.0
  0
SPLINE
  5
5D
330
A
100
AcDbEntity
  8
LAYER_1
 62
     7
100
AcDbSpline
210
0.0
220
0.0
230
1.0
 70
     8
 71
     3
 72
     8
 73
     4
 74
     0
 42
0.0000000001
 43
0.0000000001
 40
0.0
 40
0.0
 40
0.0
 40
0.0
 40
1.0
 40
1.0
 40
1.0
 40
1.0
 10
112.6372246636285
 20
130.4568088107639
 30
0.0
 10
113.1030015733507
 20
130.8381808810764
 30
0.0
 10
113.4843736436632
 20
131.0497097439236
 30
0.0
 10
113.9501505533854
 20
130.7958062065972
 30
0.0
  0
SPLINE
  5
5C
330
A
100
AcDbEntity
  8
LAYER_1
 62
     7
100
AcDbSpline
210
0.0
220
0.0
230
1.0
 70
     8
 71
     3
 72
     8
 73
     4
 74
     0
 42
0.0000000001
 43
0.0000000001
 40
0.0
 40
0.0
 40
0.0
 40
0.0
 40
1.0
 40
1.0
 40
1.0
 40
1.0
 10
112.4677259657118
 20
131.5158311631944
 30
0.0
 10
112.933502875434
 20
131.8972032335069
 30
0.0
 10
113.3148749457465
 20
132.1090766059028
 30
0.0
 10
113.7809963650173
 20
131.8548285590278
 30
0.0
  0
SPLINE
  5
5B
330
A
100
AcDbEntity
  8
LAYER_1
 62
     7
100
AcDbSpline
210
0.0
220
0.0
230
1.0
 70
     8
 71
     3
 72
     8
 73
     4
 74
     0
 42
0.0000000001
 43
0.0000000001
 40
0.0
 40
0.0
 40
0.0
 40
0.0
 40
1.0
 40
1.0
 40
1.0
 40
1.0
 10
112.4677259657118
 20
132.4477294921875
 30
0.0
 10
112.933502875434
 20
132.8291015625
 30
0.0
 10
113.3148749457465
 20
133.0409749348958
 30
0.0
 10
113.7809963650173
 20
132.7867268880208
 30
0.0
  0
SPLINE
  5
5A
330
A
100
AcDbEntity
  8
LAYER_1
 62
     7
100
AcDbSpline
210
0.0
220
0.0
230
1.0
 70
     8
 71
     3
 72
     8
 73
     4
 74
     0
 42
0.0000000001
 43
0.0000000001
 40
0.0
 40
0.0
 40
0.0
 40
0.0
 40
1.0
 40
1.0
 40
1.0
 40
1.0
 10
112.510100640191
 20
133.3372531467014
 30
0.0
 10
112.9758775499132
 20
133.7186252170139
 30
0.0
 10
113.3572496202257
 20
133.9304985894097
 30
0.0
 10
113.8230265299479
 20
133.6762505425347
 30
0.0
  0
SPLINE
  5
59
330
A
100
AcDbEntity
  8
LAYER_1
 62
     7
100
AcDbSpline
210
0.0
220
0.0
230
1.0
 70
     8
 71
     3
 72
     8
 73
     4
 74
     0
 42
0.0000000001
 43
0.0000000001
 40
0.0
 40
0.0
 40
0.0
 40
0.0
 40
1.0
 40
1.0
 40
1.0
 40
1.0
 10
112.510100640191
 20
134.0576226128472
 30
0.0
 10
113.0182522243924
 20
134.3966200086805
 30
0.0
 10
113.4843736436632
 20
134.7352728949653
 30
0.0
 10
113.9077758789062
 20
134.3118706597222
 30
0.0
  0
LINE
  5
58
330
A
100
AcDbEntity
  8
LAYER_1
 62
     7
100
AcDbLine
 10
115.1786716037326
 20
135.7095458984375
 30
0.0
 11
116.1532891167535
 21
136.09091796875
 31
0.0
  0
LWPOLYLINE
  5
53
330
A
100
AcDbEntity
  8
LAYER_1
 62
     7
100
AcDbPolyline
 90
        3
 70
     0
 43
0.0
 10
99.25061713324652
 20
146.0458658854167
 10
115.1362969292535
 20
135.7519205729167
 10
114.9247680664062
 20
104.9975531684028
  0
LWPOLYLINE
  5
4C
330
A
100
AcDbEntity
  8
LAYER_1
 62
     7
100
AcDbPolyline
 90
        5
 70
     0
 43
0.0
 10
99.16621229383679
 20
141.7250271267361
 10
99.25061713324652
 20
146.0882405598958
 10
100.5638875325521
 20
146.38486328125
 10
116.2376939561632
 20
136.2180419921875
 10
116.3224433051215
 20
134.7352728949653
  0
LINE
  5
4B
330
A
100
AcDbEntity
  8
LAYER_1
 62
     7
100
AcDbLine
 10
84.21243082682291
 20
131.0073350694444
 30
0.0
 11
85.31382785373263
 21
130.6263075086806
 31
0.0
  0
LWPOLYLINE
  5
45
330
A
100
AcDbEntity
  8
LAYER_1
 62
     7
100
AcDbPolyline
 90
        4
 70
     0
 43
0.0
 10
84.08530680338541
 20
128.2963894314236
 10
84.17005615234375
 20
131.0073350694444
 10
91.1174357096354
 20
144.6054714626736
 10
92.09170871310764
 20
144.2668185763889
  0
LINE
  5
44
330
A
100
AcDbEntity
  8
LAYER_1
 62
     7
100
AcDbLine
 10
93.80323215060763
 20
145.0264621310764
 30
0.0
 11
98.58226860894096
 21
145.9900553385417
 31
0.0
  0
LINE
  5
43
330
A
100
AcDbEntity
  8
LAYER_1
 62
     7
100
AcDbLine
 10
65.10730929904513
 20
139.2256103515625
 30
0.0
 11
88.77683783637151
 21
144.0125705295139
 31
0.0
  0
LINE
  5
42
330
A
100
AcDbEntity
  8
LAYER_1
 62
     7
100
AcDbLine
 10
101.0341430664062
 20
146.48408203125
 30
0.0
 11
120.8975301106771
 21
150.4938286675347
 31
0.0
  0
LINE
  5
41
330
A
100
AcDbEntity
  8
LAYER_1
 62
     7
100
AcDbLine
 10
64.81068657769097
 20
140.1151340060764
 30
0.0
 11
120.6012518988715
 21
151.3833523220486
 31
0.0
  0
SPLINE
  5
40
330
A
100
AcDbEntity
  8
LAYER_1
 62
     7
100
AcDbSpline
210
0.0
220
0.0
230
1.0
 70
     8
 71
     3
 72
    14
 73
    10
 74
     0
 42
0.0000000001
 43
0.0000000001
 40
0.0
 40
0.0
 40
0.0
 40
0.0
 40
1.0
 40
1.0
 40
1.0
 40
2.0
 40
2.0
 40
2.0
 40
3.0
 40
3.0
 40
3.0
 40
3.0
 10
53.54281277126736
 20
147.9944118923611
 30
0.0
 10
53.54281277126736
 20
147.9944118923611
 30
0.0
 10
60.91359456380208
 20
141.9369004991319
 30
0.0
 10
61.63396402994791
 20
141.3860297309028
 30
0.0
 10
62.35398898654513
 20
140.8355034722222
 30
0.0
 10
63.28588731553819
 20
139.9456353081597
 30
0.0
 10
63.24351264105902
 20
138.5903347439236
 30
0.0
 10
63.20113796657986
 20
137.2346896701389
 30
0.0
 10
63.15876329210069
 20
122.7470296223958
 30
0.0
 10
63.15876329210069
 20
122.7470296223958
 30
0.0
  0
SPLINE
  5
3F
330
A
100
AcDbEntity
  8
LAYER_1
 62
     7
100
AcDbSpline
210
0.0
220
0.0
230
1.0
 70
     8
 71
     3
 72
    14
 73
    10
 74
     0
 42
0.0000000001
 43
0.0000000001
 40
0.0
 40
0.0
 40
0.0
 40
0.0
 40
1.0
 40
1.0
 40
1.0
 40
2.0
 40
2.0
 40
2.0
 40
3.0
 40
3.0
 40
3.0
 40
3.0
 10
32.99729682074653
 20
137.531312391493
 30
0.0
 10
33.37866889105902
 20
138.4208360460069
 30
0.0
 10
33.59054226345486
 20
139.3951090494792
 30
0.0
 10
33.67494710286458
 20
140.3270073784722
 30
0.0
 10
33.75969645182291
 20
141.2589057074653
 30
0.0
 10
33.67494710286458
 20
142.61455078125
 30
0.0
 10
34.05631917317708
 20
143.4616997612847
 30
0.0
 10
34.43769124348958
 20
144.3088487413194
 30
0.0
 10
34.56481526692708
 20
147.062513563368
 30
0.0
 10
34.94584282769097
 20
147.4438856336805
 30
0.0
  0
SPLINE
  5
3E
330
A
100
AcDbEntity
  8
LAYER_1
 62
     7
100
AcDbSpline
210
0.0
220
0.0
230
1.0
 70
     8
 71
     3
 72
    26
 73
    22
 74
     0
 42
0.0000000001
 43
0.0000000001
 40
0.0
 40
0.0
 40
0.0
 40
0.0
 40
1.0
 40
1.0
 40
1.0
 40
2.0
 40
2.0
 40
2.0
 40
3.0
 40
3.0
 40
3.0
 40
4.0
 40
4.0
 40
4.0
 40
5.0
 40
5.0
 40
5.0
 40
6.0
 40
6.0
 40
6.0
 40
7.0
 40
7.0
 40
7.0
 40
7.0
 10
36.76760932074652
 20
146.0034912109375
 30
0.0
 10
36.55573594835069
 20
145.1139675564236
 30
0.0
 10
36.21673855251736
 20
143.123046875
 30
0.0
 10
36.08961452907986
 20
142.0640245225694
 30
0.0
 10
35.96283501519097
 20
141.0050021701389
 30
0.0
 10
35.62383761935764
 20
139.1408610026041
 30
0.0
 10
35.36958957248264
 20
137.7428412543403
 30
0.0
 10
35.11534152560763
 20
136.345166015625
 30
0.0
 10
34.86143798828125
 20
134.1844021267361
 30
0.0
 10
34.60718994140625
 20
132.8714762369792
 30
0.0
 10
34.35294189453125
 20
131.5582058376736
 30
0.0
 10
33.80207112630208
 20
128.8892903645833
 30
0.0
 10
33.63291693793403
 20
127.4492404513889
 30
0.0
 10
33.46341824001736
 20
126.0088460286458
 30
0.0
 10
33.59054226345486
 20
125.8393473307292
 30
0.0
 10
33.29391954210069
 20
125.2040717230903
 30
0.0
 10
32.99729682074653
 20
124.5684516059028
 30
0.0
 10
32.91254747178819
 20
124.3565782335069
 30
0.0
 10
32.53117540147569
 20
123.6789279513889
 30
0.0
 10
32.1501478407118
 20
123.0009331597222
 30
0.0
 10
31.38774820963542
 20
121.8151312934028
 30
0.0
 10
31.38774820963542
 20
121.0947618272569
 30
0.0
  0
SPLINE
  5
3D
330
A
100
AcDbEntity
  8
LAYER_1
 62
     7
100
AcDbSpline
210
0.0
220
0.0
230
1.0
 70
     8
 71
     3
 72
    23
 73
    19
 74
     0
 42
0.0000000001
 43
0.0000000001
 40
0.0
 40
0.0
 40
0.0
 40
0.0
 40
1.0
 40
1.0
 40
1.0
 40
2.0
 40
2.0
 40
2.0
 40
3.0
 40
3.0
 40
3.0
 40
4.0
 40
4.0
 40
4.0
 40
5.0
 40
5.0
 40
5.0
 40
6.0
 40
6.0
 40
6.0
 40
6.0
 10
33.50579291449652
 20
118.8495930989583
 30
0.0
 10
33.84444580078124
 20
119.7394612630208
 30
0.0
 10
34.22581787109375
 20
120.8832329644097
 30
0.0
 10
34.69193929036458
 20
121.6880072699653
 30
0.0
 10
35.1577162000868
 20
122.4927815755208
 30
0.0
 10
34.56481526692708
 20
122.4504069010417
 30
0.0
 10
35.28484022352431
 20
123.04365234375
 30
0.0
 10
35.58146294487847
 20
124.3989529079861
 30
0.0
 10
35.58146294487847
 20
127.3221164279514
 30
0.0
 10
36.04723985460069
 20
128.6353868272569
 30
0.0
 10
36.51336127387152
 20
129.9483127170139
 30
0.0
 10
36.68285997178819
 20
132.7867268880208
 30
0.0
 10
36.85235866970486
 20
133.6762505425347
 30
0.0
 10
37.02185736762152
 20
134.5657741970486
 30
0.0
 10
37.23338623046875
 20
136.9804416232639
 30
0.0
 10
37.53000895182291
 20
138.3360866970486
 30
0.0
 10
37.82663167317708
 20
139.6917317708333
 30
0.0
 10
38.12290988498263
 20
143.4193250868055
 30
0.0
 10
38.6737806532118
 20
144.2668185763889
 30
0.0
  0
SPLINE
  5
3C
330
A
100
AcDbEntity
  8
LAYER_1
 62
     7
100
AcDbSpline
210
0.0
220
0.0
230
1.0
 70
     8
 71
     3
 72
    11
 73
     7
 74
     0
 42
0.0000000001
 43
0.0000000001
 40
0.0
 40
0.0
 40
0.0
 40
0.0
 40
1.0
 40
1.0
 40
1.0
 40
2.0
 40
2.0
 40
2.0
 40
2.0
 10
32.70067409939236
 20
114.4863796657986
 30
0.0
 10
33.08204616970486
 20
115.7996500651042
 30
0.0
 10
33.25154486762153
 20
115.5454020182292
 30
0.0
 10
33.46341824001736
 20
116.1386474609375
 30
0.0
 10
33.67494710286458
 20
116.7315483940972
 30
0.0
 10
34.26819254557292
 20
117.3247938368055
 30
0.0
 10
34.52244059244791
 20
117.5786973741319
 30
0.0
  0
SPLINE
  5
3B
330
A
100
AcDbEntity
  8
LAYER_1
 62
     7
100
AcDbSpline
210
0.0
220
0.0
230
1.0
 70
     8
 71
     3
 72
    17
 73
    13
 74
     0
 42
0.0000000001
 43
0.0000000001
 40
0.0
 40
0.0
 40
0.0
 40
0.0
 40
1.0
 40
1.0
 40
1.0
 40
2.0
 40
2.0
 40
2.0
 40
3.0
 40
3.0
 40
3.0
 40
4.0
 40
4.0
 40
4.0
 40
4.0
 10
35.70858696831597
 20
116.1810221354167
 30
0.0
 10
35.49671359592013
 20
115.9691487630208
 30
0.0
 10
34.94584282769097
 20
115.248779296875
 30
0.0
 10
34.56481526692708
 20
114.8677517361111
 30
0.0
 10
34.48006591796874
 20
114.1477267795139
 30
0.0
 10
34.73431396484375
 20
114.4440049913194
 30
0.0
 10
34.52244059244791
 20
113.003955078125
 30
0.0
 10
34.31056722005208
 20
111.5635606553819
 30
0.0
 10
34.26819254557292
 20
110.5469129774306
 30
0.0
 10
34.09869384765625
 20
109.9536675347222
 30
0.0
 10
33.92919514973958
 20
109.3607666015625
 30
0.0
 10
32.99729682074653
 20
104.9975531684028
 30
0.0
 10
32.78542344835069
 20
103.1757866753472
 30
0.0
  0
SPLINE
  5
3A
330
A
100
AcDbEntity
  8
LAYER_1
 62
     7
100
AcDbSpline
210
0.0
220
0.0
230
1.0
 70
     8
 71
     3
 72
    32
 73
    28
 74
     0
 42
0.0000000001
 43
0.0000000001
 40
0.0
 40
0.0
 40
0.0
 40
0.0
 40
1.0
 40
1.0
 40
1.0
 40
2.0
 40
2.0
 40
2.0
 40
3.0
 40
3.0
 40
3.0
 40
4.0
 40
4.0
 40
4.0
 40
5.0
 40
5.0
 40
5.0
 40
6.0
 40
6.0
 40
6.0
 40
7.0
 40
7.0
 40
7.0
 40
8.0
 40
8.0
 40
8.0
 40
9.0
 40
9.0
 40
9.0
 40
9.0
 10
40.96132405598958
 20
142.3179280598958
 30
0.0
 10
40.53757731119791
 20
141.3012803819444
 30
0.0
 10
40.91894938151042
 20
141.3860297309028
 30
0.0
 10
40.53757731119791
 20
139.606982421875
 30
0.0
 10
40.15654975043402
 20
137.8275906032986
 30
0.0
 10
40.07180040147569
 20
136.8956922743055
 30
0.0
 10
39.90230170355903
 20
136.0061686197917
 30
0.0
 10
39.73280300564236
 20
135.1166449652778
 30
0.0
 10
39.98705105251736
 20
134.6081488715278
 30
0.0
 10
39.81755235460069
 20
133.760999891493
 30
0.0
 10
39.64805365668403
 20
132.9138509114583
 30
0.0
 10
39.35143093532986
 20
132.1511067708333
 30
0.0
 10
39.26668158637153
 20
131.388707139757
 30
0.0
 10
39.18193223741319
 20
130.6263075086806
 30
0.0
 10
39.01277804904514
 20
129.7788140190972
 30
0.0
 10
38.8009046766493
 20
128.804541015625
 30
0.0
 10
38.58903130425347
 20
127.8302680121528
 30
0.0
 10
38.63140597873264
 20
127.5763644748264
 30
0.0
 10
38.33478325737847
 20
126.051220703125
 30
0.0
 10
38.03850504557291
 20
124.5260769314236
 30
0.0
 10
37.74188232421875
 20
121.6880072699653
 30
0.0
 10
37.53000895182291
 20
120.8832329644097
 30
0.0
 10
37.31813557942708
 20
120.0781141493056
 30
0.0
 10
37.36051025390625
 20
119.6970865885417
 30
0.0
 10
36.93710801866319
 20
118.9767171223958
 30
0.0
 10
36.51336127387152
 20
118.2566921657986
 30
0.0
 10
36.30148790147569
 20
116.6044243706597
 30
0.0
 10
35.87808566623264
 20
116.265771484375
 30
0.0
  0
SPLINE
  5
39
330
A
100
AcDbEntity
  8
LAYER_1
 62
     7
100
AcDbSpline
210
0.0
220
0.0
230
1.0
 70
     8
 71
     3
 72
    29
 73
    25
 74
     0
 42
0.0000000001
 43
0.0000000001
 40
0.0
 40
0.0
 40
0.0
 40
0.0
 40
1.0
 40
1.0
 40
1.0
 40
2.0
 40
2.0
 40
2.0
 40
3.0
 40
3.0
 40
3.0
 40
4.0
 40
4.0
 40
4.0
 40
5.0
 40
5.0
 40
5.0
 40
6.0
 40
6.0
 40
6.0
 40
7.0
 40
7.0
 40
7.0
 40
8.0
 40
8.0
 40
8.0
 40
8.0
 10
45.49403618706597
 20
138.2937120225694
 30
0.0
 10
45.1974134657118
 20
137.1075656467014
 30
0.0
 10
45.23978814019097
 20
136.5566948784722
 30
0.0
 10
44.77401123046874
 20
135.2861436631944
 30
0.0
 10
44.30788981119791
 20
134.0152479383681
 30
0.0
 10
44.13839111328124
 20
132.9986002604167
 30
0.0
 10
44.01126708984375
 20
131.9819525824653
 30
0.0
 10
43.88414306640625
 20
130.9653049045139
 30
0.0
 10
43.67261420355902
 20
130.1178114149305
 30
0.0
 10
43.33361680772569
 20
129.0587890625
 30
0.0
 10
42.99461941189236
 20
127.9997667100694
 30
0.0
 10
43.24886745876736
 20
127.9573920355903
 30
0.0
 10
42.99461941189236
 20
127.1949924045139
 30
0.0
 10
42.74037136501736
 20
126.4322482638889
 30
0.0
 10
42.86749538845486
 20
125.9664713541667
 30
0.0
 10
42.61359185112847
 20
124.7379503038194
 30
0.0
 10
42.35934380425347
 20
123.5094292534722
 30
0.0
 10
41.25794677734375
 20
117.9176947699653
 30
0.0
 10
41.04607340494791
 20
117.2824191623264
 30
0.0
 10
40.96132405598958
 20
117.1129204644097
 30
0.0
 10
41.08844807942708
 20
117.1976698133681
 30
0.0
 10
40.62232666015625
 20
116.3925509982639
 30
0.0
 10
40.15654975043402
 20
115.5877766927083
 30
0.0
 10
39.30905626085069
 20
113.5968560112847
 30
0.0
 10
39.18193223741319
 20
113.003955078125
 30
0.0
  0
SPLINE
  5
38
330
A
100
AcDbEntity
  8
LAYER_1
 62
     7
100
AcDbSpline
210
0.0
220
0.0
230
1.0
 70
     8
 71
     3
 72
    47
 73
    43
 74
     0
 42
0.0000000001
 43
0.0000000001
 40
0.0
 40
0.0
 40
0.0
 40
0.0
 40
1.0
 40
1.0
 40
1.0
 40
2.0
 40
2.0
 40
2.0
 40
3.0
 40
3.0
 40
3.0
 40
4.0
 40
4.0
 40
4.0
 40
5.0
 40
5.0
 40
5.0
 40
6.0
 40
6.0
 40
6.0
 40
7.0
 40
7.0
 40
7.0
 40
8.0
 40
8.0
 40
8.0
 40
9.0
 40
9.0
 40
9.0
 40
10.0
 40
10.0
 40
10.0
 40
11.0
 40
11.0
 40
11.0
 40
12.0
 40
12.0
 40
12.0
 40
13.0
 40
13.0
 40
13.0
 40
14.0
 40
14.0
 40
14.0
 40
14.0
 10
33.12442084418402
 20
87.24807671440972
 30
0.0
 10
33.16679551866319
 20
88.5186279296875
 30
0.0
 10
33.63291693793403
 20
89.57765028211804
 30
0.0
 10
33.63291693793403
 20
90.63701714409721
 30
0.0
 10
33.63291693793403
 20
91.69603949652777
 30
0.0
 10
34.22581787109375
 20
93.85645887586804
 30
0.0
 10
34.31056722005208
 20
94.83073187934026
 30
0.0
 10
34.39531656901041
 20
95.8050048828125
 30
0.0
 10
34.52244059244791
 20
98.72782389322916
 30
0.0
 10
34.73431396484375
 20
99.27869466145832
 30
0.0
 10
34.94584282769097
 20
99.82922092013888
 30
0.0
 10
35.28484022352431
 20
102.45576171875
 30
0.0
 10
35.45433892144097
 20
104.1080295138889
 30
0.0
 10
35.62383761935764
 20
105.7599527994792
 30
0.0
 10
35.49671359592013
 20
106.6071017795139
 30
0.0
 10
35.75096164279513
 20
107.4122205946181
 30
0.0
 10
36.00520968967014
 20
108.2169949001736
 30
0.0
 10
36.42861192491319
 20
112.2835856119792
 30
0.0
 10
36.55573594835069
 20
112.9192057291667
 30
0.0
 10
36.93710801866319
 20
113.4697319878472
 30
0.0
 10
37.31813557942708
 20
113.8511040581597
 30
0.0
 10
37.57238362630208
 20
114.4016303168403
 30
0.0
 10
37.82663167317708
 20
114.9525010850694
 30
0.0
 10
38.37715793185764
 20
115.5877766927083
 30
0.0
 10
38.58903130425347
 20
116.265771484375
 30
0.0
 10
38.8009046766493
 20
116.9434217664931
 30
0.0
 10
39.30905626085069
 20
117.9600694444444
 30
0.0
 10
39.60567898220486
 20
118.7224690755208
 30
0.0
 10
39.69042833116319
 20
119.7394612630208
 30
0.0
 10
39.85992702907986
 20
121.2642605251736
 30
0.0
 10
40.15654975043402
 20
122.6199055989583
 30
0.0
 10
40.45317247178819
 20
123.975550672743
 30
0.0
 10
40.66470133463541
 20
126.6864963107639
 30
0.0
 10
40.87657470703125
 20
127.7031439887153
 30
0.0
 10
41.08844807942708
 20
128.7197916666667
 30
0.0
 10
41.34269612630208
 20
130.1601860894097
 30
0.0
 10
41.51185031467013
 20
130.753431532118
 30
0.0
 10
41.6813490125868
 20
131.3463324652778
 30
0.0
 10
42.27459445529514
 20
134.3539008246528
 30
0.0
 10
42.52884250217014
 20
135.7095458984375
 30
0.0
 10
42.78274603949652
 20
137.0651909722222
 30
0.0
 10
43.07936876085069
 20
138.9713623046875
 30
0.0
 10
43.29124213324653
 20
140.2422580295139
 30
0.0
  0
SPLINE
  5
37
330
A
100
AcDbEntity
  8
LAYER_1
 62
     7
100
AcDbSpline
210
0.0
220
0.0
230
1.0
 70
     8
 71
     3
 72
    20
 73
    16
 74
     0
 42
0.0000000001
 43
0.0000000001
 40
0.0
 40
0.0
 40
0.0
 40
0.0
 40
1.0
 40
1.0
 40
1.0
 40
2.0
 40
2.0
 40
2.0
 40
3.0
 40
3.0
 40
3.0
 40
4.0
 40
4.0
 40
4.0
 40
5.0
 40
5.0
 40
5.0
 40
5.0
 10
34.86143798828125
 20
85.46868489583332
 30
0.0
 10
35.28484022352431
 20
86.82432996961805
 30
0.0
 10
36.08961452907986
 20
92.03469238281249
 30
0.0
 10
36.25911322699653
 20
93.94120822482638
 30
0.0
 10
36.42861192491319
 20
95.84737955729166
 30
0.0
 10
36.93710801866319
 20
98.34679633246527
 30
0.0
 10
37.06388753255208
 20
98.98207194010416
 30
0.0
 10
37.19101155598958
 20
99.61769205729166
 30
0.0
 10
37.61475830078125
 20
104.1927788628472
 30
0.0
 10
37.78425699869791
 20
105.717578125
 30
0.0
 10
37.95375569661458
 20
107.2427218967014
 30
0.0
 10
38.46190728081597
 20
110.165540907118
 30
0.0
 10
38.5466566297743
 20
110.7587863498264
 30
0.0
 10
38.9280287000868
 20
111.1398139105903
 30
0.0
 10
39.30905626085069
 20
111.4364366319444
 30
0.0
 10
39.69042833116319
 20
112.1988362630208
 30
0.0
  0
SPLINE
  5
36
330
A
100
AcDbEntity
  8
LAYER_1
 62
     7
100
AcDbSpline
210
0.0
220
0.0
230
1.0
 70
     8
 71
     3
 72
    26
 73
    22
 74
     0
 42
0.0000000001
 43
0.0000000001
 40
0.0
 40
0.0
 40
0.0
 40
0.0
 40
1.0
 40
1.0
 40
1.0
 40
2.0
 40
2.0
 40
2.0
 40
3.0
 40
3.0
 40
3.0
 40
4.0
 40
4.0
 40
4.0
 40
5.0
 40
5.0
 40
5.0
 40
6.0
 40
6.0
 40
6.0
 40
7.0
 40
7.0
 40
7.0
 40
7.0
 10
41.25794677734375
 20
110.5892876519097
 30
0.0
 10
40.74945068359374
 20
110.2502902560764
 30
0.0
 10
40.11417507595485
 20
109.4031412760417
 30
0.0
 10
39.98705105251736
 20
109.1488932291667
 30
0.0
 10
39.90230170355903
 20
108.4288682725694
 30
0.0
 10
39.77517768012152
 20
107.2427218967014
 30
0.0
 10
39.60567898220486
 20
106.1413248697917
 30
0.0
 10
39.43618028428819
 20
105.0399278428819
 30
0.0
 10
39.01277804904514
 20
103.1334120008681
 30
0.0
 10
38.97040337456597
 20
102.4133870442708
 30
0.0
 10
38.9280287000868
 20
101.6933620876736
 30
0.0
 10
38.6737806532118
 20
99.23631998697915
 30
0.0
 10
38.46190728081597
 20
98.38917100694444
 30
0.0
 10
38.25037841796875
 20
97.54167751736111
 30
0.0
 10
38.20765923394097
 20
96.60977918836805
 30
0.0
 10
38.12290988498263
 20
95.59313151041665
 30
0.0
 10
38.03850504557291
 20
94.57648383246527
 30
0.0
 10
37.95375569661458
 20
92.83981119791666
 30
0.0
 10
37.78425699869791
 20
91.6536648220486
 30
0.0
 10
37.61475830078125
 20
90.46751844618055
 30
0.0
 10
36.72523464626736
 20
83.60488823784722
 30
0.0
 10
36.68285997178819
 20
83.09639214409721
 30
0.0
  0
SPLINE
  5
35
330
A
100
AcDbEntity
  8
LAYER_1
 62
     7
100
AcDbSpline
210
0.0
220
0.0
230
1.0
 70
     8
 71
     3
 72
    23
 73
    19
 74
     0
 42
0.0000000001
 43
0.0000000001
 40
0.0
 40
0.0
 40
0.0
 40
0.0
 40
1.0
 40
1.0
 40
1.0
 40
2.0
 40
2.0
 40
2.0
 40
3.0
 40
3.0
 40
3.0
 40
4.0
 40
4.0
 40
4.0
 40
5.0
 40
5.0
 40
5.0
 40
6.0
 40
6.0
 40
6.0
 40
6.0
 10
46.84968126085069
 20
137.0651909722222
 30
0.0
 10
46.25643581814236
 20
135.836669921875
 30
0.0
 10
45.62116021050347
 20
133.4643771701389
 30
0.0
 10
45.62116021050347
 20
132.4901041666667
 30
0.0
 10
45.62116021050347
 20
131.5158311631944
 30
0.0
 10
45.53641086154514
 20
130.9653049045139
 30
0.0
 10
45.23978814019097
 20
130.1601860894097
 30
0.0
 10
44.9431654188368
 20
129.3554117838542
 30
0.0
 10
44.98554009331597
 20
127.7455186631944
 30
0.0
 10
44.64688720703125
 20
126.6017469618056
 30
0.0
 10
44.30788981119791
 20
125.4579752604167
 30
0.0
 10
43.96889241536458
 20
121.8151312934028
 30
0.0
 10
43.71464436848958
 20
120.8832329644097
 30
0.0
 10
43.46074083116319
 20
119.9509901258681
 30
0.0
 10
42.95224473741319
 20
116.1386474609375
 30
0.0
 10
42.78274603949652
 20
115.4606526692708
 30
0.0
 10
42.57087266710069
 20
114.9525010850694
 30
0.0
 10
41.17319742838541
 20
111.8601833767361
 30
0.0
 10
40.87657470703125
 20
111.1821885850694
 30
0.0
  0
SPLINE
  5
34
330
A
100
AcDbEntity
  8
LAYER_1
 62
     7
100
AcDbSpline
210
0.0
220
0.0
230
1.0
 70
     8
 71
     3
 72
    47
 73
    43
 74
     0
 42
0.0000000001
 43
0.0000000001
 40
0.0
 40
0.0
 40
0.0
 40
0.0
 40
1.0
 40
1.0
 40
1.0
 40
2.0
 40
2.0
 40
2.0
 40
3.0
 40
3.0
 40
3.0
 40
4.0
 40
4.0
 40
4.0
 40
5.0
 40
5.0
 40
5.0
 40
6.0
 40
6.0
 40
6.0
 40
7.0
 40
7.0
 40
7.0
 40
8.0
 40
8.0
 40
8.0
 40
9.0
 40
9.0
 40
9.0
 40
10.0
 40
10.0
 40
10.0
 40
11.0
 40
11.0
 40
11.0
 40
12.0
 40
12.0
 40
12.0
 40
13.0
 40
13.0
 40
13.0
 40
14.0
 40
14.0
 40
14.0
 40
14.0
 10
38.20765923394097
 20
81.23259548611111
 30
0.0
 10
38.75853000217013
 20
82.29161783854165
 30
0.0
 10
38.8009046766493
 20
84.45203721788194
 30
0.0
 10
38.9280287000868
 20
86.52770724826388
 30
0.0
 10
39.0551527235243
 20
88.60337727864582
 30
0.0
 10
39.30905626085069
 20
92.37368977864583
 30
0.0
 10
39.47855495876735
 20
93.55983615451387
 30
0.0
 10
39.64805365668403
 20
94.74598253038194
 30
0.0
 10
40.36842312282986
 20
98.47357584635415
 30
0.0
 10
40.28367377387153
 20
100.1682183159722
 30
0.0
 10
40.19892442491319
 20
101.8625162760417
 30
0.0
 10
40.70707600911458
 20
102.7947591145833
 30
0.0
 10
40.79182535807291
 20
103.8537814670139
 30
0.0
 10
40.87657470703125
 20
104.9128038194444
 30
0.0
 10
41.08844807942708
 20
107.0732231987847
 30
0.0
 10
41.30032145182291
 20
107.8356228298611
 30
0.0
 10
41.6813490125868
 20
108.3864935980903
 30
0.0
 10
42.35934380425347
 20
108.8098958333333
 30
0.0
 10
42.48646782769097
 20
109.4031412760417
 30
0.0
 10
42.61359185112847
 20
109.9960422092014
 30
0.0
 10
42.86749538845486
 20
110.3774142795139
 30
0.0
 10
43.07936876085069
 20
111.0550645616319
 30
0.0
 10
43.29124213324653
 20
111.7330593532986
 30
0.0
 10
43.96889241536458
 20
112.8344563802083
 30
0.0
 10
44.05364176432291
 20
113.3426079644097
 30
0.0
 10
44.13839111328124
 20
113.8511040581597
 30
0.0
 10
44.26551513671875
 20
114.0202582465278
 30
0.0
 10
44.26551513671875
 20
114.0202582465278
 30
0.0
 10
44.26551513671875
 20
114.0202582465278
 30
0.0
 10
44.73163655598958
 20
114.5711290147569
 30
0.0
 10
44.90079074435764
 20
116.3925509982639
 30
0.0
 10
45.0702894422743
 20
118.2143174913194
 30
0.0
 10
45.4516615125868
 20
118.4261908637153
 30
0.0
 10
45.53641086154514
 20
120.459486219618
 30
0.0
 10
45.62116021050347
 20
122.4927815755208
 30
0.0
 10
46.46830919053819
 20
126.0935953776042
 30
0.0
 10
46.63780788845486
 20
127.2797417534722
 30
0.0
 10
46.80730658637152
 20
128.4658881293403
 30
0.0
 10
47.23070882161458
 20
132.5324788411458
 30
0.0
 10
47.52733154296875
 20
133.0409749348958
 30
0.0
 10
47.82395426432291
 20
133.5491265190972
 30
0.0
 10
47.82395426432291
 20
134.3539008246528
 30
0.0
 10
47.99345296223958
 20
134.6928982204861
 30
0.0
  0
SPLINE
  5
33
330
A
100
AcDbEntity
  8
LAYER_1
 62
     7
100
AcDbSpline
210
0.0
220
0.0
230
1.0
 70
     8
 71
     3
 72
    38
 73
    34
 74
     0
 42
0.0000000001
 43
0.0000000001
 40
0.0
 40
0.0
 40
0.0
 40
0.0
 40
1.0
 40
1.0
 40
1.0
 40
2.0
 40
2.0
 40
2.0
 40
3.0
 40
3.0
 40
3.0
 40
4.0
 40
4.0
 40
4.0
 40
5.0
 40
5.0
 40
5.0
 40
6.0
 40
6.0
 40
6.0
 40
7.0
 40
7.0
 40
7.0
 40
8.0
 40
8.0
 40
8.0
 40
9.0
 40
9.0
 40
9.0
 40
10.0
 40
10.0
 40
10.0
 40
11.0
 40
11.0
 40
11.0
 40
11.0
 10
40.02942572699652
 20
79.15692545572917
 30
0.0
 10
40.28367377387153
 20
80.59731987847222
 30
0.0
 10
40.36842312282986
 20
82.33399251302083
 30
0.0
 10
40.53757731119791
 20
83.77438693576389
 30
0.0
 10
40.70707600911458
 20
85.21443684895833
 30
0.0
 10
41.34269612630208
 20
88.5186279296875
 30
0.0
 10
41.34269612630208
 20
89.87427300347221
 30
0.0
 10
41.34269612630208
 20
91.22991807725694
 30
0.0
 10
41.30032145182291
 20
94.06798773871527
 30
0.0
 10
41.51185031467013
 20
95.25413411458332
 30
0.0
 10
41.72372368706597
 20
96.44028049045139
 30
0.0
 10
41.6813490125868
 20
98.72782389322916
 30
0.0
 10
41.97797173394097
 20
100.4224663628472
 30
0.0
 10
42.27459445529514
 20
102.1167643229167
 30
0.0
 10
42.57087266710069
 20
106.0565755208333
 30
0.0
 10
42.65562201605903
 20
106.4799777560764
 30
0.0
 10
42.86749538845486
 20
106.7766004774306
 30
0.0
 10
43.63023952907986
 20
107.3695014105903
 30
0.0
 10
44.05364176432291
 20
107.7084988064236
 30
0.0
 10
44.43501383463541
 20
108.5136176215278
 30
0.0
 10
45.7059095594618
 20
111.1821885850694
 30
0.0
 10
45.95981309678819
 20
112.1564615885417
 30
0.0
 10
46.21406114366319
 20
113.1307345920139
 30
0.0
 10
46.38355984157986
 20
113.7663547092014
 30
0.0
 10
46.46830919053819
 20
114.9101264105903
 30
0.0
 10
46.55305853949653
 20
116.0538981119792
 30
0.0
 10
46.68018256293402
 20
116.9010470920139
 30
0.0
 10
46.84968126085069
 20
117.5363226996528
 30
0.0
 10
47.01883544921875
 20
118.1719428168403
 30
0.0
 10
47.01883544921875
 20
119.0614664713542
 30
0.0
 10
47.23070882161458
 20
119.7814914279514
 30
0.0
 10
47.44258219401041
 20
120.5018608940972
 30
0.0
 10
47.69683024088541
 20
121.9846299913194
 30
0.0
 10
47.90870361328125
 20
122.8741536458333
 30
0.0
  0
SPLINE
  5
32
330
A
100
AcDbEntity
  8
LAYER_1
 62
     7
100
AcDbSpline
210
0.0
220
0.0
230
1.0
 70
     8
 71
     3
 72
    29
 73
    25
 74
     0
 42
0.0000000001
 43
0.0000000001
 40
0.0
 40
0.0
 40
0.0
 40
0.0
 40
1.0
 40
1.0
 40
1.0
 40
2.0
 40
2.0
 40
2.0
 40
3.0
 40
3.0
 40
3.0
 40
4.0
 40
4.0
 40
4.0
 40
5.0
 40
5.0
 40
5.0
 40
6.0
 40
6.0
 40
6.0
 40
7.0
 40
7.0
 40
7.0
 40
8.0
 40
8.0
 40
8.0
 40
8.0
 10
41.72372368706597
 20
77.03888075086805
 30
0.0
 10
41.9355970594618
 20
78.22502712673611
 30
0.0
 10
41.85084771050347
 20
79.41117350260416
 30
0.0
 10
42.0627210828993
 20
80.21594780815971
 30
0.0
 10
42.27459445529514
 20
81.02072211371527
 30
0.0
 10
42.35934380425347
 20
83.05401746961805
 30
0.0
 10
42.52884250217014
 20
84.07066514756944
 30
0.0
 10
42.69799669053819
 20
85.08731282552083
 30
0.0
 10
42.78274603949652
 20
86.90907931857637
 30
0.0
 10
42.82512071397569
 20
87.96810167100693
 30
0.0
 10
42.86749538845486
 20
89.02712402343749
 30
0.0
 10
42.57087266710069
 20
90.17089572482638
 30
0.0
 10
42.86749538845486
 20
91.31466742621527
 30
0.0
 10
43.16411810980902
 20
92.45843912760415
 30
0.0
 10
42.90987006293403
 20
94.7883572048611
 30
0.0
 10
43.20649278428819
 20
95.72025553385416
 30
0.0
 10
43.50311550564236
 20
96.65215386284721
 30
0.0
 10
43.54549018012153
 20
97.6688015407986
 30
0.0
 10
43.63023952907986
 20
99.32106933593749
 30
0.0
 10
43.71464436848958
 20
100.9729926215278
 30
0.0
 10
44.43501383463541
 20
104.2348090277778
 30
0.0
 10
44.51976318359375
 20
104.6161810980903
 30
0.0
 10
44.98554009331597
 20
104.9551784939236
 30
0.0
 10
45.62116021050347
 20
105.5480794270833
 30
0.0
 10
45.7059095594618
 20
106.0989501953125
 30
0.0
  0
SPLINE
  5
31
330
A
100
AcDbEntity
  8
LAYER_1
 62
     7
100
AcDbSpline
210
0.0
220
0.0
230
1.0
 70
     8
 71
     3
 72
    35
 73
    31
 74
     0
 42
0.0000000001
 43
0.0000000001
 40
0.0
 40
0.0
 40
0.0
 40
0.0
 40
1.0
 40
1.0
 40
1.0
 40
2.0
 40
2.0
 40
2.0
 40
3.0
 40
3.0
 40
3.0
 40
4.0
 40
4.0
 40
4.0
 40
5.0
 40
5.0
 40
5.0
 40
6.0
 40
6.0
 40
6.0
 40
7.0
 40
7.0
 40
7.0
 40
8.0
 40
8.0
 40
8.0
 40
9.0
 40
9.0
 40
9.0
 40
10.0
 40
10.0
 40
10.0
 40
10.0
 10
47.69683024088541
 20
105.1670518663194
 30
0.0
 10
47.23070882161458
 20
104.7433051215278
 30
0.0
 10
46.38355984157986
 20
103.5571587456597
 30
0.0
 10
45.91778293185764
 20
103.0910373263889
 30
0.0
 10
45.79031439887152
 20
101.8625162760417
 30
0.0
 10
45.7059095594618
 20
101.0577419704861
 30
0.0
 10
45.5787855360243
 20
99.78684624565972
 30
0.0
 10
45.4516615125868
 20
98.51629503038194
 30
0.0
 10
45.11266411675347
 20
97.83830023871526
 30
0.0
 10
45.11266411675347
 20
96.90640190972222
 30
0.0
 10
45.11266411675347
 20
95.97450358072916
 30
0.0
 10
44.9431654188368
 20
94.61885850694443
 30
0.0
 10
44.85876057942708
 20
93.72933485243054
 30
0.0
 10
44.77401123046874
 20
92.83981119791666
 30
0.0
 10
44.9431654188368
 20
91.6536648220486
 30
0.0
 10
44.77401123046874
 20
90.80617133246527
 30
0.0
 10
44.60451253255208
 20
89.95902235243055
 30
0.0
 10
44.26551513671875
 20
88.77287597656249
 30
0.0
 10
44.39263916015624
 20
87.79860297309027
 30
0.0
 10
44.51976318359375
 20
86.82432996961805
 30
0.0
 10
44.22314046223958
 20
85.93480631510415
 30
0.0
 10
44.13839111328124
 20
85.0029079861111
 30
0.0
 10
44.05364176432291
 20
84.07066514756944
 30
0.0
 10
44.39263916015624
 20
82.80011393229167
 30
0.0
 10
44.01126708984375
 20
81.74109157986111
 30
0.0
 10
43.63023952907986
 20
80.68172471788193
 30
0.0
 10
43.67261420355902
 20
79.66507703993055
 30
0.0
 10
43.67261420355902
 20
78.69080403645833
 30
0.0
 10
43.67261420355902
 20
77.7165310329861
 30
0.0
 10
43.41836615668402
 20
75.38661295572916
 30
0.0
 10
43.46074083116319
 20
75.08999023437499
 30
0.0
  0
SPLINE
  5
30
330
A
100
AcDbEntity
  8
LAYER_1
 62
     7
100
AcDbSpline
210
0.0
220
0.0
230
1.0
 70
     8
 71
     3
 72
    26
 73
    22
 74
     0
 42
0.0000000001
 43
0.0000000001
 40
0.0
 40
0.0
 40
0.0
 40
0.0
 40
1.0
 40
1.0
 40
1.0
 40
2.0
 40
2.0
 40
2.0
 40
3.0
 40
3.0
 40
3.0
 40
4.0
 40
4.0
 40
4.0
 40
5.0
 40
5.0
 40
5.0
 40
6.0
 40
6.0
 40
6.0
 40
7.0
 40
7.0
 40
7.0
 40
7.0
 10
45.28216281467014
 20
72.88719618055555
 30
0.0
 10
45.1974134657118
 20
73.98859320746527
 30
0.0
 10
45.36691216362847
 20
76.40326063368055
 30
0.0
 10
45.49403618706597
 20
78.22502712673611
 30
0.0
 10
45.62116021050347
 20
80.04644911024305
 30
0.0
 10
45.49403618706597
 20
83.05401746961805
 30
0.0
 10
45.8330335828993
 20
84.02863498263888
 30
0.0
 10
46.17168646918402
 20
85.0029079861111
 30
0.0
 10
46.00253228081597
 20
86.57008192274304
 30
0.0
 10
46.12931179470485
 20
88.17997504340276
 30
0.0
 10
46.25643581814236
 20
89.78952365451389
 30
0.0
 10
47.01883544921875
 20
95.25413411458332
 30
0.0
 10
46.93408610026042
 20
95.88975423177082
 30
0.0
 10
46.84968126085069
 20
96.52502983940971
 30
0.0
 10
47.27308349609375
 20
100.9729926215278
 30
0.0
 10
47.35783284505208
 20
101.3119900173611
 30
0.0
 10
47.65445556640625
 20
101.9048909505208
 30
0.0
 10
48.3321058485243
 20
102.8367892795139
 30
0.0
 10
48.54397922092014
 20
103.0062879774306
 30
0.0
 10
48.75585259331596
 20
103.1757866753472
 30
0.0
 10
49.56062689887153
 20
104.1080295138889
 30
0.0
 10
49.68775092230902
 20
104.3619330512153
 30
0.0
  0
SPLINE
  5
2F
330
A
100
AcDbEntity
  8
LAYER_1
 62
     7
100
AcDbSpline
210
0.0
220
0.0
230
1.0
 70
     8
 71
     3
 72
    17
 73
    13
 74
     0
 42
0.0000000001
 43
0.0000000001
 40
0.0
 40
0.0
 40
0.0
 40
0.0
 40
1.0
 40
1.0
 40
1.0
 40
2.0
 40
2.0
 40
2.0
 40
3.0
 40
3.0
 40
3.0
 40
4.0
 40
4.0
 40
4.0
 40
4.0
 10
46.38355984157986
 20
71.61664496527777
 30
0.0
 10
46.59543321397569
 20
73.22619357638888
 30
0.0
 10
46.63780788845486
 20
75.89510904947916
 30
0.0
 10
46.72255723741319
 20
76.48800998263889
 30
0.0
 10
46.80730658637152
 20
77.08125542534721
 30
0.0
 10
46.97680528428819
 20
79.07217610677083
 30
0.0
 10
47.06155463324652
 20
79.87695041232638
 30
0.0
 10
47.14595947265624
 20
80.68172471788193
 30
0.0
 10
47.27308349609375
 20
82.71536458333333
 30
0.0
 10
47.23070882161458
 20
83.60488823784722
 30
0.0
 10
47.18833414713541
 20
84.4944118923611
 30
0.0
 10
47.14595947265624
 20
87.45960557725694
 30
0.0
 10
47.73920491536458
 20
88.22234971788194
 30
0.0
  0
LINE
  5
2E
330
A
100
AcDbEntity
  8
LAYER_1
 62
     7
100
AcDbLine
 10
32.82779812282986
 20
116.7739230685764
 30
0.0
 11
47.90870361328125
 21
101.0153672960069
 31
0.0
  0
LINE
  5
2D
330
A
100
AcDbEntity
  8
LAYER_1
 62
     7
100
AcDbLine
 10
34.05631917317708
 20
118.1719428168403
 30
0.0
 11
45.79031439887152
 21
106.0142008463542
 31
0.0
  0
LINE
  5
2C
330
A
100
AcDbEntity
  8
LAYER_1
 62
     7
100
AcDbLine
 10
32.87017279730902
 20
125.5003499348958
 30
0.0
 11
48.03582763671874
 21
110.2502902560764
 31
0.0
  0
LWPOLYLINE
  5
23
330
A
100
AcDbEntity
  8
LAYER_1
 62
     7
100
AcDbPolyline
 90
        7
 70
     0
 43
0.0
 10
33.16679551866319
 20
149.1805582682292
 10
48.07820231119791
 20
136.1332926432291
 10
47.99345296223958
 20
110.2079155815972
 10
45.79031439887152
 20
106.0565755208333
 10
50.02674831814236
 20
104.3619330512153
 10
47.90870361328125
 20
100.9729926215278
 10
47.65445556640625
 20
70.04912651909721
  0
LINE
  5
22
330
A
100
AcDbEntity
  8
LAYER_1
 62
     7
100
AcDbLine
 10
122.0440578884548
 20
151.2376247829861
 30
0.0
 11
135.0461927625868
 21
153.8827690972222
 31
0.0
  0
ENDSEC
  0
SECTION
  2
OBJECTS
  0
DICTIONARY
  5
19
330
0
100
AcDbDictionary
281
     1
  3
ACAD_COLOR
350
104
  3
ACAD_GROUP
350
1A
  3
ACAD_LAYOUT
350
D1
  3
ACAD_MATERIAL
350
106
  3
ACAD_MLINESTYLE
350
1B
  3
ACAD_PLOTSETTINGS
350
D2
  3
ACAD_PLOTSTYLENAME
350
CF
  3
ACDBHEADERROUNDTRIPXREC
350
103
  0
DICTIONARY
  5
104
102
{ACAD_REACTORS
330
19
102
}
330
19
100
AcDbDictionary
281
     1
  0
DICTIONARY
  5
1A
102
{ACAD_REACTORS
330
19
102
}
330
19
100
AcDbDictionary
281
     1
  0
DICTIONARY
  5
D1
102
{ACAD_REACTORS
330
19
102
}
330
19
100
AcDbDictionary
281
     1
  3
Layout1
350
D4
  3
Model
350
D3
  0
DICTIONARY
  5
106
102
{ACAD_REACTORS
330
19
102
}
330
19
100
AcDbDictionary
281
     1
  0
DICTIONARY
  5
1B
102
{ACAD_REACTORS
330
19
102
}
330
19
100
AcDbDictionary
281
     1
  3
STANDARD
350
1C
  0
DICTIONARY
  5
D2
102
{ACAD_REACTORS
330
19
102
}
330
19
100
AcDbDictionary
281
     1
  0
ACDBDICTIONARYWDFLT
  5
CF
102
{ACAD_REACTORS
330
19
102
}
330
19
100
AcDbDictionary
281
     1
  3
Normal
350
D0
100
AcDbDictionaryWithDefault
340
D0
  0
DICTIONARY
  5
103
102
{ACAD_REACTORS
330
19
102
}
330
19
100
AcDbDictionary
281
     1
  3
COLORDICT
350
105
  3
MATERIALDICT
350
107
  0
LAYOUT
  5
D4
102
{ACAD_REACTORS
330
D1
102
}
102
{ACAD_XDICTIONARY
360
108
102
}
330
D1
100
AcDbPlotSettings
  1

  2
Support Center HP LaserJet 4
  4

  6

 40
0.0
 41
0.0
 42
0.0
 43
0.0
 44
0.0
 45
0.0
 46
0.0
 47
0.0
 48
0.0
 49
0.0
140
0.0
141
0.0
142
1.0
143
1.0
 70
   688
 72
     0
 73
     0
 74
     5
  7

 75
    16
147
1.0
148
0.0
149
0.0
100
AcDbLayout
  1
Layout1
 70
     0
 71
     1
 10
0.0
 20
0.0
 11
12.0
 21
9.0
 12
0.0
 22
0.0
 32
0.0
 14
1.000000000000000E+20
 24
1.000000000000000E+20
 34
1.000000000000000E+20
 15
-1.000000000000000E+20
 25
-1.000000000000000E+20
 35
-1.000000000000000E+20
146
0.0
 13
0.0
 23
0.0
 33
0.0
 16
1.0
 26
0.0
 36
0.0
 17
0.0
 27
1.0
 37
0.0
 76
     0
330
B
  0
LAYOUT
  5
D3
102
{ACAD_REACTORS
330
D1
102
}
102
{ACAD_XDICTIONARY
360
10A
102
}
330
D1
100
AcDbPlotSettings
  1

  2
Support Center HP LaserJet 4
  4

  6

 40
0.0
 41
0.0
 42
0.0
 43
0.0
 44
0.0
 45
0.0
 46
0.0
 47
0.0
 48
0.0
 49
0.0
140
0.0
141
0.0
142
1.0
143
1.0
 70
  1712
 72
     0
 73
     0
 74
     0
  7

 75
     0
147
1.0
148
0.0
149
0.0
100
AcDbLayout
  1
Model
 70
     1
 71
     0
 10
0.0
 20
0.0
 11
12.0
 21
9.0
 12
0.0
 22
0.0
 32
0.0
 14
0.0
 24
0.0
 34
0.0
 15
0.0
 25
0.0
 35
0.0
146
0.0
 13
0.0
 23
0.0
 33
0.0
 16
1.0
 26
0.0
 36
0.0
 17
0.0
 27
1.0
 37
0.0
 76
     0
330
A
  0
MLINESTYLE
  5
1C
102
{ACAD_REACTORS
330
1B
102
}
330
1B
100
AcDbMlineStyle
  2
STANDARD
 70
     0
  3

 62
     0
 51
90.0000000000002
 52
90.0000000000002
 71
     2
 49
0.5
 62
   256
  6
BYLAYER
 49
-0.5
 62
   256
  6
BYLAYER
  0
ACDBPLACEHOLDER
  5
D0
102
{ACAD_REACTORS
330
CF
102
}
330
CF
  0
XRECORD
  5
105
102
{ACAD_REACTORS
330
103
102
}
330
103
100
AcDbXrecord
340
104
  0
XRECORD
  5
107
102
{ACAD_REACTORS
330
103
102
}
330
103
100
AcDbXrecord
340
106
  0
DICTIONARY
  5
108
330
D4
100
AcDbDictionary
280
     1
281
     1
  3
ACAD_XREC_ROUNDTRIP
360
109
  0
DICTIONARY
  5
10A
330
D3
100
AcDbDictionary
280
     1
281
     1
  3
ACAD_XREC_ROUNDTRIP
360
10B
  0
XRECORD
  5
109
102
{ACAD_REACTORS
330
108
102
}
330
108
100
AcDbXrecord
102
SHADEPLOT
 70
     0
102
SHADEPLOTRESLEVEL
 70
     0
102
SHADEPLOTCUSTOMDPI
 70
     0
  0
XRECORD
  5
10B
102
{ACAD_REACTORS
330
10A
102
}
330
10A
100
AcDbXrecord
102
SHADEPLOT
 70
     0
102
SHADEPLOTRESLEVEL
 70
     0
102
SHADEPLOTCUSTOMDPI
 70
     0
  0
ENDSEC
  0
EOF
