  0
SECTION
  2
HEADER
  9
$ACADVER
  1
AC1015
  9
$ACADMAINTVER
 70
     6
  9
$DWGCODEPAGE
  3
ANSI_1252
  9
$INSBASE
 10
0.0
 20
0.0
 30
0.0
  9
$EXTMIN
 10
33.3691596823568
 20
33.58964883459733
 30
-0.0015258207003612
  9
$EXTMAX
 10
109.0121584879425
 20
157.8098661764746
 30
0.0000000349246008
  9
$LIMMIN
 10
33.23828125
 20
33.46048990885416
  9
$LIMMAX
 10
109.1430365668403
 20
157.9390245225694
  9
$ORTHOMODE
 70
     0
  9
$REGENMODE
 70
     1
  9
$FILLMODE
 70
     1
  9
$QTEXTMODE
 70
     0
  9
$MIRRTEXT
 70
     1
  9
$LTSCALE
 40
1.0
  9
$ATTMODE
 70
     1
  9
$TEXTSIZE
 40
0.2
  9
$TRACEWID
 40
0.05
  9
$TEXTSTYLE
  7
STANDARD
  9
$CLAYER
  8
0
  9
$CELTYPE
  6
CONTINUOUS
  9
$CECOLOR
 62
   256
  9
$CELTSCALE
 40
1.0
  9
$DISPSILH
 70
     0
  9
$DIMSCALE
 40
1.0
  9
$DIMASZ
 40
0.18
  9
$DIMEXO
 40
0.0625
  9
$DIMDLI
 40
0.38
  9
$DIMRND
 40
0.0
  9
$DIMDLE
 40
0.0
  9
$DIMEXE
 40
0.18
  9
$DIMTP
 40
0.0
  9
$DIMTM
 40
0.0
  9
$DIMTXT
 40
0.18
  9
$DIMCEN
 40
0.09
  9
$DIMTSZ
 40
0.0
  9
$DIMTOL
 70
     0
  9
$DIMLIM
 70
     0
  9
$DIMTIH
 70
     1
  9
$DIMTOH
 70
     1
  9
$DIMSE1
 70
     0
  9
$DIMSE2
 70
     0
  9
$DIMTAD
 70
     0
  9
$DIMZIN
 70
     0
  9
$DIMBLK
  1

  9
$DIMASO
 70
     1
  9
$DIMSHO
 70
     1
  9
$DIMPOST
  1

  9
$DIMAPOST
  1

  9
$DIMALT
 70
     0
  9
$DIMALTD
 70
     2
  9
$DIMALTF
 40
25.4
  9
$DIMLFAC
 40
1.0
  9
$DIMTOFL
 70
     0
  9
$DIMTVP
 40
0.0
  9
$DIMTIX
 70
     0
  9
$DIMSOXD
 70
     0
  9
$DIMSAH
 70
     0
  9
$DIMBLK1
  1

  9
$DIMBLK2
  1

  9
$DIMSTYLE
  2
STANDARD
  9
$DIMCLRD
 70
     0
  9
$DIMCLRE
 70
     0
  9
$DIMCLRT
 70
     0
  9
$DIMTFAC
 40
1.0
  9
$DIMGAP
 40
0.09
  9
$DIMJUST
 70
     0
  9
$DIMSD1
 70
     0
  9
$DIMSD2
 70
     0
  9
$DIMTOLJ
 70
     1
  9
$DIMTZIN
 70
     0
  9
$DIMALTZ
 70
     0
  9
$DIMALTTZ
 70
     0
  9
$DIMUPT
 70
     0
  9
$DIMDEC
 70
     4
  9
$DIMTDEC
 70
     4
  9
$DIMALTU
 70
     2
  9
$DIMALTTD
 70
     2
  9
$DIMTXSTY
  7
STANDARD
  9
$DIMAUNIT
 70
     0
  9
$DIMADEC
 70
     0
  9
$DIMALTRND
 40
0.0
  9
$DIMAZIN
 70
     0
  9
$DIMDSEP
 70
    46
  9
$DIMATFIT
 70
     3
  9
$DIMFRAC
 70
     0
  9
$DIMLDRBLK
  1

  9
$DIMLUNIT
 70
     2
  9
$DIMLWD
 70
    -2
  9
$DIMLWE
 70
    -2
  9
$DIMTMOVE
 70
     0
  9
$LUNITS
 70
     2
  9
$LUPREC
 70
     4
  9
$SKETCHINC
 40
0.1
  9
$FILLETRAD
 40
0.0
  9
$AUNITS
 70
     0
  9
$AUPREC
 70
     0
  9
$MENU
  1
acad
  9
$ELEVATION
 40
0.0
  9
$PELEVATION
 40
0.0
  9
$THICKNESS
 40
0.0
  9
$LIMCHECK
 70
     0
  9
$CHAMFERA
 40
0.0
  9
$CHAMFERB
 40
0.0
  9
$CHAMFERC
 40
0.0
  9
$CHAMFERD
 40
0.0
  9
$SKPOLY
 70
     0
  9
$TDCREATE
 40
2444971.666666667
  9
$TDUCREATE
 40
2444972.0
  9
$TDUPDATE
 40
2452219.456269329
  9
$TDUUPDATE
 40
2452219.789602662
  9
$TDINDWG
 40
0.000581713
  9
$TDUSRTIMER
 40
0.000581713
  9
$USRTIMER
 70
     1
  9
$ANGBASE
 50
0.0
  9
$ANGDIR
 70
     0
  9
$PDMODE
 70
     0
  9
$PDSIZE
 40
0.0
  9
$PLINEWID
 40
0.0
  9
$SPLFRAME
 70
     0
  9
$SPLINETYPE
 70
     6
  9
$SPLINESEGS
 70
     8
  9
$HANDSEED
  5
177
  9
$SURFTAB1
 70
     6
  9
$SURFTAB2
 70
     6
  9
$SURFTYPE
 70
     6
  9
$SURFU
 70
     6
  9
$SURFV
 70
     6
  9
$UCSBASE
  2

  9
$UCSNAME
  2

  9
$UCSORG
 10
0.0
 20
0.0
 30
0.0
  9
$UCSXDIR
 10
1.0
 20
0.0
 30
0.0
  9
$UCSYDIR
 10
0.0
 20
1.0
 30
0.0
  9
$UCSORTHOREF
  2

  9
$UCSORTHOVIEW
 70
     0
  9
$UCSORGTOP
 10
0.0
 20
0.0
 30
0.0
  9
$UCSORGBOTTOM
 10
0.0
 20
0.0
 30
0.0
  9
$UCSORGLEFT
 10
0.0
 20
0.0
 30
0.0
  9
$UCSORGRIGHT
 10
0.0
 20
0.0
 30
0.0
  9
$UCSORGFRONT
 10
0.0
 20
0.0
 30
0.0
  9
$UCSORGBACK
 10
0.0
 20
0.0
 30
0.0
  9
$PUCSBASE
  2

  9
$PUCSNAME
  2

  9
$PUCSORG
 10
0.0
 20
0.0
 30
0.0
  9
$PUCSXDIR
 10
1.0
 20
0.0
 30
0.0
  9
$PUCSYDIR
 10
0.0
 20
1.0
 30
0.0
  9
$PUCSORTHOREF
  2

  9
$PUCSORTHOVIEW
 70
     0
  9
$PUCSORGTOP
 10
0.0
 20
0.0
 30
0.0
  9
$PUCSORGBOTTOM
 10
0.0
 20
0.0
 30
0.0
  9
$PUCSORGLEFT
 10
0.0
 20
0.0
 30
0.0
  9
$PUCSORGRIGHT
 10
0.0
 20
0.0
 30
0.0
  9
$PUCSORGFRONT
 10
0.0
 20
0.0
 30
0.0
  9
$PUCSORGBACK
 10
0.0
 20
0.0
 30
0.0
  9
$USERI1
 70
     0
  9
$USERI2
 70
     0
  9
$USERI3
 70
     0
  9
$USERI4
 70
     0
  9
$USERI5
 70
     0
  9
$USERR1
 40
0.0
  9
$USERR2
 40
0.0
  9
$USERR3
 40
0.0
  9
$USERR4
 40
0.0
  9
$USERR5
 40
0.0
  9
$WORLDVIEW
 70
     1
  9
$SHADEDGE
 70
     3
  9
$SHADEDIF
 70
    70
  9
$TILEMODE
 70
     1
  9
$MAXACTVP
 70
    16
  9
$PINSBASE
 10
0.0
 20
0.0
 30
0.0
  9
$PLIMCHECK
 70
     0
  9
$PEXTMIN
 10
1.000000000000000E+20
 20
1.000000000000000E+20
 30
1.000000000000000E+20
  9
$PEXTMAX
 10
-1.000000000000000E+20
 20
-1.000000000000000E+20
 30
-1.000000000000000E+20
  9
$PLIMMIN
 10
0.0
 20
0.0
  9
$PLIMMAX
 10
12.0
 20
9.0
  9
$UNITMODE
 70
     0
  9
$VISRETAIN
 70
     0
  9
$PLINEGEN
 70
     1
  9
$PSLTSCALE
 70
     0
  9
$TREEDEPTH
 70
  3020
  9
$CMLSTYLE
  2
STANDARD
  9
$CMLJUST
 70
     0
  9
$CMLSCALE
 40
1.0
  9
$PROXYGRAPHICS
 70
     0
  9
$MEASUREMENT
 70
     0
  9
$CELWEIGHT
370
    -1
  9
$ENDCAPS
280
     0
  9
$JOINSTYLE
280
     0
  9
$LWDISPLAY
290
     0
  9
$INSUNITS
 70
     0
  9
$HYPERLINKBASE
  1

  9
$STYLESHEET
  1

  9
$XEDIT
290
     1
  9
$CEPSNTYPE
380
     0
  9
$PSTYLEMODE
290
     1
  9
$FINGERPRINTGUID
  2
{0AE0D086-D1C7-11D5-923F-00805F198AD5}
  9
$VERSIONGUID
  2
{0AE0D088-D1C7-11D5-923F-00805F198AD5}
  9
$EXTNAMES
290
     1
  9
$PSVPSCALE
 40
0.0
  9
$OLESTARTUP
290
     0
  0
ENDSEC
  0
SECTION
  2
CLASSES
  0
CLASS
  1
LWPOLYLINE
  2
AcDbPolyline
  3
AutoCAD 2000
 90
        0
280
     0
281
     1
  0
CLASS
  1
IMAGE
  2
AcDbRasterImage
  3
ISM
 90
      127
280
     0
281
     1
  0
CLASS
  1
OLE2FRAME
  2
AcDbOle2Frame
  3
AutoCAD 2000
 90
        0
280
     0
281
     1
  0
CLASS
  1
HATCH
  2
AcDbHatch
  3
AutoCAD 2000
 90
        0
280
     0
281
     1
  0
CLASS
  1
DICTIONARYVAR
  2
AcDbDictionaryVar
  3
AutoCAD 2000
 90
        0
280
     0
281
     0
  0
CLASS
  1
RASTERVARIABLES
  2
AcDbRasterVariables
  3
ISM
 90
        0
280
     0
281
     0
  0
CLASS
  1
IMAGEDEF
  2
AcDbRasterImageDef
  3
ISM
 90
        0
280
     0
281
     0
  0
CLASS
  1
IMAGEDEF_REACTOR
  2
AcDbRasterImageDefReactor
  3
ISM
 90
        1
280
     0
281
     0
  0
CLASS
  1
IDBUFFER
  2
AcDbIdBuffer
  3
AutoCAD 2000
 90
        0
280
     0
281
     0
  0
CLASS
  1
SPATIAL_FILTER
  2
AcDbSpatialFilter
  3
AutoCAD 2000
 90
        0
280
     0
281
     0
  0
CLASS
  1
XRECORD
  2
AcDbXrecord
  3
AutoCAD 2000
 90
        0
280
     0
281
     0
  0
CLASS
  1
SORTENTSTABLE
  2
AcDbSortentsTable
  3
AutoCAD 2000
 90
        0
280
     0
281
     0
  0
CLASS
  1
LAYER_INDEX
  2
AcDbLayerIndex
  3
AutoCAD 2000
 90
        0
280
     0
281
     0
  0
CLASS
  1
SPATIAL_INDEX
  2
AcDbSpatialIndex
  3
AutoCAD 2000
 90
        0
280
     0
281
     0
  0
CLASS
  1
OBJECT_PTR
  2
CAseDLPNTableRecord
  3
ASE-LPNTableRecord
 90
        1
280
     1
281
     0
  0
CLASS
  1
LAYOUT
  2
AcDbLayout
  3
ObjectDBX Classes
 90
        0
280
     0
281
     0
  0
CLASS
  1
PLOTSETTINGS
  2
AcDbPlotSettings
  3
AutoCAD 2000
 90
        0
280
     0
281
     0
  0
CLASS
  1
ACDBDICTIONARYWDFLT
  2
AcDbDictionaryWithDefault
  3
AutoCAD 2000
 90
        0
280
     0
281
     0
  0
CLASS
  1
ACDBPLACEHOLDER
  2
AcDbPlaceHolder
  3
ObjectDBX Classes
 90
        0
280
     0
281
     0
  0
CLASS
  1
VBAPROJECT
  2
AcDbVbaProject
  3
ObjectDBX Classes
 90
        0
280
     0
281
     0
  0
CLASS
  1
WIPEOUT
  2
AcDbWipeout
  3
WipeOut|AutoCAD Express Tool|expresstools@autodesk.com
 90
      127
280
     0
281
     1
  0
CLASS
  1
WIPEOUTVARIABLES
  2
AcDbWipeoutVariables
  3
WipeOut|AutoCAD Express Tool|expresstools@autodesk.com
 90
        0
280
     0
281
     0
  0
CLASS
  1
RTEXT
  2
RText
  3
RText|AutoCAD Express Tool|expresstools@autodesk.com
 90
        0
280
     0
281
     1
  0
CLASS
  1
ARCALIGNEDTEXT
  2
AcDbArcAlignedText
  3
ATEXT|AutoCAD Express Tool|expresstools@autodesk.com
 90
        0
280
     0
281
     1
  0
CLASS
  1
LONG_TRANSACTION
  2
AcDbLongTransaction
  3
AutoCAD 2000
 90
        0
280
     1
281
     0
  0
CLASS
  1
LWPOLYLINE
  2
AcDbPolyline
  3
AutoCAD 2000
 90
        0
280
     0
281
     1
  0
CLASS
  1
HATCH
  2
AcDbHatch
  3
AutoCAD 2000
 90
        0
280
     0
281
     1
  0
CLASS
  1
XRECORD
  2
AcDbXrecord
  3
AutoCAD 2000
 90
        0
280
     0
281
     0
  0
ENDSEC
  0
SECTION
  2
TABLES
  0
TABLE
  2
VPORT
  5
7
330
0
100
AcDbSymbolTable
 70
     2
  0
VPORT
  5
143
330
7
100
AcDbSymbolTableRecord
100
AcDbViewportTableRecord
  2
*Active
 70
     0
 10
0.0
 20
0.0
 11
1.0
 21
1.0
 12
71.19065908514966
 22
95.69975750553599
 13
0.0
 23
0.0
 14
1.0
 24
1.0
 15
0.0
 25
0.0
 16
0.0
 26
0.0
 36
1.0
 17
0.0
 27
0.0
 37
0.0
 40
126.176441237025
 41
1.836842105263158
 42
50.0
 43
0.0
 44
0.0
 50
0.0
 51
0.0
 71
     0
 72
   100
 73
     1
 74
     1
 75
     0
 76
     0
 77
     0
 78
     0
281
     0
 65
     1
110
0.0
120
0.0
130
0.0
111
1.0
121
0.0
131
0.0
112
0.0
122
1.0
132
0.0
 79
     0
146
0.0
  0
ENDTAB
  0
TABLE
  2
LTYPE
  5
4
330
0
100
AcDbSymbolTable
 70
     1
  0
LTYPE
  5
11
330
4
100
AcDbSymbolTableRecord
100
AcDbLinetypeTableRecord
  2
BYBLOCK
 70
     0
  3

 72
    65
 73
     0
 40
0.0
  0
LTYPE
  5
12
330
4
100
AcDbSymbolTableRecord
100
AcDbLinetypeTableRecord
  2
BYLAYER
 70
     0
  3

 72
    65
 73
     0
 40
0.0
  0
LTYPE
  5
13
330
4
100
AcDbSymbolTableRecord
100
AcDbLinetypeTableRecord
  2
CONTINUOUS
 70
     0
  3
Solid line
 72
    65
 73
     0
 40
0.0
  0
ENDTAB
  0
TABLE
  2
LAYER
  5
2
330
0
100
AcDbSymbolTable
 70
     2
  0
LAYER
  5
14
330
2
100
AcDbSymbolTableRecord
100
AcDbLayerTableRecord
  2
0
 70
     0
 62
     7
  6
CONTINUOUS
370
    -3
390
0
  0
LAYER
  5
21
330
2
100
AcDbSymbolTableRecord
100
AcDbLayerTableRecord
  2
LAYER_1
 70
     0
 62
     5
  6
CONTINUOUS
370
    -3
390
0
  0
ENDTAB
  0
TABLE
  2
STYLE
  5
3
330
0
100
AcDbSymbolTable
 70
     5
  0
STYLE
  5
17
330
3
100
AcDbSymbolTableRecord
100
AcDbTextStyleTableRecord
  2
STANDARD
 70
     0
 40
0.0
 41
1.0
 50
0.0
 71
     0
 42
0.2
  3
txt
  4

  0
STYLE
  5
1D
330
3
100
AcDbSymbolTableRecord
100
AcDbTextStyleTableRecord
  2
STD
 70
     0
 40
0.0
 41
1.0
 50
0.0
 71
     0
 42
0.2
  3
txt
  4

  0
STYLE
  5
1E
330
3
100
AcDbSymbolTableRecord
100
AcDbTextStyleTableRecord
  2
TATESTD
 70
     4
 40
0.0
 41
1.0
 50
0.0
 71
     0
 42
0.2
  3
txt
  4

  0
STYLE
  5
1F
330
3
100
AcDbSymbolTableRecord
100
AcDbTextStyleTableRecord
  2
KANJISTD
 70
     0
 40
0.0
 41
1.0
 50
0.0
 71
     0
 42
0.2
  3
txt
  4
extfont
  0
STYLE
  5
20
330
3
100
AcDbSymbolTableRecord
100
AcDbTextStyleTableRecord
  2
KANJITATE
 70
     4
 40
0.0
 41
1.0
 50
0.0
 71
     0
 42
0.2
  3
txt
  4
extfont
  0
ENDTAB
  0
TABLE
  2
VIEW
  5
5
330
0
100
AcDbSymbolTable
 70
     0
  0
ENDTAB
  0
TABLE
  2
UCS
  5
6
330
0
100
AcDbSymbolTable
 70
     0
  0
ENDTAB
  0
TABLE
  2
APPID
  5
8
330
0
100
AcDbSymbolTable
 70
     1
  0
APPID
  5
16
330
8
100
AcDbSymbolTableRecord
100
AcDbRegAppTableRecord
  2
ACAD
 70
     0
  0
ENDTAB
  0
TABLE
  2
DIMSTYLE
  5
9
330
0
100
AcDbSymbolTable
 70
     1
100
AcDbDimStyleTable
  0
DIMSTYLE
105
18
330
9
100
AcDbSymbolTableRecord
100
AcDbDimStyleTableRecord
  2
STANDARD
 70
     0
  3

  4

289
     0
340
17
  0
ENDTAB
  0
TABLE
  2
BLOCK_RECORD
  5
1
330
0
100
AcDbSymbolTable
 70
     0
  0
BLOCK_RECORD
  5
A
330
1
100
AcDbSymbolTableRecord
100
AcDbBlockTableRecord
  2
*MODEL_SPACE
340
13E
  0
BLOCK_RECORD
  5
B
330
1
100
AcDbSymbolTableRecord
100
AcDbBlockTableRecord
  2
*PAPER_SPACE
340
13F
  0
ENDTAB
  0
ENDSEC
  0
SECTION
  2
BLOCKS
  0
BLOCK
  5
D
330
A
100
AcDbEntity
  8
0
100
AcDbBlockBegin
  2
*MODEL_SPACE
 70
     0
 10
0.0
 20
0.0
 30
0.0
  3
*MODEL_SPACE
  1

  4

  0
ENDBLK
  5
E
330
A
100
AcDbEntity
  8
0
100
AcDbBlockEnd
  0
BLOCK
  5
F
330
B
100
AcDbEntity
 67
     1
  8
0
100
AcDbBlockBegin
  2
*PAPER_SPACE
 70
     0
 10
0.0
 20
0.0
 30
0.0
  3
*PAPER_SPACE
  1

  4

  0
ENDBLK
  5
10
330
B
100
AcDbEntity
 67
     1
  8
0
100
AcDbBlockEnd
  0
ENDSEC
  0
SECTION
  2
ENTITIES
  0
LWPOLYLINE
  5
125
330
A
100
AcDbEntity
  8
LAYER_1
 62
     7
100
AcDbPolyline
 90
       18
 70
     0
 43
0.0
 10
92.07499999999999
 20
153.3701388888889
 10
104.6296169704861
 20
156.9154866536458
 10
104.824609375
 20
121.3155924479167
 10
106.3228814019097
 20
119.5189751519097
 10
103.3945502387153
 20
116.3501763237847
 10
104.9296847873264
 20
114.3368625217014
 10
104.8638834635417
 20
85.52415093315972
 10
77.17634006076388
 20
85.50726996527777
 10
75.36043023003471
 20
87.32421332465277
 10
71.54498697916667
 20
82.96306694878471
 10
68.03236762152777
 20
85.38634711371527
 10
37.20875379774305
 20
85.26439073350694
 10
37.20875379774305
 20
101.9214274088542
 10
38.9650634765625
 20
103.98125
 10
35.45313313802083
 20
106.2229736328125
 10
37.20875379774305
 20
108.2817626953125
 10
37.19635145399305
 20
138.0332628038194
 10
48.45991889105903
 20
141.1872477213541
  0
LWPOLYLINE
  5
11B
330
A
100
AcDbEntity
  8
LAYER_1
 62
     7
100
AcDbPolyline
 90
        8
 70
     1
 43
0.0
 10
37.25939670138889
 20
80.98213704427083
 10
68.3648193359375
 20
80.98213704427083
 10
71.56531304253471
 20
78.45550401475694
 10
75.52372775607638
 20
82.77875434027777
 10
77.09572482638889
 20
81.17850748697916
 10
104.9727484809028
 20
81.17850748697916
 10
104.9727484809028
 20
53.66666395399305
 10
37.34380154079861
 20
34.80166558159722
  0
SPLINE
  5
11A
330
A
100
AcDbEntity
  8
LAYER_1
 62
     7
100
AcDbSpline
210
0.0
220
0.0
230
1.0
 70
    11
 71
     3
 72
    41
 73
    37
 74
     0
 42
0.0000000001
 43
0.0000000001
 40
0.0
 40
0.0
 40
0.0
 40
0.0
 40
1.0
 40
1.0
 40
1.0
 40
2.0
 40
2.0
 40
2.0
 40
3.0
 40
3.0
 40
3.0
 40
4.0
 40
4.0
 40
4.0
 40
5.0
 40
5.0
 40
5.0
 40
6.0
 40
6.0
 40
6.0
 40
7.0
 40
7.0
 40
7.0
 40
8.0
 40
8.0
 40
8.0
 40
9.0
 40
9.0
 40
9.0
 40
10.0
 40
10.0
 40
10.0
 40
11.0
 40
11.0
 40
11.0
 40
12.0
 40
12.0
 40
12.0
 40
12.0
 10
60.53239474826388
 20
80.98213704427083
 30
0.0
 10
60.53239474826388
 20
80.98213704427083
 30
0.0
 10
60.5885498046875
 20
57.82179361979166
 30
0.0
 10
60.5885498046875
 20
57.40045844184027
 30
0.0
 10
60.5885498046875
 20
56.97946777343749
 30
0.0
 10
60.44833441840277
 20
55.96902126736111
 30
0.0
 10
61.79571126302083
 20
55.96902126736111
 30
0.0
 10
63.17168240017361
 20
55.96902126736111
 30
0.0
 10
80.56596950954861
 20
56.05308159722222
 30
0.0
 10
81.58744032118055
 20
56.05308159722222
 30
0.0
 10
82.56998155381943
 20
56.05308159722222
 30
0.0
 10
82.76669650607639
 20
56.36176215277777
 30
0.0
 10
82.76669650607639
 20
57.37255316840277
 30
0.0
 10
82.76669650607639
 20
58.38299967447916
 30
0.0
 10
82.76669650607639
 20
81.17850748697916
 30
0.0
 10
82.76669650607639
 20
81.17850748697916
 30
0.0
 10
82.76669650607639
 20
81.17850748697916
 30
0.0
 10
81.50337999131943
 20
81.17850748697916
 30
0.0
 10
81.50337999131943
 20
81.17850748697916
 30
0.0
 10
81.50337999131943
 20
81.17850748697916
 30
0.0
 10
81.55953504774305
 20
58.52355957031249
 30
0.0
 10
81.55953504774305
 20
58.13047417534722
 30
0.0
 10
81.55953504774305
 20
57.73738878038194
 30
0.0
 10
81.58744032118055
 20
57.34430338541666
 30
0.0
 10
81.11029459635417
 20
57.34430338541666
 30
0.0
 10
80.63314887152777
 20
57.34430338541666
 30
0.0
 10
62.86265733506944
 20
57.34430338541666
 30
0.0
 10
62.49747721354166
 20
57.34430338541666
 30
0.0
 10
62.1326416015625
 20
57.34430338541666
 30
0.0
 10
61.85186631944444
 20
57.5127685546875
 30
0.0
 10
61.85186631944444
 20
57.93410373263888
 30
0.0
 10
61.85186631944444
 20
58.35509440104166
 30
0.0
 10
61.85186631944444
 20
80.98213704427083
 30
0.0
 10
61.85186631944444
 20
80.98213704427083
 30
0.0
 10
61.85186631944444
 20
80.98213704427083
 30
0.0
 10
60.53239474826388
 20
80.98213704427083
 30
0.0
 10
60.53239474826388
 20
80.98213704427083
 30
0.0
  0
LWPOLYLINE
  5
10A
330
A
100
AcDbEntity
  8
LAYER_1
 62
     7
100
AcDbPolyline
 90
       14
 70
     0
 43
0.0
 10
57.21717936197916
 20
122.7201578776042
 10
53.67286512586805
 20
121.7830919053819
 10
48.28439127604166
 20
142.0478325737847
 10
91.78699001736111
 20
154.1738796657986
 10
97.28846299913194
 20
133.852294921875
 10
82.74981553819444
 20
129.8666639539931
 10
82.74981553819444
 20
85.50795898437499
 10
81.43137749565972
 20
85.50795898437499
 10
81.43137749565972
 20
144.2795654296875
 10
61.76780598958333
 20
144.2795654296875
 10
61.76780598958333
 20
85.37842339409721
 10
60.46211480034722
 20
85.37842339409721
 10
60.46487087673611
 20
123.5790201822917
 10
57.93134765625
 20
122.908949110243
  0
LINE
  5
109
330
A
100
AcDbEntity
  8
LAYER_1
 62
     7
100
AcDbLine
 10
37.19015028211805
 20
138.0387749565972
 30
0.0
 11
33.67649739583333
 21
137.010413953993
 31
0.0
  0
SPLINE
  5
108
330
A
100
AcDbEntity
  8
LAYER_1
 62
     7
100
AcDbSpline
210
0.0
220
0.0
230
1.0
 70
     8
 71
     3
 72
     8
 73
     4
 74
     0
 42
0.0000000001
 43
0.0000000001
 40
0.0
 40
0.0
 40
0.0
 40
0.0
 40
1.0
 40
1.0
 40
1.0
 40
1.0
 10
57.61818847656249
 20
147.670228407118
 30
0.0
 10
59.00518391927083
 20
147.9327446831597
 30
0.0
 10
61.12012803819444
 20
149.0555013020833
 30
0.0
 10
61.39745822482638
 20
149.5233452690972
 30
0.0
  0
SPLINE
  5
107
330
A
100
AcDbEntity
  8
LAYER_1
 62
     7
100
AcDbSpline
210
0.0
220
0.0
230
1.0
 70
     8
 71
     3
 72
     8
 73
     4
 74
     0
 42
0.0000000001
 43
0.0000000001
 40
0.0
 40
0.0
 40
0.0
 40
0.0
 40
1.0
 40
1.0
 40
1.0
 40
1.0
 10
61.64481608072916
 20
152.4120578342014
 30
0.0
 10
61.10531412760416
 20
151.0267849392361
 30
0.0
 10
61.77641872829861
 20
148.1370388454861
 30
0.0
 10
62.33073459201388
 20
147.670228407118
 30
0.0
  0
HATCH
  5
106
330
A
100
AcDbEntity
  8
LAYER_1
 62
     7
100
AcDbHatch
 10
0.0
 20
0.0
 30
0.0
210
0.0
220
0.0
230
1.0
  2
SOLID
 70
     1
 71
     0
 91
        1
 92
        3
 72
     0
 73
     1
 93
        3
 10
61.55799967447916
 20
147.5827229817708
 10
62.92914767795138
 20
148.2397026909722
 10
63.16238064236111
 20
146.3569580078125
 97
        0
 75
     0
 76
     1
 98
        1
 10
0.0
 20
0.0
  0
HATCH
  5
105
330
A
100
AcDbEntity
  8
LAYER_1
 62
     7
100
AcDbHatch
 10
0.0
 20
0.0
 30
0.0
210
0.0
220
0.0
230
1.0
  2
SOLID
 70
     1
 71
     0
 91
        1
 92
        1
 93
        1
 72
     4
 94
        3
 73
     0
 74
     0
 95
       14
 96
       10
 40
0.0
 40
0.0
 40
0.0
 40
0.0
 40
1.0
 40
1.0
 40
1.0
 40
2.0
 40
2.0
 40
2.0
 40
3.0
 40
3.0
 40
3.0
 40
3.0
 10
61.93696017795138
 20
153.7842393663194
 10
61.93696017795138
 20
153.7842393663194
 10
60.72635362413194
 20
152.0771945529514
 10
60.72635362413194
 20
152.0771945529514
 10
60.72635362413194
 20
152.0771945529514
 10
62.09750162760416
 20
151.8436170789931
 10
62.09750162760416
 20
151.8436170789931
 10
62.09750162760416
 20
151.8436170789931
 10
61.89320746527777
 20
153.3604926215278
 10
61.93696017795138
 20
153.7842393663194
 97
        0
 75
     0
 76
     1
 98
        1
 10
0.0
 20
0.0
  0
LINE
  5
104
330
A
100
AcDbEntity
  8
LAYER_1
 62
     7
100
AcDbLine
 10
58.5084011501736
 20
153.9447808159722
 30
0.0
 11
87.84890136718749
 21
153.9589057074653
 31
0.0
  0
SPLINE
  5
103
330
A
100
AcDbEntity
  8
LAYER_1
 62
     7
100
AcDbSpline
210
0.0
220
0.0
230
1.0
 70
     8
 71
     3
 72
    14
 73
    10
 74
     0
 42
0.0000000001
 43
0.0000000001
 40
0.0
 40
0.0
 40
0.0
 40
0.0
 40
1.0
 40
1.0
 40
1.0
 40
2.0
 40
2.0
 40
2.0
 40
3.0
 40
3.0
 40
3.0
 40
3.0
 10
57.80939127604166
 20
141.5014404296875
 30
0.0
 10
54.01944173177083
 20
138.5958468967014
 30
0.0
 10
54.18790690104166
 20
133.7127685546875
 30
0.0
 10
54.69330240885416
 20
131.6915310329861
 30
0.0
 10
55.19835340711805
 20
129.6702935112847
 30
0.0
 10
56.62221137152778
 20
124.5178087022569
 30
0.0
 10
56.96706542968749
 20
123.5648952907986
 30
0.0
 10
58.73577745225694
 20
118.6811279296875
 30
0.0
 10
56.7565700954861
 20
117.3768147786458
 30
0.0
 10
55.99864908854166
 20
116.9554796006944
 30
0.0
  0
HATCH
  5
102
330
A
100
AcDbEntity
  8
LAYER_1
 62
     7
100
AcDbHatch
 10
0.0
 20
0.0
 30
0.0
210
0.0
220
0.0
230
1.0
  2
SOLID
 70
     1
 71
     0
 91
        1
 92
        3
 72
     0
 73
     1
 93
        3
 10
57.13553059895833
 20
142.0478325737847
 10
59.19879828559027
 20
142.9321885850694
 10
58.10394694010416
 20
140.8696099175347
 97
        0
 75
     0
 76
     1
 98
        1
 10
0.0
 20
0.0
  0
LWPOLYLINE
  5
FD
330
A
100
AcDbEntity
  8
LAYER_1
 62
     7
100
AcDbPolyline
 90
        3
 70
     0
 43
0.0
 10
61.76780598958333
 20
144.2778428819444
 10
60.46487087673611
 20
144.2778428819444
 10
60.46487087673611
 20
123.5755750868055
  0
SPLINE
  5
FC
330
A
100
AcDbEntity
  8
LAYER_1
 62
     7
100
AcDbSpline
210
0.0
220
0.0
230
1.0
 70
     8
 71
     3
 72
     8
 73
     4
 74
     0
 42
0.0000000001
 43
0.0000000001
 40
0.0
 40
0.0
 40
0.0
 40
0.0
 40
1.0
 40
1.0
 40
1.0
 40
1.0
 10
59.32523328993055
 20
143.9226535373264
 30
0.0
 10
59.69006890190972
 20
143.8103434244792
 30
0.0
 10
60.0552490234375
 20
143.6418782552083
 30
0.0
 10
60.44833441840277
 20
144.0628689236111
 30
0.0
  0
SPLINE
  5
FB
330
A
100
AcDbEntity
  8
LAYER_1
 62
     7
100
AcDbSpline
210
0.0
220
0.0
230
1.0
 70
     8
 71
     3
 72
     8
 73
     4
 74
     0
 42
0.0000000001
 43
0.0000000001
 40
0.0
 40
0.0
 40
0.0
 40
0.0
 40
1.0
 40
1.0
 40
1.0
 40
1.0
 10
59.32523328993055
 20
143.1647325303819
 30
0.0
 10
59.69006890190972
 20
143.0524224175347
 30
0.0
 10
60.0552490234375
 20
142.8839572482639
 30
0.0
 10
60.44833441840277
 20
143.3049479166667
 30
0.0
  0
SPLINE
  5
FA
330
A
100
AcDbEntity
  8
LAYER_1
 62
     7
100
AcDbSpline
210
0.0
220
0.0
230
1.0
 70
     8
 71
     3
 72
     8
 73
     4
 74
     0
 42
0.0000000001
 43
0.0000000001
 40
0.0
 40
0.0
 40
0.0
 40
0.0
 40
1.0
 40
1.0
 40
1.0
 40
1.0
 10
59.32523328993055
 20
142.3785617404514
 30
0.0
 10
59.69006890190972
 20
142.2662516276042
 30
0.0
 10
60.0552490234375
 20
142.0977864583333
 30
0.0
 10
60.44833441840277
 20
142.5191216362847
 30
0.0
  0
SPLINE
  5
F9
330
A
100
AcDbEntity
  8
LAYER_1
 62
     7
100
AcDbSpline
210
0.0
220
0.0
230
1.0
 70
     8
 71
     3
 72
     8
 73
     4
 74
     0
 42
0.0000000001
 43
0.0000000001
 40
0.0
 40
0.0
 40
0.0
 40
0.0
 40
1.0
 40
1.0
 40
1.0
 40
1.0
 10
59.32523328993055
 20
141.7891059027778
 30
0.0
 10
59.69006890190972
 20
141.6767957899305
 30
0.0
 10
60.0552490234375
 20
141.5083306206597
 30
0.0
 10
60.44833441840277
 20
141.9293212890625
 30
0.0
  0
SPLINE
  5
F8
330
A
100
AcDbEntity
  8
LAYER_1
 62
     7
100
AcDbSpline
210
0.0
220
0.0
230
1.0
 70
     8
 71
     3
 72
     8
 73
     4
 74
     0
 42
0.0000000001
 43
0.0000000001
 40
0.0
 40
0.0
 40
0.0
 40
0.0
 40
1.0
 40
1.0
 40
1.0
 40
1.0
 10
59.32523328993055
 20
141.0029351128472
 30
0.0
 10
59.69006890190972
 20
140.890625
 30
0.0
 10
60.0552490234375
 20
140.7221598307291
 30
0.0
 10
60.44833441840277
 20
141.1434950086805
 30
0.0
  0
SPLINE
  5
F7
330
A
100
AcDbEntity
  8
LAYER_1
 62
     7
100
AcDbSpline
210
0.0
220
0.0
230
1.0
 70
     8
 71
     3
 72
     8
 73
     4
 74
     0
 42
0.0000000001
 43
0.0000000001
 40
0.0
 40
0.0
 40
0.0
 40
0.0
 40
1.0
 40
1.0
 40
1.0
 40
1.0
 10
59.32523328993055
 20
140.1888590494792
 30
0.0
 10
59.69006890190972
 20
140.0765489366319
 30
0.0
 10
60.0552490234375
 20
139.9080837673611
 30
0.0
 10
60.44833441840277
 20
140.3294189453125
 30
0.0
  0
SPLINE
  5
F6
330
A
100
AcDbEntity
  8
LAYER_1
 62
     7
100
AcDbSpline
210
0.0
220
0.0
230
1.0
 70
     8
 71
     3
 72
     8
 73
     4
 74
     0
 42
0.0000000001
 43
0.0000000001
 40
0.0
 40
0.0
 40
0.0
 40
0.0
 40
1.0
 40
1.0
 40
1.0
 40
1.0
 10
59.32523328993055
 20
139.2345675998264
 30
0.0
 10
59.69006890190972
 20
139.1222574869792
 30
0.0
 10
60.0552490234375
 20
138.9537923177083
 30
0.0
 10
60.44833441840277
 20
139.3747829861111
 30
0.0
  0
SPLINE
  5
F5
330
A
100
AcDbEntity
  8
LAYER_1
 62
     7
100
AcDbSpline
210
0.0
220
0.0
230
1.0
 70
     8
 71
     3
 72
     8
 73
     4
 74
     0
 42
0.0000000001
 43
0.0000000001
 40
0.0
 40
0.0
 40
0.0
 40
0.0
 40
1.0
 40
1.0
 40
1.0
 40
1.0
 10
59.32523328993055
 20
138.3639919704861
 30
0.0
 10
59.69006890190972
 20
138.2516818576389
 30
0.0
 10
60.0552490234375
 20
138.0832166883681
 30
0.0
 10
60.44833441840277
 20
138.5045518663195
 30
0.0
  0
SPLINE
  5
F4
330
A
100
AcDbEntity
  8
LAYER_1
 62
     7
100
AcDbSpline
210
0.0
220
0.0
230
1.0
 70
     8
 71
     3
 72
     8
 73
     4
 74
     0
 42
0.0000000001
 43
0.0000000001
 40
0.0
 40
0.0
 40
0.0
 40
0.0
 40
1.0
 40
1.0
 40
1.0
 40
1.0
 10
59.32523328993055
 20
137.4097005208333
 30
0.0
 10
59.69006890190972
 20
137.2973904079861
 30
0.0
 10
60.0552490234375
 20
137.1289252387153
 30
0.0
 10
60.44833441840277
 20
137.5499159071181
 30
0.0
  0
SPLINE
  5
F3
330
A
100
AcDbEntity
  8
LAYER_1
 62
     7
100
AcDbSpline
210
0.0
220
0.0
230
1.0
 70
     8
 71
     3
 72
     8
 73
     4
 74
     0
 42
0.0000000001
 43
0.0000000001
 40
0.0
 40
0.0
 40
0.0
 40
0.0
 40
1.0
 40
1.0
 40
1.0
 40
1.0
 10
59.32523328993055
 20
136.6235297309028
 30
0.0
 10
59.69006890190972
 20
136.5112196180556
 30
0.0
 10
60.0552490234375
 20
136.3427544487847
 30
0.0
 10
60.44833441840277
 20
136.7640896267361
 30
0.0
  0
SPLINE
  5
F2
330
A
100
AcDbEntity
  8
LAYER_1
 62
     7
100
AcDbSpline
210
0.0
220
0.0
230
1.0
 70
     8
 71
     3
 72
     8
 73
     4
 74
     0
 42
0.0000000001
 43
0.0000000001
 40
0.0
 40
0.0
 40
0.0
 40
0.0
 40
1.0
 40
1.0
 40
1.0
 40
1.0
 10
59.32523328993055
 20
135.7253933376736
 30
0.0
 10
59.69006890190972
 20
135.6130832248264
 30
0.0
 10
60.0552490234375
 20
135.4446180555555
 30
0.0
 10
60.44833441840277
 20
135.8656087239583
 30
0.0
  0
SPLINE
  5
F1
330
A
100
AcDbEntity
  8
LAYER_1
 62
     7
100
AcDbSpline
210
0.0
220
0.0
230
1.0
 70
     8
 71
     3
 72
     8
 73
     4
 74
     0
 42
0.0000000001
 43
0.0000000001
 40
0.0
 40
0.0
 40
0.0
 40
0.0
 40
1.0
 40
1.0
 40
1.0
 40
1.0
 10
59.32523328993055
 20
134.8269124348958
 30
0.0
 10
59.69006890190972
 20
134.7146023220486
 30
0.0
 10
60.0552490234375
 20
134.5461371527778
 30
0.0
 10
60.44833441840277
 20
134.9671278211806
 30
0.0
  0
SPLINE
  5
F0
330
A
100
AcDbEntity
  8
LAYER_1
 62
     7
100
AcDbSpline
210
0.0
220
0.0
230
1.0
 70
     8
 71
     3
 72
     8
 73
     4
 74
     0
 42
0.0000000001
 43
0.0000000001
 40
0.0
 40
0.0
 40
0.0
 40
0.0
 40
1.0
 40
1.0
 40
1.0
 40
1.0
 10
59.32523328993055
 20
134.125146484375
 30
0.0
 10
59.69006890190972
 20
134.0128363715278
 30
0.0
 10
60.0552490234375
 20
133.8443712022569
 30
0.0
 10
60.44833441840277
 20
134.2653618706597
 30
0.0
  0
SPLINE
  5
EF
330
A
100
AcDbEntity
  8
LAYER_1
 62
     7
100
AcDbSpline
210
0.0
220
0.0
230
1.0
 70
     8
 71
     3
 72
     8
 73
     4
 74
     0
 42
0.0000000001
 43
0.0000000001
 40
0.0
 40
0.0
 40
0.0
 40
0.0
 40
1.0
 40
1.0
 40
1.0
 40
1.0
 10
59.32523328993055
 20
133.2545708550347
 30
0.0
 10
59.69006890190972
 20
133.1426052517361
 30
0.0
 10
60.0552490234375
 20
132.9741400824653
 30
0.0
 10
60.44833441840277
 20
133.3951307508681
 30
0.0
  0
SPLINE
  5
EE
330
A
100
AcDbEntity
  8
LAYER_1
 62
     7
100
AcDbSpline
210
0.0
220
0.0
230
1.0
 70
     8
 71
     3
 72
     8
 73
     4
 74
     0
 42
0.0000000001
 43
0.0000000001
 40
0.0
 40
0.0
 40
0.0
 40
0.0
 40
1.0
 40
1.0
 40
1.0
 40
1.0
 10
59.32523328993055
 20
132.4125895182292
 30
0.0
 10
59.69006890190972
 20
132.3002794053819
 30
0.0
 10
60.0552490234375
 20
132.1318142361111
 30
0.0
 10
60.44833441840277
 20
132.5528049045139
 30
0.0
  0
SPLINE
  5
ED
330
A
100
AcDbEntity
  8
LAYER_1
 62
     7
100
AcDbSpline
210
0.0
220
0.0
230
1.0
 70
     8
 71
     3
 72
     8
 73
     4
 74
     0
 42
0.0000000001
 43
0.0000000001
 40
0.0
 40
0.0
 40
0.0
 40
0.0
 40
1.0
 40
1.0
 40
1.0
 40
1.0
 10
59.32523328993055
 20
131.6546685112847
 30
0.0
 10
59.69006890190972
 20
131.5423583984375
 30
0.0
 10
60.0552490234375
 20
131.3738932291667
 30
0.0
 10
60.44833441840277
 20
131.7948838975694
 30
0.0
  0
SPLINE
  5
EC
330
A
100
AcDbEntity
  8
LAYER_1
 62
     7
100
AcDbSpline
210
0.0
220
0.0
230
1.0
 70
     8
 71
     3
 72
     8
 73
     4
 74
     0
 42
0.0000000001
 43
0.0000000001
 40
0.0
 40
0.0
 40
0.0
 40
0.0
 40
1.0
 40
1.0
 40
1.0
 40
1.0
 10
59.32523328993055
 20
130.5877224392361
 30
0.0
 10
59.69006890190972
 20
130.4754123263889
 30
0.0
 10
60.0552490234375
 20
130.306947157118
 30
0.0
 10
60.44833441840277
 20
130.7282823350694
 30
0.0
  0
SPLINE
  5
EB
330
A
100
AcDbEntity
  8
LAYER_1
 62
     7
100
AcDbSpline
210
0.0
220
0.0
230
1.0
 70
     8
 71
     3
 72
     8
 73
     4
 74
     0
 42
0.0000000001
 43
0.0000000001
 40
0.0
 40
0.0
 40
0.0
 40
0.0
 40
1.0
 40
1.0
 40
1.0
 40
1.0
 10
59.32523328993055
 20
129.6895860460069
 30
0.0
 10
59.69006890190972
 20
129.5772759331597
 30
0.0
 10
60.0552490234375
 20
129.4088107638889
 30
0.0
 10
60.44833441840277
 20
129.8298014322917
 30
0.0
  0
SPLINE
  5
EA
330
A
100
AcDbEntity
  8
LAYER_1
 62
     7
100
AcDbSpline
210
0.0
220
0.0
230
1.0
 70
     8
 71
     3
 72
     8
 73
     4
 74
     0
 42
0.0000000001
 43
0.0000000001
 40
0.0
 40
0.0
 40
0.0
 40
0.0
 40
1.0
 40
1.0
 40
1.0
 40
1.0
 10
59.32523328993055
 20
128.9316650390625
 30
0.0
 10
59.69006890190972
 20
128.8193549262153
 30
0.0
 10
60.0552490234375
 20
128.6505452473958
 30
0.0
 10
60.44833441840277
 20
129.0718804253472
 30
0.0
  0
SPLINE
  5
E9
330
A
100
AcDbEntity
  8
LAYER_1
 62
     7
100
AcDbSpline
210
0.0
220
0.0
230
1.0
 70
     8
 71
     3
 72
     8
 73
     4
 74
     0
 42
0.0000000001
 43
0.0000000001
 40
0.0
 40
0.0
 40
0.0
 40
0.0
 40
1.0
 40
1.0
 40
1.0
 40
1.0
 10
59.32523328993055
 20
127.8368136935764
 30
0.0
 10
59.69006890190972
 20
127.7241590711805
 30
0.0
 10
60.0552490234375
 20
127.5560384114583
 30
0.0
 10
60.44833441840277
 20
127.9770290798611
 30
0.0
  0
SPLINE
  5
E8
330
A
100
AcDbEntity
  8
LAYER_1
 62
     7
100
AcDbSpline
210
0.0
220
0.0
230
1.0
 70
     8
 71
     3
 72
     8
 73
     4
 74
     0
 42
0.0000000001
 43
0.0000000001
 40
0.0
 40
0.0
 40
0.0
 40
0.0
 40
1.0
 40
1.0
 40
1.0
 40
1.0
 10
59.32523328993055
 20
127.0506429036458
 30
0.0
 10
59.69006890190972
 20
126.9383327907986
 30
0.0
 10
60.0552490234375
 20
126.7698676215278
 30
0.0
 10
60.44833441840277
 20
127.1908582899306
 30
0.0
  0
SPLINE
  5
E7
330
A
100
AcDbEntity
  8
LAYER_1
 62
     7
100
AcDbSpline
210
0.0
220
0.0
230
1.0
 70
     8
 71
     3
 72
     8
 73
     4
 74
     0
 42
0.0000000001
 43
0.0000000001
 40
0.0
 40
0.0
 40
0.0
 40
0.0
 40
1.0
 40
1.0
 40
1.0
 40
1.0
 10
59.32523328993055
 20
126.1242567274306
 30
0.0
 10
59.69006890190972
 20
126.0119466145833
 30
0.0
 10
60.0552490234375
 20
125.8434814453125
 30
0.0
 10
60.44833441840277
 20
126.2644721137153
 30
0.0
  0
SPLINE
  5
E6
330
A
100
AcDbEntity
  8
LAYER_1
 62
     7
100
AcDbSpline
210
0.0
220
0.0
230
1.0
 70
     8
 71
     3
 72
     8
 73
     4
 74
     0
 42
0.0000000001
 43
0.0000000001
 40
0.0
 40
0.0
 40
0.0
 40
0.0
 40
1.0
 40
1.0
 40
1.0
 40
1.0
 10
59.32523328993055
 20
125.3659912109375
 30
0.0
 10
59.69006890190972
 20
125.2540256076389
 30
0.0
 10
60.0552490234375
 20
125.0855604383681
 30
0.0
 10
60.44833441840277
 20
125.5065511067708
 30
0.0
  0
SPLINE
  5
E5
330
A
100
AcDbEntity
  8
LAYER_1
 62
     7
100
AcDbSpline
210
0.0
220
0.0
230
1.0
 70
     8
 71
     3
 72
     8
 73
     4
 74
     0
 42
0.0000000001
 43
0.0000000001
 40
0.0
 40
0.0
 40
0.0
 40
0.0
 40
1.0
 40
1.0
 40
1.0
 40
1.0
 10
59.32523328993055
 20
124.339697265625
 30
0.0
 10
59.69006890190972
 20
124.2273871527778
 30
0.0
 10
60.0552490234375
 20
124.0589219835069
 30
0.0
 10
60.44833441840277
 20
124.4802571614583
 30
0.0
  0
LWPOLYLINE
  5
E0
330
A
100
AcDbEntity
  8
LAYER_1
 62
     7
100
AcDbPolyline
 90
        3
 70
     0
 43
0.0
 10
81.41897515190972
 20
144.2874891493055
 10
82.73844672309028
 20
144.2874891493055
 10
82.73844672309028
 20
129.8580512152778
  0
SPLINE
  5
DF
330
A
100
AcDbEntity
  8
LAYER_1
 62
     7
100
AcDbSpline
210
0.0
220
0.0
230
1.0
 70
     8
 71
     3
 72
     8
 73
     4
 74
     0
 42
0.0000000001
 43
0.0000000001
 40
0.0
 40
0.0
 40
0.0
 40
0.0
 40
1.0
 40
1.0
 40
1.0
 40
1.0
 10
82.73672417534722
 20
143.8830349392361
 30
0.0
 10
82.96410047743055
 20
143.7524658203125
 30
0.0
 10
83.44296874999999
 20
143.6322319878472
 30
0.0
 10
83.6817138671875
 20
143.8234347873264
 30
0.0
  0
SPLINE
  5
DE
330
A
100
AcDbEntity
  8
LAYER_1
 62
     7
100
AcDbSpline
210
0.0
220
0.0
230
1.0
 70
     8
 71
     3
 72
     8
 73
     4
 74
     0
 42
0.0000000001
 43
0.0000000001
 40
0.0
 40
0.0
 40
0.0
 40
0.0
 40
1.0
 40
1.0
 40
1.0
 40
1.0
 10
82.73672417534722
 20
143.081361219618
 30
0.0
 10
82.96410047743055
 20
142.9504475911458
 30
0.0
 10
83.44296874999999
 20
142.8305582682291
 30
0.0
 10
83.6817138671875
 20
143.0217610677083
 30
0.0
  0
SPLINE
  5
DD
330
A
100
AcDbEntity
  8
LAYER_1
 62
     7
100
AcDbSpline
210
0.0
220
0.0
230
1.0
 70
     8
 71
     3
 72
     8
 73
     4
 74
     0
 42
0.0000000001
 43
0.0000000001
 40
0.0
 40
0.0
 40
0.0
 40
0.0
 40
1.0
 40
1.0
 40
1.0
 40
1.0
 10
82.73672417534722
 20
142.1970052083333
 30
0.0
 10
82.96410047743055
 20
142.0664360894097
 30
0.0
 10
83.44296874999999
 20
141.9462022569445
 30
0.0
 10
83.6817138671875
 20
142.1374050564236
 30
0.0
  0
SPLINE
  5
DC
330
A
100
AcDbEntity
  8
LAYER_1
 62
     7
100
AcDbSpline
210
0.0
220
0.0
230
1.0
 70
     8
 71
     3
 72
     8
 73
     4
 74
     0
 42
0.0000000001
 43
0.0000000001
 40
0.0
 40
0.0
 40
0.0
 40
0.0
 40
1.0
 40
1.0
 40
1.0
 40
1.0
 10
82.73672417534722
 20
141.3601915147569
 30
0.0
 10
82.96410047743055
 20
141.2292778862847
 30
0.0
 10
83.44296874999999
 20
141.1090440538195
 30
0.0
 10
83.6817138671875
 20
141.3002468532986
 30
0.0
  0
SPLINE
  5
DB
330
A
100
AcDbEntity
  8
LAYER_1
 62
     7
100
AcDbSpline
210
0.0
220
0.0
230
1.0
 70
     8
 71
     3
 72
     8
 73
     4
 74
     0
 42
0.0000000001
 43
0.0000000001
 40
0.0
 40
0.0
 40
0.0
 40
0.0
 40
1.0
 40
1.0
 40
1.0
 40
1.0
 10
82.73672417534722
 20
140.4152018229167
 30
0.0
 10
82.96410047743055
 20
140.2846327039931
 30
0.0
 10
83.44296874999999
 20
140.1643988715278
 30
0.0
 10
83.6817138671875
 20
140.3556016710069
 30
0.0
  0
SPLINE
  5
DA
330
A
100
AcDbEntity
  8
LAYER_1
 62
     7
100
AcDbSpline
210
0.0
220
0.0
230
1.0
 70
     8
 71
     3
 72
     8
 73
     4
 74
     0
 42
0.0000000001
 43
0.0000000001
 40
0.0
 40
0.0
 40
0.0
 40
0.0
 40
1.0
 40
1.0
 40
1.0
 40
1.0
 10
82.73672417534722
 20
139.4712456597222
 30
0.0
 10
82.96410047743055
 20
139.3406765407986
 30
0.0
 10
83.44296874999999
 20
139.2204427083333
 30
0.0
 10
83.6817138671875
 20
139.4116455078125
 30
0.0
  0
SPLINE
  5
D9
330
A
100
AcDbEntity
  8
LAYER_1
 62
     7
100
AcDbSpline
210
0.0
220
0.0
230
1.0
 70
     8
 71
     3
 72
     8
 73
     4
 74
     0
 42
0.0000000001
 43
0.0000000001
 40
0.0
 40
0.0
 40
0.0
 40
0.0
 40
1.0
 40
1.0
 40
1.0
 40
1.0
 10
82.73672417534722
 20
138.5982584635416
 30
0.0
 10
82.96410047743055
 20
138.467689344618
 30
0.0
 10
83.44296874999999
 20
138.3474555121528
 30
0.0
 10
83.6817138671875
 20
138.5386583116319
 30
0.0
  0
SPLINE
  5
D8
330
A
100
AcDbEntity
  8
LAYER_1
 62
     7
100
AcDbSpline
210
0.0
220
0.0
230
1.0
 70
     8
 71
     3
 72
     8
 73
     4
 74
     0
 42
0.0000000001
 43
0.0000000001
 40
0.0
 40
0.0
 40
0.0
 40
0.0
 40
1.0
 40
1.0
 40
1.0
 40
1.0
 10
82.73672417534722
 20
137.6298421223958
 30
0.0
 10
82.96410047743055
 20
137.4989284939236
 30
0.0
 10
83.44296874999999
 20
137.3790391710069
 30
0.0
 10
83.6817138671875
 20
137.5702419704861
 30
0.0
  0
SPLINE
  5
D7
330
A
100
AcDbEntity
  8
LAYER_1
 62
     7
100
AcDbSpline
210
0.0
220
0.0
230
1.0
 70
     8
 71
     3
 72
     8
 73
     4
 74
     0
 42
0.0000000001
 43
0.0000000001
 40
0.0
 40
0.0
 40
0.0
 40
0.0
 40
1.0
 40
1.0
 40
1.0
 40
1.0
 10
82.73672417534722
 20
136.828857421875
 30
0.0
 10
82.96410047743055
 20
136.6982883029514
 30
0.0
 10
83.44296874999999
 20
136.5780544704861
 30
0.0
 10
83.6817138671875
 20
136.7692572699653
 30
0.0
  0
SPLINE
  5
D6
330
A
100
AcDbEntity
  8
LAYER_1
 62
     7
100
AcDbSpline
210
0.0
220
0.0
230
1.0
 70
     8
 71
     3
 72
     8
 73
     4
 74
     0
 42
0.0000000001
 43
0.0000000001
 40
0.0
 40
0.0
 40
0.0
 40
0.0
 40
1.0
 40
1.0
 40
1.0
 40
1.0
 10
82.73672417534722
 20
135.7884385850694
 30
0.0
 10
82.96410047743055
 20
135.6578694661458
 30
0.0
 10
83.44296874999999
 20
135.5376356336805
 30
0.0
 10
83.6817138671875
 20
135.7288384331597
 30
0.0
  0
SPLINE
  5
D5
330
A
100
AcDbEntity
  8
LAYER_1
 62
     7
100
AcDbSpline
210
0.0
220
0.0
230
1.0
 70
     8
 71
     3
 72
     8
 73
     4
 74
     0
 42
0.0000000001
 43
0.0000000001
 40
0.0
 40
0.0
 40
0.0
 40
0.0
 40
1.0
 40
1.0
 40
1.0
 40
1.0
 10
82.73672417534722
 20
134.8200222439236
 30
0.0
 10
82.96410047743055
 20
134.6891086154514
 30
0.0
 10
83.44296874999999
 20
134.5688747829861
 30
0.0
 10
83.6817138671875
 20
134.7600775824653
 30
0.0
  0
SPLINE
  5
D4
330
A
100
AcDbEntity
  8
LAYER_1
 62
     7
100
AcDbSpline
210
0.0
220
0.0
230
1.0
 70
     8
 71
     3
 72
     8
 73
     4
 74
     0
 42
0.0000000001
 43
0.0000000001
 40
0.0
 40
0.0
 40
0.0
 40
0.0
 40
1.0
 40
1.0
 40
1.0
 40
1.0
 10
82.73672417534722
 20
133.8154324001736
 30
0.0
 10
82.96410047743055
 20
133.6845187717014
 30
0.0
 10
83.44296874999999
 20
133.5642849392361
 30
0.0
 10
83.6817138671875
 20
133.7558322482639
 30
0.0
  0
SPLINE
  5
D3
330
A
100
AcDbEntity
  8
LAYER_1
 62
     7
100
AcDbSpline
210
0.0
220
0.0
230
1.0
 70
     8
 71
     3
 72
     8
 73
     4
 74
     0
 42
0.0000000001
 43
0.0000000001
 40
0.0
 40
0.0
 40
0.0
 40
0.0
 40
1.0
 40
1.0
 40
1.0
 40
1.0
 10
82.73672417534722
 20
132.7870713975694
 30
0.0
 10
82.96410047743055
 20
132.6565022786458
 30
0.0
 10
83.44296874999999
 20
132.5362684461805
 30
0.0
 10
83.6817138671875
 20
132.7274712456597
 30
0.0
  0
SPLINE
  5
D2
330
A
100
AcDbEntity
  8
LAYER_1
 62
     7
100
AcDbSpline
210
0.0
220
0.0
230
1.0
 70
     8
 71
     3
 72
     8
 73
     4
 74
     0
 42
0.0000000001
 43
0.0000000001
 40
0.0
 40
0.0
 40
0.0
 40
0.0
 40
1.0
 40
1.0
 40
1.0
 40
1.0
 10
82.73672417534722
 20
131.9747178819444
 30
0.0
 10
82.96410047743055
 20
131.8441487630208
 30
0.0
 10
83.44296874999999
 20
131.7239149305555
 30
0.0
 10
83.6817138671875
 20
131.9151177300347
 30
0.0
  0
SPLINE
  5
D1
330
A
100
AcDbEntity
  8
LAYER_1
 62
     7
100
AcDbSpline
210
0.0
220
0.0
230
1.0
 70
     8
 71
     3
 72
     8
 73
     4
 74
     0
 42
0.0000000001
 43
0.0000000001
 40
0.0
 40
0.0
 40
0.0
 40
0.0
 40
1.0
 40
1.0
 40
1.0
 40
1.0
 10
82.73672417534722
 20
131.1368706597222
 30
0.0
 10
82.96410047743055
 20
131.0063015407986
 30
0.0
 10
83.44296874999999
 20
130.8860677083333
 30
0.0
 10
83.6817138671875
 20
131.0772705078125
 30
0.0
  0
LINE
  5
D0
330
A
100
AcDbEntity
  8
LAYER_1
 62
     7
100
AcDbLine
 10
61.76780598958333
 20
143.0241726345486
 30
0.0
 11
81.41897515190972
 21
143.0241726345486
 31
0.0
  0
LINE
  5
CF
330
A
100
AcDbEntity
  8
LAYER_1
 62
     7
100
AcDbLine
 10
61.76780598958333
 20
141.5923909505208
 30
0.0
 11
81.41897515190972
 21
141.5923909505208
 31
0.0
  0
LINE
  5
CE
330
A
100
AcDbEntity
  8
LAYER_1
 62
     7
100
AcDbLine
 10
61.76780598958333
 20
140.2450141059028
 30
0.0
 11
81.41897515190972
 21
140.2450141059028
 31
0.0
  0
LINE
  5
CD
330
A
100
AcDbEntity
  8
LAYER_1
 62
     7
100
AcDbLine
 10
61.76780598958333
 20
139.1222574869792
 30
0.0
 11
81.41897515190972
 21
139.1222574869792
 31
0.0
  0
LINE
  5
CC
330
A
100
AcDbEntity
  8
LAYER_1
 62
     7
100
AcDbLine
 10
61.76780598958333
 20
137.9150960286458
 30
0.0
 11
81.41897515190972
 21
137.9150960286458
 31
0.0
  0
LWPOLYLINE
  5
C4
330
A
100
AcDbEntity
  8
LAYER_1
 62
     7
100
AcDbPolyline
 90
        6
 70
     0
 43
0.0
 10
69.54407552083333
 20
84.37900119357639
 10
69.54407552083333
 20
132.6372097439236
 10
70.52661675347221
 20
137.3252956814236
 10
72.32323404947915
 20
137.3252956814236
 10
73.67095540364582
 20
132.6372097439236
 10
73.67095540364582
 20
85.41356336805555
  0
LINE
  5
C3
330
A
100
AcDbEntity
  8
LAYER_1
 62
     7
100
AcDbLine
 10
61.76780598958333
 20
136.9325547960069
 30
0.0
 11
70.32990180121527
 21
136.9325547960069
 31
0.0
  0
LINE
  5
C2
330
A
100
AcDbEntity
  8
LAYER_1
 62
     7
100
AcDbLine
 10
72.54785427517361
 20
136.9325547960069
 30
0.0
 11
81.41897515190972
 21
136.9325547960069
 31
0.0
  0
LINE
  5
C1
330
A
100
AcDbEntity
  8
LAYER_1
 62
     7
100
AcDbLine
 10
61.76780598958333
 20
135.7532986111111
 30
0.0
 11
70.07737630208332
 21
135.7532986111111
 31
0.0
  0
LINE
  5
C0
330
A
100
AcDbEntity
  8
LAYER_1
 62
     7
100
AcDbLine
 10
72.82862955729166
 20
135.7532986111111
 30
0.0
 11
81.41897515190972
 21
135.7532986111111
 31
0.0
  0
LINE
  5
BF
330
A
100
AcDbEntity
  8
LAYER_1
 62
     7
100
AcDbLine
 10
61.76780598958333
 20
134.7986626519097
 30
0.0
 11
69.90891113281249
 21
134.7986626519097
 31
0.0
  0
LINE
  5
BE
330
A
100
AcDbEntity
  8
LAYER_1
 62
     7
100
AcDbLine
 10
73.13731011284722
 20
134.7986626519097
 30
0.0
 11
81.41897515190972
 21
134.7986626519097
 31
0.0
  0
LINE
  5
BD
330
A
100
AcDbEntity
  8
LAYER_1
 62
     7
100
AcDbLine
 10
61.76780598958333
 20
133.6759060329861
 30
0.0
 11
69.68429090711805
 21
133.6759060329861
 31
0.0
  0
LINE
  5
BC
330
A
100
AcDbEntity
  8
LAYER_1
 62
     7
100
AcDbLine
 10
73.44633517795138
 20
133.6759060329861
 30
0.0
 11
81.41897515190972
 21
133.6759060329861
 31
0.0
  0
LINE
  5
BB
330
A
100
AcDbEntity
  8
LAYER_1
 62
     7
100
AcDbLine
 10
61.76780598958333
 20
132.6372097439236
 30
0.0
 11
69.48792046440971
 21
132.6372097439236
 31
0.0
  0
LINE
  5
BA
330
A
100
AcDbEntity
  8
LAYER_1
 62
     7
100
AcDbLine
 10
73.72711046006944
 20
132.6372097439236
 30
0.0
 11
81.41897515190972
 21
132.6372097439236
 31
0.0
  0
LINE
  5
B9
330
A
100
AcDbEntity
  8
LAYER_1
 62
     7
100
AcDbLine
 10
61.76780598958333
 20
131.4579535590278
 30
0.0
 11
69.51582573784722
 21
131.4579535590278
 31
0.0
  0
LINE
  5
B8
330
A
100
AcDbEntity
  8
LAYER_1
 62
     7
100
AcDbLine
 10
73.72711046006944
 20
131.4579535590278
 30
0.0
 11
81.41897515190972
 21
131.4579535590278
 31
0.0
  0
LINE
  5
B7
330
A
100
AcDbEntity
  8
LAYER_1
 62
     7
100
AcDbLine
 10
80.21181369357639
 20
131.4810356987847
 30
0.0
 11
80.21181369357639
 21
85.54688856336804
 31
0.0
  0
LINE
  5
B6
330
A
100
AcDbEntity
  8
LAYER_1
 62
     7
100
AcDbLine
 10
78.94849717881944
 20
131.4810356987847
 30
0.0
 11
78.94849717881944
 21
85.54688856336804
 31
0.0
  0
LINE
  5
B5
330
A
100
AcDbEntity
  8
LAYER_1
 62
     7
100
AcDbLine
 10
77.76958550347221
 20
131.4810356987847
 30
0.0
 11
77.76958550347221
 21
85.51967230902777
 31
0.0
  0
LINE
  5
B4
330
A
100
AcDbEntity
  8
LAYER_1
 62
     7
100
AcDbLine
 10
76.59032931857638
 20
131.4427951388889
 30
0.0
 11
76.59032931857638
 21
86.10568305121527
 31
0.0
  0
LINE
  5
B3
330
A
100
AcDbEntity
  8
LAYER_1
 62
     7
100
AcDbLine
 10
75.62191297743055
 20
131.4810356987847
 30
0.0
 11
75.62191297743055
 21
87.06273057725694
 31
0.0
  0
LINE
  5
B2
330
A
100
AcDbEntity
  8
LAYER_1
 62
     7
100
AcDbLine
 10
74.69552680121527
 20
131.4810356987847
 30
0.0
 11
74.69552680121527
 21
86.59695366753472
 31
0.0
  0
LINE
  5
B1
330
A
100
AcDbEntity
  8
LAYER_1
 62
     7
100
AcDbLine
 10
68.58943956163193
 20
131.4810356987847
 30
0.0
 11
68.58943956163193
 21
85.0149658203125
 31
0.0
  0
LINE
  5
B0
330
A
100
AcDbEntity
  8
LAYER_1
 62
     7
100
AcDbLine
 10
67.66305338541666
 20
131.4810356987847
 30
0.0
 11
67.66305338541666
 21
85.40012749565972
 31
0.0
  0
LINE
  5
AF
330
A
100
AcDbEntity
  8
LAYER_1
 62
     7
100
AcDbLine
 10
66.52617187499999
 20
131.4810356987847
 30
0.0
 11
66.52617187499999
 21
85.40012749565972
 31
0.0
  0
LINE
  5
AE
330
A
100
AcDbEntity
  8
LAYER_1
 62
     7
100
AcDbLine
 10
65.3048855251736
 20
131.4810356987847
 30
0.0
 11
65.3048855251736
 21
85.3870361328125
 31
0.0
  0
LINE
  5
AD
330
A
100
AcDbEntity
  8
LAYER_1
 62
     7
100
AcDbLine
 10
64.12597384982638
 20
131.4810356987847
 30
0.0
 11
64.12597384982638
 21
85.3870361328125
 31
0.0
  0
LINE
  5
AC
330
A
100
AcDbEntity
  8
LAYER_1
 62
     7
100
AcDbLine
 10
62.90468749999999
 20
131.4810356987847
 30
0.0
 11
62.90468749999999
 21
85.3870361328125
 31
0.0
  0
LINE
  5
AB
330
A
100
AcDbEntity
  8
LAYER_1
 62
     7
100
AcDbLine
 10
104.8631944444444
 20
85.52483995225694
 30
0.0
 11
108.0399169921875
 21
85.52483995225694
 31
0.0
  0
LINE
  5
AA
330
A
100
AcDbEntity
  8
LAYER_1
 62
     7
100
AcDbLine
 10
104.626171875
 20
156.9172092013889
 30
0.0
 11
108.0519748263889
 21
157.8067328559028
 31
0.0
  0
LINE
  5
A9
330
A
100
AcDbEntity
  8
LAYER_1
 62
     7
100
AcDbLine
 10
37.19359537760416
 20
85.26439073350694
 30
0.0
 11
33.96967502170138
 21
85.26439073350694
 31
0.0
  0
LINE
  5
A8
330
A
100
AcDbEntity
  8
LAYER_1
 62
     7
100
AcDbLine
 10
37.25939670138889
 20
80.98213704427083
 30
0.0
 11
33.58175726996527
 21
80.98213704427083
 31
0.0
  0
LWPOLYLINE
  5
A0
330
A
100
AcDbEntity
  8
LAYER_1
 62
     7
100
AcDbPolyline
 90
        6
 70
     0
 43
0.0
 10
69.60023057725694
 20
80.00476345486111
 10
69.60023057725694
 20
68.71415201822916
 10
70.91970214843749
 20
63.38011067708333
 10
72.71631944444444
 20
63.38011067708333
 10
73.86732584635416
 20
68.60184190538193
 10
73.86732584635416
 20
80.96801215277777
  0
LINE
  5
9F
330
A
100
AcDbEntity
  8
LAYER_1
 62
     7
100
AcDbLine
 10
61.85186631944444
 20
68.79821234809027
 30
0.0
 11
69.54407552083333
 21
68.79821234809027
 31
0.0
  0
LINE
  5
9E
330
A
100
AcDbEntity
  8
LAYER_1
 62
     7
100
AcDbLine
 10
73.95138617621527
 20
68.79821234809027
 30
0.0
 11
81.53128526475693
 21
68.79821234809027
 31
0.0
  0
LINE
  5
9D
330
A
100
AcDbEntity
  8
LAYER_1
 62
     7
100
AcDbLine
 10
80.26796874999999
 20
81.17850748697916
 30
0.0
 11
80.26796874999999
 21
68.79821234809027
 31
0.0
  0
LINE
  5
9C
330
A
100
AcDbEntity
  8
LAYER_1
 62
     7
100
AcDbLine
 10
78.97674696180555
 20
81.17850748697916
 30
0.0
 11
78.97674696180555
 21
68.79821234809027
 31
0.0
  0
LINE
  5
9B
330
A
100
AcDbEntity
  8
LAYER_1
 62
     7
100
AcDbLine
 10
77.76958550347221
 20
81.17850748697916
 30
0.0
 11
77.76958550347221
 21
68.79821234809027
 31
0.0
  0
LINE
  5
9A
330
A
100
AcDbEntity
  8
LAYER_1
 62
     7
100
AcDbLine
 10
76.75879448784721
 20
81.51819390190971
 30
0.0
 11
76.75879448784721
 21
68.79821234809027
 31
0.0
  0
LINE
  5
99
330
A
100
AcDbEntity
  8
LAYER_1
 62
     7
100
AcDbLine
 10
75.63603786892361
 20
82.66058756510417
 30
0.0
 11
75.63603786892361
 21
68.79821234809027
 31
0.0
  0
LINE
  5
98
330
A
100
AcDbEntity
  8
LAYER_1
 62
     7
100
AcDbLine
 10
74.70965169270832
 20
81.88302951388889
 30
0.0
 11
74.70965169270832
 21
68.79821234809027
 31
0.0
  0
LINE
  5
97
330
A
100
AcDbEntity
  8
LAYER_1
 62
     7
100
AcDbLine
 10
68.67384440104166
 20
80.73477918836805
 30
0.0
 11
68.67384440104166
 21
68.79821234809027
 31
0.0
  0
LINE
  5
96
330
A
100
AcDbEntity
  8
LAYER_1
 62
     7
100
AcDbLine
 10
67.63514811197916
 20
80.98385959201389
 30
0.0
 11
67.63514811197916
 21
68.79821234809027
 31
0.0
  0
LINE
  5
95
330
A
100
AcDbEntity
  8
LAYER_1
 62
     7
100
AcDbLine
 10
66.54029676649304
 20
80.98385959201389
 30
0.0
 11
66.54029676649304
 21
68.79821234809027
 31
0.0
  0
LINE
  5
94
330
A
100
AcDbEntity
  8
LAYER_1
 62
     7
100
AcDbLine
 10
65.3048855251736
 20
80.98385959201389
 30
0.0
 11
65.3048855251736
 21
68.79821234809027
 31
0.0
  0
LINE
  5
93
330
A
100
AcDbEntity
  8
LAYER_1
 62
     7
100
AcDbLine
 10
64.12597384982638
 20
80.98489312065972
 30
0.0
 11
64.12597384982638
 21
68.79821234809027
 31
0.0
  0
LINE
  5
92
330
A
100
AcDbEntity
  8
LAYER_1
 62
     7
100
AcDbLine
 10
62.97496744791666
 20
80.98385959201389
 30
0.0
 11
62.97496744791666
 21
68.79821234809027
 31
0.0
  0
LINE
  5
91
330
A
100
AcDbEntity
  8
LAYER_1
 62
     7
100
AcDbLine
 10
61.82637261284722
 20
58.90768771701389
 30
0.0
 11
81.53473036024305
 21
58.90768771701389
 31
0.0
  0
LINE
  5
90
330
A
100
AcDbEntity
  8
LAYER_1
 62
     7
100
AcDbLine
 10
61.82637261284722
 20
60.07454155815972
 30
0.0
 11
81.53473036024305
 21
60.07454155815972
 31
0.0
  0
LINE
  5
8F
330
A
100
AcDbEntity
  8
LAYER_1
 62
     7
100
AcDbLine
 10
61.82637261284722
 20
61.21073404947916
 30
0.0
 11
81.53473036024305
 21
61.21073404947916
 31
0.0
  0
LINE
  5
8E
330
A
100
AcDbEntity
  8
LAYER_1
 62
     7
100
AcDbLine
 10
61.82637261284722
 20
62.25459798177083
 30
0.0
 11
81.53473036024305
 21
62.25459798177083
 31
0.0
  0
LINE
  5
8D
330
A
100
AcDbEntity
  8
LAYER_1
 62
     7
100
AcDbLine
 10
61.82637261284722
 20
63.32946777343749
 30
0.0
 11
81.53473036024305
 21
63.32946777343749
 31
0.0
  0
LINE
  5
8C
330
A
100
AcDbEntity
  8
LAYER_1
 62
     7
100
AcDbLine
 10
61.82637261284722
 20
67.75090332031249
 30
0.0
 11
69.77730848524305
 21
67.75090332031249
 31
0.0
  0
LINE
  5
8B
330
A
100
AcDbEntity
  8
LAYER_1
 62
     7
100
AcDbLine
 10
73.73744574652777
 20
67.75090332031249
 30
0.0
 11
81.53473036024305
 21
67.75090332031249
 31
0.0
  0
LINE
  5
8A
330
A
100
AcDbEntity
  8
LAYER_1
 62
     7
100
AcDbLine
 10
61.82637261284722
 20
66.58404947916667
 30
0.0
 11
70.02294379340277
 21
66.58404947916667
 31
0.0
  0
LINE
  5
89
330
A
100
AcDbEntity
  8
LAYER_1
 62
     7
100
AcDbLine
 10
73.55313313802083
 20
66.58404947916667
 30
0.0
 11
81.53473036024305
 21
66.58404947916667
 31
0.0
  0
LINE
  5
88
330
A
100
AcDbEntity
  8
LAYER_1
 62
     7
100
AcDbLine
 10
61.82637261284722
 20
65.54018554687499
 30
0.0
 11
70.32990180121527
 21
65.54018554687499
 31
0.0
  0
LINE
  5
87
330
A
100
AcDbEntity
  8
LAYER_1
 62
     7
100
AcDbLine
 10
73.27683648003472
 20
65.54018554687499
 30
0.0
 11
81.53473036024305
 21
65.54018554687499
 31
0.0
  0
LINE
  5
86
330
A
100
AcDbEntity
  8
LAYER_1
 62
     7
100
AcDbLine
 10
61.82637261284722
 20
64.49597710503471
 30
0.0
 11
70.5448757595486
 21
64.49597710503471
 31
0.0
  0
LINE
  5
85
330
A
100
AcDbEntity
  8
LAYER_1
 62
     7
100
AcDbLine
 10
73.00053982204861
 20
64.49597710503471
 30
0.0
 11
81.53473036024305
 21
64.49597710503471
 31
0.0
  0
LINE
  5
84
330
A
100
AcDbEntity
  8
LAYER_1
 62
     7
100
AcDbLine
 10
104.9569010416667
 20
53.65805121527777
 30
0.0
 11
109.0107449001736
 21
54.69847005208333
 31
0.0
  0
LINE
  5
83
330
A
100
AcDbEntity
  8
LAYER_1
 62
     7
100
AcDbLine
 10
37.33484429253472
 20
34.8102783203125
 30
0.0
 11
33.37057291666667
 21
33.59278157552083
 31
0.0
  0
LINE
  5
82
330
A
100
AcDbEntity
  8
LAYER_1
 62
     7
100
AcDbLine
 10
104.9569010416667
 20
81.16541612413194
 30
0.0
 11
107.9913411458333
 21
81.16541612413194
 31
0.0
  0
HATCH
  5
81
330
A
100
AcDbEntity
  8
LAYER_1
 62
     7
100
AcDbHatch
 10
0.0
 20
0.0
 30
0.0
210
0.0
220
0.0
230
1.0
  2
SOLID
 70
     1
 71
     0
 91
        1
 92
        1
 93
        1
 72
     4
 94
        3
 73
     0
 74
     0
 95
       17
 96
       13
 40
0.0
 40
0.0
 40
0.0
 40
0.0
 40
1.0
 40
1.0
 40
1.0
 40
2.0
 40
2.0
 40
2.0
 40
3.0
 40
3.0
 40
3.0
 40
4.0
 40
4.0
 40
4.0
 40
4.0
 10
61.58108181423611
 20
149.2332682291666
 10
61.91422254774305
 20
149.2332682291666
 10
62.18431803385416
 20
149.5033637152778
 10
62.18431803385416
 20
149.8368489583333
 10
62.18431803385416
 20
150.1699896918403
 10
61.91422254774305
 20
150.4400851779514
 10
61.58108181423611
 20
150.4400851779514
 10
61.24794108072916
 20
150.4400851779514
 10
60.97784559461805
 20
150.1699896918403
 10
60.97784559461805
 20
149.8368489583333
 10
60.97784559461805
 20
149.5033637152778
 10
61.24794108072916
 20
149.2332682291666
 10
61.58108181423611
 20
149.2332682291666
 97
        0
 75
     0
 76
     1
 98
        1
 10
0.0
 20
0.0
  0
HATCH
  5
80
330
A
100
AcDbEntity
  8
LAYER_1
 62
     7
100
AcDbHatch
 10
0.0
 20
0.0
 30
0.0
210
0.0
220
0.0
230
1.0
  2
SOLID
 70
     1
 71
     0
 91
        1
 92
        1
 93
        1
 72
     4
 94
        3
 73
     0
 74
     0
 95
       56
 96
       52
 40
0.0
 40
0.0
 40
0.0
 40
0.0
 40
1.0
 40
1.0
 40
1.0
 40
2.0
 40
2.0
 40
2.0
 40
3.0
 40
3.0
 40
3.0
 40
4.0
 40
4.0
 40
4.0
 40
5.0
 40
5.0
 40
5.0
 40
6.0
 40
6.0
 40
6.0
 40
7.0
 40
7.0
 40
7.0
 40
8.0
 40
8.0
 40
8.0
 40
9.0
 40
9.0
 40
9.0
 40
10.0
 40
10.0
 40
10.0
 40
11.0
 40
11.0
 40
11.0
 40
12.0
 40
12.0
 40
12.0
 40
13.0
 40
13.0
 40
13.0
 40
14.0
 40
14.0
 40
14.0
 40
15.0
 40
15.0
 40
15.0
 40
16.0
 40
16.0
 40
16.0
 40
17.0
 40
17.0
 40
17.0
 40
17.0
 10
37.33277723524305
 20
152.2036295572917
 10
37.30831705729166
 20
152.7520887586805
 10
36.853564453125
 20
152.9250325520833
 10
36.4535888671875
 20
152.9250325520833
 10
36.15214301215278
 20
152.9250325520833
 10
35.64330240885416
 20
152.8409722222222
 10
35.64330240885416
 20
152.302503797743
 10
35.64330240885416
 20
152.0010579427083
 10
35.85552029079861
 20
151.9021837022569
 10
36.06325954861111
 20
151.8529188368055
 10
36.06325954861111
 20
151.8529188368055
 10
37.07611762152777
 20
151.6207194010416
 10
37.07611762152777
 20
151.6207194010416
 10
37.53534884982638
 20
151.5118543836805
 10
37.88123643663194
 20
151.2352132161458
 10
37.88123643663194
 20
150.6719401041667
 10
37.88123643663194
 20
149.8320258246528
 10
37.10057779947916
 20
149.5998263888889
 10
36.49286295572917
 20
149.5998263888889
 10
35.83588324652777
 20
149.5998263888889
 10
35.57887912326389
 20
149.7975748697917
 10
35.42074924045139
 20
149.9408908420139
 10
35.11930338541666
 20
150.212708875868
 10
35.06004774305556
 20
150.5089870876736
 10
35.06004774305556
 20
150.8400607638889
 10
35.06004774305556
 20
150.8400607638889
 10
35.50963270399306
 20
150.8400607638889
 10
35.50963270399306
 20
150.8400607638889
 10
35.50963270399306
 20
150.1978949652778
 10
36.03363172743055
 20
150.0101372612847
 10
36.48803982204861
 20
150.0101372612847
 10
36.83392740885417
 20
150.0101372612847
 10
37.41683756510416
 20
150.0990207248264
 10
37.41683756510416
 20
150.607861328125
 10
37.41683756510416
 20
150.9782090928819
 10
37.24389377170139
 20
151.0970648871528
 10
36.66098361545139
 20
151.2352132161458
 10
36.66098361545139
 20
151.2352132161458
 10
35.93475748697917
 20
151.403333875868
 10
35.93475748697917
 20
151.403333875868
 10
35.70255805121528
 20
151.4577663845486
 10
35.17855902777777
 20
151.6207194010416
 10
35.17855902777777
 20
152.2380805121528
 10
35.17855902777777
 20
152.7917073567708
 10
35.53926052517361
 20
153.3349989149305
 10
36.39915635850694
 20
153.3349989149305
 10
37.63904622395833
 20
153.3349989149305
 10
37.76272515190972
 20
152.5939588758681
 10
37.78236219618055
 20
152.2036295572917
 10
37.78236219618055
 20
152.2036295572917
 10
37.33277723524305
 20
152.2036295572917
 10
37.33277723524305
 20
152.2036295572917
 97
        0
 75
     0
 76
     1
 98
        1
 10
0.0
 20
0.0
  0
HATCH
  5
7F
330
A
100
AcDbEntity
  8
LAYER_1
 62
     7
100
AcDbHatch
 10
0.0
 20
0.0
 30
0.0
210
0.0
220
0.0
230
1.0
  2
SOLID
 70
     1
 71
     0
 91
        2
 92
       16
 93
        1
 72
     4
 94
        3
 73
     0
 74
     0
 95
       20
 96
       16
 40
0.0
 40
0.0
 40
0.0
 40
0.0
 40
1.0
 40
1.0
 40
1.0
 40
2.0
 40
2.0
 40
2.0
 40
3.0
 40
3.0
 40
3.0
 40
4.0
 40
4.0
 40
4.0
 40
5.0
 40
5.0
 40
5.0
 40
5.0
 10
39.01639539930555
 20
151.6007378472222
 10
39.01639539930555
 20
151.6007378472222
 10
39.96999782986111
 20
151.6007378472222
 10
39.96999782986111
 20
151.6007378472222
 10
40.39960123697917
 20
151.6007378472222
 10
40.69140082465277
 20
151.7588677300347
 10
40.69140082465277
 20
152.2380805121528
 10
40.69140082465277
 20
152.6880099826389
 10
40.38478732638889
 20
152.8309814453125
 10
39.98963487413194
 20
152.8309814453125
 10
39.98963487413194
 20
152.8309814453125
 10
39.01639539930555
 20
152.8309814453125
 10
39.01639539930555
 20
152.8309814453125
 10
39.01639539930555
 20
152.8309814453125
 10
39.01639539930555
 20
151.6007378472222
 10
39.01639539930555
 20
151.6007378472222
 97
        0
 92
        1
 93
        1
 72
     4
 94
        3
 73
     0
 74
     0
 95
       26
 96
       22
 40
0.0
 40
0.0
 40
0.0
 40
0.0
 40
1.0
 40
1.0
 40
1.0
 40
2.0
 40
2.0
 40
2.0
 40
3.0
 40
3.0
 40
3.0
 40
4.0
 40
4.0
 40
4.0
 40
5.0
 40
5.0
 40
5.0
 40
6.0
 40
6.0
 40
6.0
 40
7.0
 40
7.0
 40
7.0
 40
7.0
 10
39.01639539930555
 20
149.6938774956597
 10
39.01639539930555
 20
149.6938774956597
 10
38.5371826171875
 20
149.6938774956597
 10
38.5371826171875
 20
149.6938774956597
 10
38.5371826171875
 20
149.6938774956597
 10
38.5371826171875
 20
153.2412923177083
 10
38.5371826171875
 20
153.2412923177083
 10
38.5371826171875
 20
153.2412923177083
 10
40.13295084635416
 20
153.2412923177083
 10
40.13295084635416
 20
153.2412923177083
 10
40.78993055555555
 20
153.2412923177083
 10
41.18542751736111
 20
152.8161675347222
 10
41.18542751736111
 20
152.2432481553819
 10
41.18542751736111
 20
151.7492214626736
 10
40.90361870659722
 20
151.190771484375
 10
40.13295084635416
 20
151.190771484375
 10
40.13295084635416
 20
151.190771484375
 10
39.01639539930555
 20
151.190771484375
 10
39.01639539930555
 20
151.190771484375
 10
39.01639539930555
 20
151.190771484375
 10
39.01639539930555
 20
149.6938774956597
 10
39.01639539930555
 20
149.6938774956597
 97
        0
 75
     0
 76
     1
 98
        1
 10
0.0
 20
0.0
  0
HATCH
  5
7E
330
A
100
AcDbEntity
  8
LAYER_1
 62
     7
100
AcDbHatch
 10
0.0
 20
0.0
 30
0.0
210
0.0
220
0.0
230
1.0
  2
SOLID
 70
     1
 71
     0
 91
        1
 92
        1
 93
        1
 72
     4
 94
        3
 73
     0
 74
     0
 95
       41
 96
       37
 40
0.0
 40
0.0
 40
0.0
 40
0.0
 40
1.0
 40
1.0
 40
1.0
 40
2.0
 40
2.0
 40
2.0
 40
3.0
 40
3.0
 40
3.0
 40
4.0
 40
4.0
 40
4.0
 40
5.0
 40
5.0
 40
5.0
 40
6.0
 40
6.0
 40
6.0
 40
7.0
 40
7.0
 40
7.0
 40
8.0
 40
8.0
 40
8.0
 40
9.0
 40
9.0
 40
9.0
 40
10.0
 40
10.0
 40
10.0
 40
11.0
 40
11.0
 40
11.0
 40
12.0
 40
12.0
 40
12.0
 40
12.0
 10
44.45
 20
149.6938774956597
 10
44.45
 20
149.6938774956597
 10
41.83138292100694
 20
149.6938774956597
 10
41.83138292100694
 20
149.6938774956597
 10
41.83138292100694
 20
149.6938774956597
 10
41.83138292100694
 20
153.2412923177083
 10
41.83138292100694
 20
153.2412923177083
 10
41.83138292100694
 20
153.2412923177083
 10
44.41520453559028
 20
153.2412923177083
 10
44.41520453559028
 20
153.2412923177083
 10
44.41520453559028
 20
153.2412923177083
 10
44.41520453559028
 20
152.8161675347222
 10
44.41520453559028
 20
152.8161675347222
 10
44.41520453559028
 20
152.8161675347222
 10
42.310595703125
 20
152.8161675347222
 10
42.310595703125
 20
152.8161675347222
 10
42.310595703125
 20
152.8161675347222
 10
42.310595703125
 20
151.7292399088541
 10
42.310595703125
 20
151.7292399088541
 10
42.310595703125
 20
151.7292399088541
 10
44.25225151909722
 20
151.7292399088541
 10
44.25225151909722
 20
151.7292399088541
 10
44.25225151909722
 20
151.7292399088541
 10
44.25225151909722
 20
151.3044596354167
 10
44.25225151909722
 20
151.3044596354167
 10
44.25225151909722
 20
151.3044596354167
 10
42.310595703125
 20
151.3044596354167
 10
42.310595703125
 20
151.3044596354167
 10
42.310595703125
 20
151.3044596354167
 10
42.310595703125
 20
150.1186577690972
 10
42.310595703125
 20
150.1186577690972
 10
42.310595703125
 20
150.1186577690972
 10
44.45
 20
150.1186577690972
 10
44.45
 20
150.1186577690972
 10
44.45
 20
150.1186577690972
 10
44.45
 20
149.6938774956597
 10
44.45
 20
149.6938774956597
 97
        0
 75
     0
 76
     1
 98
        1
 10
0.0
 20
0.0
  0
HATCH
  5
7D
330
A
100
AcDbEntity
  8
LAYER_1
 62
     7
100
AcDbHatch
 10
0.0
 20
0.0
 30
0.0
210
0.0
220
0.0
230
1.0
  2
SOLID
 70
     1
 71
     0
 91
        1
 92
        1
 93
        1
 72
     4
 94
        3
 73
     0
 74
     0
 95
       35
 96
       31
 40
0.0
 40
0.0
 40
0.0
 40
0.0
 40
1.0
 40
1.0
 40
1.0
 40
2.0
 40
2.0
 40
2.0
 40
3.0
 40
3.0
 40
3.0
 40
4.0
 40
4.0
 40
4.0
 40
5.0
 40
5.0
 40
5.0
 40
6.0
 40
6.0
 40
6.0
 40
7.0
 40
7.0
 40
7.0
 40
8.0
 40
8.0
 40
8.0
 40
9.0
 40
9.0
 40
9.0
 40
10.0
 40
10.0
 40
10.0
 40
10.0
 10
47.5660888671875
 20
152.1740017361111
 10
47.43276367187499
 20
152.7965304904514
 10
46.91393229166666
 20
152.910218641493
 10
46.57321234809027
 20
152.910218641493
 10
45.93104654947916
 20
152.910218641493
 10
45.41221516927083
 20
152.4358289930555
 10
45.41221516927083
 20
151.5022081163194
 10
45.41221516927083
 20
150.6671169704861
 10
45.70849338107639
 20
150.024951171875
 10
46.58802625868055
 20
150.024951171875
 10
46.89911838107638
 20
150.024951171875
 10
47.43758680555555
 20
150.1730902777778
 10
47.60088433159722
 20
150.9981906467014
 10
47.60088433159722
 20
150.9981906467014
 10
48.065283203125
 20
150.9981906467014
 10
48.065283203125
 20
150.9981906467014
 10
47.86753472222222
 20
149.6594265407986
 10
46.78060709635416
 20
149.5998263888889
 10
46.51395670572916
 20
149.5998263888889
 10
45.70849338107639
 20
149.5998263888889
 10
44.9181884765625
 20
150.1238254123264
 10
44.9181884765625
 20
151.4873942057292
 10
44.9181884765625
 20
152.5791449652778
 10
45.54071723090277
 20
153.3349989149305
 10
46.57321234809027
 20
153.3349989149305
 10
47.48719618055555
 20
153.3349989149305
 10
47.96158582899305
 20
152.7669026692708
 10
48.03048773871527
 20
152.1740017361111
 10
48.03048773871527
 20
152.1740017361111
 10
47.5660888671875
 20
152.1740017361111
 10
47.5660888671875
 20
152.1740017361111
 97
        0
 75
     0
 76
     1
 98
        1
 10
0.0
 20
0.0
  0
HATCH
  5
7C
330
A
100
AcDbEntity
  8
LAYER_1
 62
     7
100
AcDbHatch
 10
0.0
 20
0.0
 30
0.0
210
0.0
220
0.0
230
1.0
  2
SOLID
 70
     1
 71
     0
 91
        1
 92
        1
 93
        1
 72
     4
 94
        3
 73
     0
 74
     0
 95
       17
 96
       13
 40
0.0
 40
0.0
 40
0.0
 40
0.0
 40
1.0
 40
1.0
 40
1.0
 40
2.0
 40
2.0
 40
2.0
 40
3.0
 40
3.0
 40
3.0
 40
4.0
 40
4.0
 40
4.0
 40
4.0
 10
49.19493001302083
 20
149.6938774956597
 10
49.19493001302083
 20
149.6938774956597
 10
48.71571723090278
 20
149.6938774956597
 10
48.71571723090278
 20
149.6938774956597
 10
48.71571723090278
 20
149.6938774956597
 10
48.71571723090278
 20
153.2412923177083
 10
48.71571723090278
 20
153.2412923177083
 10
48.71571723090278
 20
153.2412923177083
 10
49.19493001302083
 20
153.2412923177083
 10
49.19493001302083
 20
153.2412923177083
 10
49.19493001302083
 20
153.2412923177083
 10
49.19493001302083
 20
149.6938774956597
 10
49.19493001302083
 20
149.6938774956597
 97
        0
 75
     0
 76
     1
 98
        1
 10
0.0
 20
0.0
  0
HATCH
  5
7B
330
A
100
AcDbEntity
  8
LAYER_1
 62
     7
100
AcDbHatch
 10
0.0
 20
0.0
 30
0.0
210
0.0
220
0.0
230
1.0
  2
SOLID
 70
     1
 71
     0
 91
        1
 92
        1
 93
        1
 72
     4
 94
        3
 73
     0
 74
     0
 95
       35
 96
       31
 40
0.0
 40
0.0
 40
0.0
 40
0.0
 40
1.0
 40
1.0
 40
1.0
 40
2.0
 40
2.0
 40
2.0
 40
3.0
 40
3.0
 40
3.0
 40
4.0
 40
4.0
 40
4.0
 40
5.0
 40
5.0
 40
5.0
 40
6.0
 40
6.0
 40
6.0
 40
7.0
 40
7.0
 40
7.0
 40
8.0
 40
8.0
 40
8.0
 40
9.0
 40
9.0
 40
9.0
 40
10.0
 40
10.0
 40
10.0
 40
10.0
 10
50.54230685763888
 20
149.6938774956597
 10
50.54230685763888
 20
149.6938774956597
 10
50.06309407552083
 20
149.6938774956597
 10
50.06309407552083
 20
149.6938774956597
 10
50.06309407552083
 20
149.6938774956597
 10
50.06309407552083
 20
153.2412923177083
 10
50.06309407552083
 20
153.2412923177083
 10
50.06309407552083
 20
153.2412923177083
 10
52.51875813802083
 20
153.2412923177083
 10
52.51875813802083
 20
153.2412923177083
 10
52.51875813802083
 20
153.2412923177083
 10
52.51875813802083
 20
152.8161675347222
 10
52.51875813802083
 20
152.8161675347222
 10
52.51875813802083
 20
152.8161675347222
 10
50.54230685763888
 20
152.8161675347222
 10
50.54230685763888
 20
152.8161675347222
 10
50.54230685763888
 20
152.8161675347222
 10
50.54230685763888
 20
151.7292399088541
 10
50.54230685763888
 20
151.7292399088541
 10
50.54230685763888
 20
151.7292399088541
 10
52.28173556857639
 20
151.7292399088541
 10
52.28173556857639
 20
151.7292399088541
 10
52.28173556857639
 20
151.7292399088541
 10
52.28173556857639
 20
151.3044596354167
 10
52.28173556857639
 20
151.3044596354167
 10
52.28173556857639
 20
151.3044596354167
 10
50.54230685763888
 20
151.3044596354167
 10
50.54230685763888
 20
151.3044596354167
 10
50.54230685763888
 20
151.3044596354167
 10
50.54230685763888
 20
149.6938774956597
 10
50.54230685763888
 20
149.6938774956597
 97
        0
 75
     0
 76
     1
 98
        1
 10
0.0
 20
0.0
  0
HATCH
  5
7A
330
A
100
AcDbEntity
  8
LAYER_1
 62
     7
100
AcDbHatch
 10
0.0
 20
0.0
 30
0.0
210
0.0
220
0.0
230
1.0
  2
SOLID
 70
     1
 71
     0
 91
        1
 92
        1
 93
        1
 72
     4
 94
        3
 73
     0
 74
     0
 95
       32
 96
       28
 40
0.0
 40
0.0
 40
0.0
 40
0.0
 40
1.0
 40
1.0
 40
1.0
 40
2.0
 40
2.0
 40
2.0
 40
3.0
 40
3.0
 40
3.0
 40
4.0
 40
4.0
 40
4.0
 40
5.0
 40
5.0
 40
5.0
 40
6.0
 40
6.0
 40
6.0
 40
7.0
 40
7.0
 40
7.0
 40
8.0
 40
8.0
 40
8.0
 40
9.0
 40
9.0
 40
9.0
 40
9.0
 10
54.5424072265625
 20
149.6938774956597
 10
54.5424072265625
 20
149.6938774956597
 10
54.06319444444444
 20
149.6938774956597
 10
54.06319444444444
 20
149.6938774956597
 10
54.06319444444444
 20
149.6938774956597
 10
54.06319444444444
 20
151.1215250651042
 10
54.06319444444444
 20
151.1215250651042
 10
54.06319444444444
 20
151.1215250651042
 10
52.72443033854166
 20
153.2412923177083
 10
52.72443033854166
 20
153.2412923177083
 10
52.72443033854166
 20
153.2412923177083
 10
53.28288031684027
 20
153.2412923177083
 10
53.28288031684027
 20
153.2412923177083
 10
53.28288031684027
 20
153.2412923177083
 10
54.30056152343749
 20
151.5366590711805
 10
54.30056152343749
 20
151.5366590711805
 10
54.30056152343749
 20
151.5366590711805
 10
55.31824273003472
 20
153.2412923177083
 10
55.31824273003472
 20
153.2412923177083
 10
55.31824273003472
 20
153.2412923177083
 10
55.88151584201388
 20
153.2412923177083
 10
55.88151584201388
 20
153.2412923177083
 10
55.88151584201388
 20
153.2412923177083
 10
54.5424072265625
 20
151.1215250651042
 10
54.5424072265625
 20
151.1215250651042
 10
54.5424072265625
 20
151.1215250651042
 10
54.5424072265625
 20
149.6938774956597
 10
54.5424072265625
 20
149.6938774956597
 97
        0
 75
     0
 76
     1
 98
        1
 10
0.0
 20
0.0
  0
HATCH
  5
79
330
A
100
AcDbEntity
  8
LAYER_1
 62
     7
100
AcDbHatch
 10
0.0
 20
0.0
 30
0.0
210
0.0
220
0.0
230
1.0
  2
SOLID
 70
     1
 71
     0
 91
        2
 92
       16
 93
        1
 72
     4
 94
        3
 73
     0
 74
     0
 95
       17
 96
       13
 40
0.0
 40
0.0
 40
0.0
 40
0.0
 40
1.0
 40
1.0
 40
1.0
 40
2.0
 40
2.0
 40
2.0
 40
3.0
 40
3.0
 40
3.0
 40
4.0
 40
4.0
 40
4.0
 40
4.0
 10
41.39213324652778
 20
146.5650417751736
 10
41.39213324652778
 20
146.5650417751736
 10
40.86847873263888
 20
148.1263590494792
 10
40.86847873263888
 20
148.1263590494792
 10
40.86847873263888
 20
148.1263590494792
 10
40.85848795572916
 20
148.1263590494792
 10
40.85848795572916
 20
148.1263590494792
 10
40.85848795572916
 20
148.1263590494792
 10
40.29039171006944
 20
146.5650417751736
 10
40.29039171006944
 20
146.5650417751736
 10
40.29039171006944
 20
146.5650417751736
 10
41.39213324652778
 20
146.5650417751736
 10
41.39213324652778
 20
146.5650417751736
 97
        0
 92
        1
 93
        1
 72
     4
 94
        3
 73
     0
 74
     0
 95
       29
 96
       25
 40
0.0
 40
0.0
 40
0.0
 40
0.0
 40
1.0
 40
1.0
 40
1.0
 40
2.0
 40
2.0
 40
2.0
 40
3.0
 40
3.0
 40
3.0
 40
4.0
 40
4.0
 40
4.0
 40
5.0
 40
5.0
 40
5.0
 40
6.0
 40
6.0
 40
6.0
 40
7.0
 40
7.0
 40
7.0
 40
8.0
 40
8.0
 40
8.0
 40
8.0
 10
40.14225260416666
 20
146.1402615017361
 10
40.14225260416666
 20
146.1402615017361
 10
39.77156032986111
 20
145.1077663845486
 10
39.77156032986111
 20
145.1077663845486
 10
39.77156032986111
 20
145.1077663845486
 10
39.27753363715277
 20
145.1077663845486
 10
39.27753363715277
 20
145.1077663845486
 10
39.27753363715277
 20
145.1077663845486
 10
40.61147460937499
 20
148.6551812065972
 10
40.61147460937499
 20
148.6551812065972
 10
40.61147460937499
 20
148.6551812065972
 10
41.15476616753472
 20
148.6551812065972
 10
41.15476616753472
 20
148.6551812065972
 10
41.15476616753472
 20
148.6551812065972
 10
42.43944227430555
 20
145.1077663845486
 10
42.43944227430555
 20
145.1077663845486
 10
42.43944227430555
 20
145.1077663845486
 10
41.91578776041666
 20
145.1077663845486
 10
41.91578776041666
 20
145.1077663845486
 10
41.91578776041666
 20
145.1077663845486
 10
41.56507703993055
 20
146.1402615017361
 10
41.56507703993055
 20
146.1402615017361
 10
41.56507703993055
 20
146.1402615017361
 10
40.14225260416666
 20
146.1402615017361
 10
40.14225260416666
 20
146.1402615017361
 97
        0
 75
     0
 76
     1
 98
        1
 10
0.0
 20
0.0
  0
HATCH
  5
78
330
A
100
AcDbEntity
  8
LAYER_1
 62
     7
100
AcDbHatch
 10
0.0
 20
0.0
 30
0.0
210
0.0
220
0.0
230
1.0
  2
SOLID
 70
     1
 71
     0
 91
        1
 92
        1
 93
        1
 72
     4
 94
        3
 73
     0
 74
     0
 95
       41
 96
       37
 40
0.0
 40
0.0
 40
0.0
 40
0.0
 40
1.0
 40
1.0
 40
1.0
 40
2.0
 40
2.0
 40
2.0
 40
3.0
 40
3.0
 40
3.0
 40
4.0
 40
4.0
 40
4.0
 40
5.0
 40
5.0
 40
5.0
 40
6.0
 40
6.0
 40
6.0
 40
7.0
 40
7.0
 40
7.0
 40
8.0
 40
8.0
 40
8.0
 40
9.0
 40
9.0
 40
9.0
 40
10.0
 40
10.0
 40
10.0
 40
11.0
 40
11.0
 40
11.0
 40
12.0
 40
12.0
 40
12.0
 40
12.0
 10
45.22962510850694
 20
148.6551812065972
 10
45.22962510850694
 20
148.6551812065972
 10
45.69402398003472
 20
148.6551812065972
 10
45.69402398003472
 20
148.6551812065972
 10
45.69402398003472
 20
148.6551812065972
 10
45.69402398003472
 20
145.1077663845486
 10
45.69402398003472
 20
145.1077663845486
 10
45.69402398003472
 20
145.1077663845486
 10
45.15555555555555
 20
145.1077663845486
 10
45.15555555555555
 20
145.1077663845486
 10
45.15555555555555
 20
145.1077663845486
 10
43.352392578125
 20
147.9733968098958
 10
43.352392578125
 20
147.9733968098958
 10
43.352392578125
 20
147.9733968098958
 10
43.34240180121527
 20
147.9733968098958
 10
43.34240180121527
 20
147.9733968098958
 10
43.34240180121527
 20
147.9733968098958
 10
43.34240180121527
 20
145.1077663845486
 10
43.34240180121527
 20
145.1077663845486
 10
43.34240180121527
 20
145.1077663845486
 10
42.8780029296875
 20
145.1077663845486
 10
42.8780029296875
 20
145.1077663845486
 10
42.8780029296875
 20
145.1077663845486
 10
42.8780029296875
 20
148.6551812065972
 10
42.8780029296875
 20
148.6551812065972
 10
42.8780029296875
 20
148.6551812065972
 10
43.44609917534722
 20
148.6551812065972
 10
43.44609917534722
 20
148.6551812065972
 10
43.44609917534722
 20
148.6551812065972
 10
45.21997884114583
 20
145.78955078125
 10
45.21997884114583
 20
145.78955078125
 10
45.21997884114583
 20
145.78955078125
 10
45.22962510850694
 20
145.78955078125
 10
45.22962510850694
 20
145.78955078125
 10
45.22962510850694
 20
145.78955078125
 10
45.22962510850694
 20
148.6551812065972
 10
45.22962510850694
 20
148.6551812065972
 97
        0
 75
     0
 76
     1
 98
        1
 10
0.0
 20
0.0
  0
HATCH
  5
77
330
A
100
AcDbEntity
  8
LAYER_1
 62
     7
100
AcDbHatch
 10
0.0
 20
0.0
 30
0.0
210
0.0
220
0.0
230
1.0
  2
SOLID
 70
     1
 71
     0
 91
        1
 92
        1
 93
        1
 72
     4
 94
        3
 73
     0
 74
     0
 95
       56
 96
       52
 40
0.0
 40
0.0
 40
0.0
 40
0.0
 40
1.0
 40
1.0
 40
1.0
 40
2.0
 40
2.0
 40
2.0
 40
3.0
 40
3.0
 40
3.0
 40
4.0
 40
4.0
 40
4.0
 40
5.0
 40
5.0
 40
5.0
 40
6.0
 40
6.0
 40
6.0
 40
7.0
 40
7.0
 40
7.0
 40
8.0
 40
8.0
 40
8.0
 40
9.0
 40
9.0
 40
9.0
 40
10.0
 40
10.0
 40
10.0
 40
11.0
 40
11.0
 40
11.0
 40
12.0
 40
12.0
 40
12.0
 40
13.0
 40
13.0
 40
13.0
 40
14.0
 40
14.0
 40
14.0
 40
15.0
 40
15.0
 40
15.0
 40
16.0
 40
16.0
 40
16.0
 40
17.0
 40
17.0
 40
17.0
 40
17.0
 10
47.98983561197916
 20
147.00498046875
 10
47.98983561197916
 20
147.00498046875
 10
49.54632975260416
 20
147.00498046875
 10
49.54632975260416
 20
147.00498046875
 10
49.54632975260416
 20
147.00498046875
 10
49.54632975260416
 20
145.1077663845486
 10
49.54632975260416
 20
145.1077663845486
 10
49.54632975260416
 20
145.1077663845486
 10
49.23489312065972
 20
145.1077663845486
 10
49.23489312065972
 20
145.1077663845486
 10
49.23489312065972
 20
145.1077663845486
 10
49.12120496961805
 20
145.5673421223958
 10
49.12120496961805
 20
145.5673421223958
 10
48.87935926649305
 20
145.2311008029514
 10
48.43459743923611
 20
145.0137152777778
 10
47.95056152343749
 20
145.0137152777778
 10
47.3428466796875
 20
145.0137152777778
 10
47.04622395833333
 20
145.2362684461805
 10
46.86363389756944
 20
145.4140353732639
 10
46.31999782986111
 20
145.9276991102431
 10
46.30518391927083
 20
146.535413953993
 10
46.30518391927083
 20
146.9109293619792
 10
46.30518391927083
 20
147.775648328993
 10
46.82883843315972
 20
148.7488878038194
 10
47.98501247829861
 20
148.7488878038194
 10
48.64715983072917
 20
148.7488878038194
 10
49.3830322265625
 20
148.3733723958333
 10
49.48707411024305
 20
147.5778998480903
 10
49.48707411024305
 20
147.5778998480903
 10
49.02233072916666
 20
147.5778998480903
 10
49.02233072916666
 20
147.5778998480903
 10
48.86936848958333
 20
148.19560546875
 10
48.350537109375
 20
148.3241075303819
 10
47.96020779079861
 20
148.3241075303819
 10
47.32286512586805
 20
148.3241075303819
 10
46.79921061197916
 20
147.8152669270833
 10
46.79921061197916
 20
146.8864691840278
 10
46.79921061197916
 20
146.1650661892361
 10
47.03657769097222
 20
145.4240261501736
 10
47.98018934461805
 20
145.4240261501736
 10
48.15795627170139
 20
145.4240261501736
 10
48.44458821614583
 20
145.4436631944444
 10
48.70641547309027
 20
145.6510579427083
 10
49.01750759548611
 20
145.8980712890625
 10
49.09674479166667
 20
146.2143310546875
 10
49.09674479166667
 20
146.5946695963542
 10
49.09674479166667
 20
146.5946695963542
 10
47.98983561197916
 20
146.5946695963542
 10
47.98983561197916
 20
146.5946695963542
 10
47.98983561197916
 20
146.5946695963542
 10
47.98983561197916
 20
147.00498046875
 10
47.98983561197916
 20
147.00498046875
 97
        0
 75
     0
 76
     1
 98
        1
 10
0.0
 20
0.0
  0
HATCH
  5
76
330
A
100
AcDbEntity
  8
LAYER_1
 62
     7
100
AcDbHatch
 10
0.0
 20
0.0
 30
0.0
210
0.0
220
0.0
230
1.0
  2
SOLID
 70
     1
 71
     0
 91
        1
 92
        1
 93
        1
 72
     4
 94
        3
 73
     0
 74
     0
 95
       23
 96
       19
 40
0.0
 40
0.0
 40
0.0
 40
0.0
 40
1.0
 40
1.0
 40
1.0
 40
2.0
 40
2.0
 40
2.0
 40
3.0
 40
3.0
 40
3.0
 40
4.0
 40
4.0
 40
4.0
 40
5.0
 40
5.0
 40
5.0
 40
6.0
 40
6.0
 40
6.0
 40
6.0
 10
50.76451551649305
 20
145.5325466579861
 10
50.76451551649305
 20
145.5325466579861
 10
52.56285536024305
 20
145.5325466579861
 10
52.56285536024305
 20
145.5325466579861
 10
52.56285536024305
 20
145.5325466579861
 10
52.56285536024305
 20
145.1077663845486
 10
52.56285536024305
 20
145.1077663845486
 10
52.56285536024305
 20
145.1077663845486
 10
50.28530273437499
 20
145.1077663845486
 10
50.28530273437499
 20
145.1077663845486
 10
50.28530273437499
 20
145.1077663845486
 10
50.28530273437499
 20
148.6551812065972
 10
50.28530273437499
 20
148.6551812065972
 10
50.28530273437499
 20
148.6551812065972
 10
50.76451551649305
 20
148.6551812065972
 10
50.76451551649305
 20
148.6551812065972
 10
50.76451551649305
 20
148.6551812065972
 10
50.76451551649305
 20
145.5325466579861
 10
50.76451551649305
 20
145.5325466579861
 97
        0
 75
     0
 76
     1
 98
        1
 10
0.0
 20
0.0
  0
HATCH
  5
75
330
A
100
AcDbEntity
  8
LAYER_1
 62
     7
100
AcDbHatch
 10
0.0
 20
0.0
 30
0.0
210
0.0
220
0.0
230
1.0
  2
SOLID
 70
     1
 71
     0
 91
        1
 92
        1
 93
        1
 72
     4
 94
        3
 73
     0
 74
     0
 95
       41
 96
       37
 40
0.0
 40
0.0
 40
0.0
 40
0.0
 40
1.0
 40
1.0
 40
1.0
 40
2.0
 40
2.0
 40
2.0
 40
3.0
 40
3.0
 40
3.0
 40
4.0
 40
4.0
 40
4.0
 40
5.0
 40
5.0
 40
5.0
 40
6.0
 40
6.0
 40
6.0
 40
7.0
 40
7.0
 40
7.0
 40
8.0
 40
8.0
 40
8.0
 40
9.0
 40
9.0
 40
9.0
 40
10.0
 40
10.0
 40
10.0
 40
11.0
 40
11.0
 40
11.0
 40
12.0
 40
12.0
 40
12.0
 40
12.0
 10
55.69858127170139
 20
145.1077663845486
 10
55.69858127170139
 20
145.1077663845486
 10
53.08030870225694
 20
145.1077663845486
 10
53.08030870225694
 20
145.1077663845486
 10
53.08030870225694
 20
145.1077663845486
 10
53.08030870225694
 20
148.6551812065972
 10
53.08030870225694
 20
148.6551812065972
 10
53.08030870225694
 20
148.6551812065972
 10
55.66413031684027
 20
148.6551812065972
 10
55.66413031684027
 20
148.6551812065972
 10
55.66413031684027
 20
148.6551812065972
 10
55.66413031684027
 20
148.2300564236111
 10
55.66413031684027
 20
148.2300564236111
 10
55.66413031684027
 20
148.2300564236111
 10
53.559521484375
 20
148.2300564236111
 10
53.559521484375
 20
148.2300564236111
 10
53.559521484375
 20
148.2300564236111
 10
53.559521484375
 20
147.143128797743
 10
53.559521484375
 20
147.143128797743
 10
53.559521484375
 20
147.143128797743
 10
55.50117730034722
 20
147.143128797743
 10
55.50117730034722
 20
147.143128797743
 10
55.50117730034722
 20
147.143128797743
 10
55.50117730034722
 20
146.7183485243056
 10
55.50117730034722
 20
146.7183485243056
 10
55.50117730034722
 20
146.7183485243056
 10
53.559521484375
 20
146.7183485243056
 10
53.559521484375
 20
146.7183485243056
 10
53.559521484375
 20
146.7183485243056
 10
53.559521484375
 20
145.5325466579861
 10
53.559521484375
 20
145.5325466579861
 10
53.559521484375
 20
145.5325466579861
 10
55.69858127170139
 20
145.5325466579861
 10
55.69858127170139
 20
145.5325466579861
 10
55.69858127170139
 20
145.5325466579861
 10
55.69858127170139
 20
145.1077663845486
 10
55.69858127170139
 20
145.1077663845486
 97
        0
 75
     0
 76
     1
 98
        1
 10
0.0
 20
0.0
  0
HATCH
  5
74
330
A
100
AcDbEntity
  8
LAYER_1
 62
     7
100
AcDbHatch
 10
0.0
 20
0.0
 30
0.0
210
0.0
220
0.0
230
1.0
  2
SOLID
 70
     1
 71
     0
 91
        1
 92
        1
 93
        1
 72
     4
 94
        3
 73
     0
 74
     0
 95
       56
 96
       52
 40
0.0
 40
0.0
 40
0.0
 40
0.0
 40
1.0
 40
1.0
 40
1.0
 40
2.0
 40
2.0
 40
2.0
 40
3.0
 40
3.0
 40
3.0
 40
4.0
 40
4.0
 40
4.0
 40
5.0
 40
5.0
 40
5.0
 40
6.0
 40
6.0
 40
6.0
 40
7.0
 40
7.0
 40
7.0
 40
8.0
 40
8.0
 40
8.0
 40
9.0
 40
9.0
 40
9.0
 40
10.0
 40
10.0
 40
10.0
 40
11.0
 40
11.0
 40
11.0
 40
12.0
 40
12.0
 40
12.0
 40
13.0
 40
13.0
 40
13.0
 40
14.0
 40
14.0
 40
14.0
 40
15.0
 40
15.0
 40
15.0
 40
16.0
 40
16.0
 40
16.0
 40
17.0
 40
17.0
 40
17.0
 40
17.0
 10
42.28441297743055
 20
120.5886773003472
 10
42.30577256944444
 20
120.8639404296875
 10
42.15763346354166
 20
121.0720241970486
 10
41.86480034722222
 20
121.0720241970486
 10
41.43795301649305
 20
121.0720241970486
 10
41.39213324652778
 20
120.8036512586806
 10
41.39213324652778
 20
120.5993570963542
 10
41.39213324652778
 20
120.4157335069444
 10
41.47309299045138
 20
120.3030788845486
 10
41.64259168836805
 20
120.2393446180555
 10
41.78349609375
 20
120.1866346571181
 10
41.92129991319444
 20
120.1335801866319
 10
42.06220431857638
 20
120.0808702256944
 10
42.56312120225694
 20
119.8938015407986
 10
42.6547607421875
 20
119.7174126519097
 10
42.6547607421875
 20
119.3684244791667
 10
42.6547607421875
 20
118.8675075954861
 10
42.34091254340277
 20
118.5746744791667
 10
41.83310546875
 20
118.5746744791667
 10
41.57196723090277
 20
118.5746744791667
 10
41.26156412760416
 20
118.6487440321181
 10
41.10997992621527
 20
118.994287109375
 10
41.05348036024305
 20
119.1248562282986
 10
41.05692545572916
 20
119.3363850911458
 10
41.05348036024305
 20
119.4776340060764
 10
41.05348036024305
 20
119.4776340060764
 10
41.34631347656249
 20
119.4776340060764
 10
41.34631347656249
 20
119.4776340060764
 10
41.33218858506944
 20
119.0862711588542
 10
41.40625813802083
 20
118.8392578125
 10
41.84723036024305
 20
118.8392578125
 10
42.14350857204861
 20
118.8392578125
 10
42.35159233940972
 20
118.9908420138889
 10
42.35159233940972
 20
119.3012451171875
 10
42.35159233940972
 20
119.7032877604167
 10
42.18932834201389
 20
119.7067328559028
 10
41.92129991319444
 20
119.8090521918403
 10
41.77660590277777
 20
119.8655517578125
 10
41.54371744791666
 20
119.9396213107639
 10
41.40281304253472
 20
120.0136908637153
 10
41.15235460069444
 20
120.1408148871528
 10
41.08896484375
 20
120.35234375
 10
41.08896484375
 20
120.6134819878472
 10
41.08896484375
 20
121.0506646050347
 10
41.39557834201388
 20
121.3366075303819
 10
41.82587076822917
 20
121.3366075303819
 10
42.30921766493055
 20
121.3366075303819
 10
42.60549587673611
 20
121.0861490885417
 10
42.57724609375
 20
120.5886773003472
 10
42.57724609375
 20
120.5886773003472
 10
42.28441297743055
 20
120.5886773003472
 10
42.28441297743055
 20
120.5886773003472
 97
        0
 75
     0
 76
     1
 98
        1
 10
0.0
 20
0.0
  0
HATCH
  5
73
330
A
100
AcDbEntity
  8
LAYER_1
 62
     7
100
AcDbHatch
 10
0.0
 20
0.0
 30
0.0
210
0.0
220
0.0
230
1.0
  2
SOLID
 70
     1
 71
     0
 91
        2
 92
       16
 93
        1
 72
     4
 94
        3
 73
     0
 74
     0
 95
       20
 96
       16
 40
0.0
 40
0.0
 40
0.0
 40
0.0
 40
1.0
 40
1.0
 40
1.0
 40
2.0
 40
2.0
 40
2.0
 40
3.0
 40
3.0
 40
3.0
 40
4.0
 40
4.0
 40
4.0
 40
5.0
 40
5.0
 40
5.0
 40
5.0
 10
43.43094075520833
 20
120.0243706597222
 10
43.43094075520833
 20
120.0243706597222
 10
43.71653917100694
 20
120.0243706597222
 10
43.71653917100694
 20
120.0243706597222
 10
44.11858181423611
 20
120.0278157552083
 10
44.36559516059027
 20
120.0843153211805
 10
44.36215006510416
 20
120.5394124348958
 10
44.36215006510416
 20
120.9659152560764
 10
44.09033203124999
 20
121.0262044270833
 10
43.7341091579861
 20
121.0189697265625
 10
43.7341091579861
 20
121.0189697265625
 10
43.43094075520833
 20
121.0189697265625
 10
43.43094075520833
 20
121.0189697265625
 10
43.43094075520833
 20
121.0189697265625
 10
43.43094075520833
 20
120.0243706597222
 10
43.43094075520833
 20
120.0243706597222
 97
        0
 92
        1
 93
        1
 72
     4
 94
        3
 73
     0
 74
     0
 95
       32
 96
       28
 40
0.0
 40
0.0
 40
0.0
 40
0.0
 40
1.0
 40
1.0
 40
1.0
 40
2.0
 40
2.0
 40
2.0
 40
3.0
 40
3.0
 40
3.0
 40
4.0
 40
4.0
 40
4.0
 40
5.0
 40
5.0
 40
5.0
 40
6.0
 40
6.0
 40
6.0
 40
7.0
 40
7.0
 40
7.0
 40
8.0
 40
8.0
 40
8.0
 40
9.0
 40
9.0
 40
9.0
 40
9.0
 10
43.13810763888888
 20
118.6380642361111
 10
43.13810763888888
 20
118.6380642361111
 10
43.13810763888888
 20
121.2835530598958
 10
43.13810763888888
 20
121.2835530598958
 10
43.13810763888888
 20
121.2835530598958
 10
43.8329833984375
 20
121.2835530598958
 10
43.8329833984375
 20
121.2835530598958
 10
44.03762207031249
 20
121.2835530598958
 10
44.294970703125
 20
121.2587483723958
 10
44.45034450954861
 20
121.110609266493
 10
44.60881890190972
 20
120.9624701605903
 10
44.66531846788194
 20
120.7578314887153
 10
44.66531846788194
 20
120.5463026258681
 10
44.66531846788194
 20
120.2534695095486
 10
44.5771240234375
 20
119.96787109375
 10
44.29152560763888
 20
119.8373019748264
 10
44.10790201822916
 20
119.7597873263889
 10
43.8081787109375
 20
119.7597873263889
 10
43.60732964409722
 20
119.7597873263889
 10
43.60732964409722
 20
119.7597873263889
 10
43.43094075520833
 20
119.7597873263889
 10
43.43094075520833
 20
119.7597873263889
 10
43.43094075520833
 20
119.7597873263889
 10
43.43094075520833
 20
118.6380642361111
 10
43.43094075520833
 20
118.6380642361111
 10
43.43094075520833
 20
118.6380642361111
 10
43.13810763888888
 20
118.6380642361111
 10
43.13810763888888
 20
118.6380642361111
 97
        0
 75
     0
 76
     1
 98
        1
 10
0.0
 20
0.0
  0
HATCH
  5
72
330
A
100
AcDbEntity
  8
LAYER_1
 62
     7
100
AcDbHatch
 10
0.0
 20
0.0
 30
0.0
210
0.0
220
0.0
230
1.0
  2
SOLID
 70
     1
 71
     0
 91
        1
 92
        1
 93
        1
 72
     4
 94
        3
 73
     0
 74
     0
 95
       41
 96
       37
 40
0.0
 40
0.0
 40
0.0
 40
0.0
 40
1.0
 40
1.0
 40
1.0
 40
2.0
 40
2.0
 40
2.0
 40
3.0
 40
3.0
 40
3.0
 40
4.0
 40
4.0
 40
4.0
 40
5.0
 40
5.0
 40
5.0
 40
6.0
 40
6.0
 40
6.0
 40
7.0
 40
7.0
 40
7.0
 40
8.0
 40
8.0
 40
8.0
 40
9.0
 40
9.0
 40
9.0
 40
10.0
 40
10.0
 40
10.0
 40
11.0
 40
11.0
 40
11.0
 40
12.0
 40
12.0
 40
12.0
 40
12.0
 10
45.05668131510416
 20
118.6380642361111
 10
45.05668131510416
 20
118.6380642361111
 10
45.05668131510416
 20
121.2835530598958
 10
45.05668131510416
 20
121.2835530598958
 10
45.05668131510416
 20
121.2835530598958
 10
46.37959798177083
 20
121.2835530598958
 10
46.37959798177083
 20
121.2835530598958
 10
46.37959798177083
 20
121.2835530598958
 10
46.37959798177083
 20
121.0189697265625
 10
46.37959798177083
 20
121.0189697265625
 10
46.37959798177083
 20
121.0189697265625
 10
45.34951443142361
 20
121.0189697265625
 10
45.34951443142361
 20
121.0189697265625
 10
45.34951443142361
 20
121.0189697265625
 10
45.34951443142361
 20
120.1442599826389
 10
45.34951443142361
 20
120.1442599826389
 10
45.34951443142361
 20
120.1442599826389
 10
46.31620822482638
 20
120.1442599826389
 10
46.31620822482638
 20
120.1442599826389
 10
46.31620822482638
 20
120.1442599826389
 10
46.31620822482638
 20
119.8796766493056
 10
46.31620822482638
 20
119.8796766493056
 10
46.31620822482638
 20
119.8796766493056
 10
45.34951443142361
 20
119.8796766493056
 10
45.34951443142361
 20
119.8796766493056
 10
45.34951443142361
 20
119.8796766493056
 10
45.34951443142361
 20
118.9026475694444
 10
45.34951443142361
 20
118.9026475694444
 10
45.34951443142361
 20
118.9026475694444
 10
46.38648817274305
 20
118.9026475694444
 10
46.38648817274305
 20
118.9026475694444
 10
46.38648817274305
 20
118.9026475694444
 10
46.38648817274305
 20
118.6380642361111
 10
46.38648817274305
 20
118.6380642361111
 10
46.38648817274305
 20
118.6380642361111
 10
45.05668131510416
 20
118.6380642361111
 10
45.05668131510416
 20
118.6380642361111
 97
        0
 75
     0
 76
     1
 98
        1
 10
0.0
 20
0.0
  0
HATCH
  5
71
330
A
100
AcDbEntity
  8
LAYER_1
 62
     7
100
AcDbHatch
 10
0.0
 20
0.0
 30
0.0
210
0.0
220
0.0
230
1.0
  2
SOLID
 70
     1
 71
     0
 91
        1
 92
        1
 93
        1
 72
     4
 94
        3
 73
     0
 74
     0
 95
       44
 96
       40
 40
0.0
 40
0.0
 40
0.0
 40
0.0
 40
1.0
 40
1.0
 40
1.0
 40
2.0
 40
2.0
 40
2.0
 40
3.0
 40
3.0
 40
3.0
 40
4.0
 40
4.0
 40
4.0
 40
5.0
 40
5.0
 40
5.0
 40
6.0
 40
6.0
 40
6.0
 40
7.0
 40
7.0
 40
7.0
 40
8.0
 40
8.0
 40
8.0
 40
9.0
 40
9.0
 40
9.0
 40
10.0
 40
10.0
 40
10.0
 40
11.0
 40
11.0
 40
11.0
 40
12.0
 40
12.0
 40
12.0
 40
13.0
 40
13.0
 40
13.0
 40
13.0
 10
48.04116753472222
 20
120.4898030598958
 10
48.03393283420139
 20
120.8036512586806
 10
47.9319580078125
 20
121.0720241970486
 10
47.56505533854166
 20
121.0720241970486
 10
47.05724826388889
 20
121.0720241970486
 10
47.05001356336805
 20
120.3488986545139
 10
47.05001356336805
 20
119.9995659722222
 10
47.03588867187499
 20
119.6398980034722
 10
47.02899848090277
 20
118.8392578125
 10
47.56505533854166
 20
118.8392578125
 10
47.91404351128472
 20
118.8392578125
 10
47.98811306423611
 20
119.1248562282986
 10
48.02359754774305
 20
119.4142442491319
 10
48.03048773871527
 20
119.4741889105903
 10
48.03393283420139
 20
119.5341335720486
 10
48.04116753472222
 20
119.5940782335069
 10
48.04116753472222
 20
119.5940782335069
 10
48.33400065104166
 20
119.5940782335069
 10
48.33400065104166
 20
119.5940782335069
 10
48.32676595052083
 20
119.5410237630208
 10
48.32676595052083
 20
119.4845241970486
 10
48.31987575954861
 20
119.4318142361111
 10
48.30230577256944
 20
119.2164957682292
 10
48.29162597656249
 20
119.0542317708333
 10
48.164501953125
 20
118.8709526909722
 10
48.02704264322917
 20
118.6804389105903
 10
47.84376356336805
 20
118.5746744791667
 10
47.58951551649305
 20
118.5746744791667
 10
46.77475043402777
 20
118.5746744791667
 10
46.74650065104166
 20
119.3611897786458
 10
46.74650065104166
 20
119.99267578125
 10
46.74650065104166
 20
120.5886773003472
 10
46.8346950954861
 20
121.3366075303819
 10
47.58607042100694
 20
121.3366075303819
 10
48.0869873046875
 20
121.3366075303819
 10
48.34812554253472
 20
120.9624701605903
 10
48.33400065104166
 20
120.4898030598958
 10
48.33400065104166
 20
120.4898030598958
 10
48.04116753472222
 20
120.4898030598958
 10
48.04116753472222
 20
120.4898030598958
 97
        0
 75
     0
 76
     1
 98
        1
 10
0.0
 20
0.0
  0
HATCH
  5
70
330
A
100
AcDbEntity
  8
LAYER_1
 62
     7
100
AcDbHatch
 10
0.0
 20
0.0
 30
0.0
210
0.0
220
0.0
230
1.0
  2
SOLID
 70
     1
 71
     0
 91
        1
 92
        1
 93
        1
 72
     4
 94
        3
 73
     0
 74
     0
 95
       17
 96
       13
 40
0.0
 40
0.0
 40
0.0
 40
0.0
 40
1.0
 40
1.0
 40
1.0
 40
2.0
 40
2.0
 40
2.0
 40
3.0
 40
3.0
 40
3.0
 40
4.0
 40
4.0
 40
4.0
 40
4.0
 10
48.86661241319444
 20
118.6380642361111
 10
48.86661241319444
 20
118.6380642361111
 10
48.86661241319444
 20
121.2835530598958
 10
48.86661241319444
 20
121.2835530598958
 10
48.86661241319444
 20
121.2835530598958
 10
49.15944552951388
 20
121.2835530598958
 10
49.15944552951388
 20
121.2835530598958
 10
49.15944552951388
 20
121.2835530598958
 10
49.15944552951388
 20
118.6380642361111
 10
49.15944552951388
 20
118.6380642361111
 10
49.15944552951388
 20
118.6380642361111
 10
48.86661241319444
 20
118.6380642361111
 10
48.86661241319444
 20
118.6380642361111
 97
        0
 75
     0
 76
     1
 98
        1
 10
0.0
 20
0.0
  0
HATCH
  5
6F
330
A
100
AcDbEntity
  8
LAYER_1
 62
     7
100
AcDbHatch
 10
0.0
 20
0.0
 30
0.0
210
0.0
220
0.0
230
1.0
  2
SOLID
 70
     1
 71
     0
 91
        1
 92
        1
 93
        1
 72
     4
 94
        3
 73
     0
 74
     0
 95
       35
 96
       31
 40
0.0
 40
0.0
 40
0.0
 40
0.0
 40
1.0
 40
1.0
 40
1.0
 40
2.0
 40
2.0
 40
2.0
 40
3.0
 40
3.0
 40
3.0
 40
4.0
 40
4.0
 40
4.0
 40
5.0
 40
5.0
 40
5.0
 40
6.0
 40
6.0
 40
6.0
 40
7.0
 40
7.0
 40
7.0
 40
8.0
 40
8.0
 40
8.0
 40
9.0
 40
9.0
 40
9.0
 40
10.0
 40
10.0
 40
10.0
 40
10.0
 10
49.76199273003472
 20
118.6380642361111
 10
49.76199273003472
 20
118.6380642361111
 10
49.76199273003472
 20
121.2835530598958
 10
49.76199273003472
 20
121.2835530598958
 10
49.76199273003472
 20
121.2835530598958
 10
51.00360514322916
 20
121.2835530598958
 10
51.00360514322916
 20
121.2835530598958
 10
51.00360514322916
 20
121.2835530598958
 10
51.00360514322916
 20
121.0189697265625
 10
51.00360514322916
 20
121.0189697265625
 10
51.00360514322916
 20
121.0189697265625
 10
50.05482584635416
 20
121.0189697265625
 10
50.05482584635416
 20
121.0189697265625
 10
50.05482584635416
 20
121.0189697265625
 10
50.05482584635416
 20
120.1511501736111
 10
50.05482584635416
 20
120.1511501736111
 10
50.05482584635416
 20
120.1511501736111
 10
50.93642578124999
 20
120.1511501736111
 10
50.93642578124999
 20
120.1511501736111
 10
50.93642578124999
 20
120.1511501736111
 10
50.93642578124999
 20
119.8869113498264
 10
50.93642578124999
 20
119.8869113498264
 10
50.93642578124999
 20
119.8869113498264
 10
50.05482584635416
 20
119.8869113498264
 10
50.05482584635416
 20
119.8869113498264
 10
50.05482584635416
 20
119.8869113498264
 10
50.05482584635416
 20
118.6380642361111
 10
50.05482584635416
 20
118.6380642361111
 10
50.05482584635416
 20
118.6380642361111
 10
49.76199273003472
 20
118.6380642361111
 10
49.76199273003472
 20
118.6380642361111
 97
        0
 75
     0
 76
     1
 98
        1
 10
0.0
 20
0.0
  0
HATCH
  5
6E
330
A
100
AcDbEntity
  8
LAYER_1
 62
     7
100
AcDbHatch
 10
0.0
 20
0.0
 30
0.0
210
0.0
220
0.0
230
1.0
  2
SOLID
 70
     1
 71
     0
 91
        1
 92
        1
 93
        1
 72
     4
 94
        3
 73
     0
 74
     0
 95
       32
 96
       28
 40
0.0
 40
0.0
 40
0.0
 40
0.0
 40
1.0
 40
1.0
 40
1.0
 40
2.0
 40
2.0
 40
2.0
 40
3.0
 40
3.0
 40
3.0
 40
4.0
 40
4.0
 40
4.0
 40
5.0
 40
5.0
 40
5.0
 40
6.0
 40
6.0
 40
6.0
 40
7.0
 40
7.0
 40
7.0
 40
8.0
 40
8.0
 40
8.0
 40
9.0
 40
9.0
 40
9.0
 40
9.0
 10
52.04746907552083
 20
119.9571912977431
 10
52.04746907552083
 20
119.9571912977431
 10
52.66827528211805
 20
121.2835530598958
 10
52.66827528211805
 20
121.2835530598958
 10
52.66827528211805
 20
121.2835530598958
 10
52.99280327690972
 20
121.2835530598958
 10
52.99280327690972
 20
121.2835530598958
 10
52.99280327690972
 20
121.2835530598958
 10
52.19216308593749
 20
119.6647026909722
 10
52.19216308593749
 20
119.6647026909722
 10
52.19216308593749
 20
119.6647026909722
 10
52.19216308593749
 20
118.6380642361111
 10
52.19216308593749
 20
118.6380642361111
 10
52.19216308593749
 20
118.6380642361111
 10
51.89932996961805
 20
118.6380642361111
 10
51.89932996961805
 20
118.6380642361111
 10
51.89932996961805
 20
118.6380642361111
 10
51.89932996961805
 20
119.6647026909722
 10
51.89932996961805
 20
119.6647026909722
 10
51.89932996961805
 20
119.6647026909722
 10
51.10557996961805
 20
121.2835530598958
 10
51.10557996961805
 20
121.2835530598958
 10
51.10557996961805
 20
121.2835530598958
 10
51.43010796440971
 20
121.2835530598958
 10
51.43010796440971
 20
121.2835530598958
 10
51.43010796440971
 20
121.2835530598958
 10
52.04746907552083
 20
119.9571912977431
 10
52.04746907552083
 20
119.9571912977431
 97
        0
 75
     0
 76
     1
 98
        1
 10
0.0
 20
0.0
  0
HATCH
  5
6D
330
A
100
AcDbEntity
  8
LAYER_1
 62
     7
100
AcDbHatch
 10
0.0
 20
0.0
 30
0.0
210
0.0
220
0.0
230
1.0
  2
SOLID
 70
     1
 71
     0
 91
        1
 92
        1
 93
        1
 72
     4
 94
        3
 73
     0
 74
     0
 95
       23
 96
       19
 40
0.0
 40
0.0
 40
0.0
 40
0.0
 40
1.0
 40
1.0
 40
1.0
 40
2.0
 40
2.0
 40
2.0
 40
3.0
 40
3.0
 40
3.0
 40
4.0
 40
4.0
 40
4.0
 40
5.0
 40
5.0
 40
5.0
 40
6.0
 40
6.0
 40
6.0
 40
6.0
 10
41.1664794921875
 20
115.1102864583333
 10
41.1664794921875
 20
115.1102864583333
 10
41.1664794921875
 20
117.7557752821181
 10
41.1664794921875
 20
117.7557752821181
 10
41.1664794921875
 20
117.7557752821181
 10
41.45931260850694
 20
117.7557752821181
 10
41.45931260850694
 20
117.7557752821181
 10
41.45931260850694
 20
117.7557752821181
 10
41.45931260850694
 20
115.3748697916667
 10
41.45931260850694
 20
115.3748697916667
 10
41.45931260850694
 20
115.3748697916667
 10
42.53831651475694
 20
115.3748697916667
 10
42.53831651475694
 20
115.3748697916667
 10
42.53831651475694
 20
115.3748697916667
 10
42.53831651475694
 20
115.1102864583333
 10
42.53831651475694
 20
115.1102864583333
 10
42.53831651475694
 20
115.1102864583333
 10
41.1664794921875
 20
115.1102864583333
 10
41.1664794921875
 20
115.1102864583333
 97
        0
 75
     0
 76
     1
 98
        1
 10
0.0
 20
0.0
  0
HATCH
  5
6C
330
A
100
AcDbEntity
  8
LAYER_1
 62
     7
100
AcDbHatch
 10
0.0
 20
0.0
 30
0.0
210
0.0
220
0.0
230
1.0
  2
SOLID
 70
     1
 71
     0
 91
        2
 92
       16
 93
        1
 72
     4
 94
        3
 73
     0
 74
     0
 95
       17
 96
       13
 40
0.0
 40
0.0
 40
0.0
 40
0.0
 40
1.0
 40
1.0
 40
1.0
 40
2.0
 40
2.0
 40
2.0
 40
3.0
 40
3.0
 40
3.0
 40
4.0
 40
4.0
 40
4.0
 40
4.0
 10
43.70964898003472
 20
117.5442464192708
 10
43.25834147135416
 20
117.5442464192708
 10
43.14534233940972
 20
117.0715793185764
 10
43.14878743489583
 20
116.4824679904514
 10
43.15257703993055
 20
115.7169677734375
 10
43.23009168836805
 20
115.3114800347222
 10
43.71688368055555
 20
115.3114800347222
 10
44.20367567274305
 20
115.3114800347222
 10
44.28119032118055
 20
115.7169677734375
 10
44.28463541666666
 20
116.4824679904514
 10
44.28808051215277
 20
117.0715793185764
 10
44.17542588975694
 20
117.5442464192708
 10
43.70964898003472
 20
117.5442464192708
 97
        0
 92
        1
 93
        1
 72
     4
 94
        3
 73
     0
 74
     0
 95
       17
 96
       13
 40
0.0
 40
0.0
 40
0.0
 40
0.0
 40
1.0
 40
1.0
 40
1.0
 40
2.0
 40
2.0
 40
2.0
 40
3.0
 40
3.0
 40
3.0
 40
4.0
 40
4.0
 40
4.0
 40
4.0
 10
43.72377387152778
 20
117.8088297526042
 10
44.4965087890625
 20
117.8088297526042
 10
44.59159342447916
 20
117.0960394965278
 10
44.58814832899305
 20
116.4893581814236
 10
44.58435872395833
 20
115.7558973524306
 10
44.48927408854166
 20
115.0468967013889
 10
43.71688368055555
 20
115.0468967013889
 10
42.94449327256944
 20
115.0468967013889
 10
42.85285373263888
 20
115.7558973524306
 10
42.84561903211805
 20
116.4893581814236
 10
42.84561903211805
 20
117.0960394965278
 10
42.93725857204861
 20
117.8088297526042
 10
43.72377387152778
 20
117.8088297526042
 97
        0
 75
     0
 76
     1
 98
        1
 10
0.0
 20
0.0
  0
HATCH
  5
6B
330
A
100
AcDbEntity
  8
LAYER_1
 62
     7
100
AcDbHatch
 10
0.0
 20
0.0
 30
0.0
210
0.0
220
0.0
230
1.0
  2
SOLID
 70
     1
 71
     0
 91
        1
 92
        1
 93
        1
 72
     4
 94
        3
 73
     0
 74
     0
 95
       71
 96
       67
 40
0.0
 40
0.0
 40
0.0
 40
0.0
 40
1.0
 40
1.0
 40
1.0
 40
2.0
 40
2.0
 40
2.0
 40
3.0
 40
3.0
 40
3.0
 40
4.0
 40
4.0
 40
4.0
 40
5.0
 40
5.0
 40
5.0
 40
6.0
 40
6.0
 40
6.0
 40
7.0
 40
7.0
 40
7.0
 40
8.0
 40
8.0
 40
8.0
 40
9.0
 40
9.0
 40
9.0
 40
10.0
 40
10.0
 40
10.0
 40
11.0
 40
11.0
 40
11.0
 40
12.0
 40
12.0
 40
12.0
 40
13.0
 40
13.0
 40
13.0
 40
14.0
 40
14.0
 40
14.0
 40
15.0
 40
15.0
 40
15.0
 40
16.0
 40
16.0
 40
16.0
 40
17.0
 40
17.0
 40
17.0
 40
18.0
 40
18.0
 40
18.0
 40
19.0
 40
19.0
 40
19.0
 40
20.0
 40
20.0
 40
20.0
 40
21.0
 40
21.0
 40
21.0
 40
22.0
 40
22.0
 40
22.0
 40
22.0
 10
45.78015136718749
 20
115.1102864583333
 10
45.78015136718749
 20
115.1102864583333
 10
45.41669379340277
 20
115.1102864583333
 10
45.41669379340277
 20
115.1102864583333
 10
45.41669379340277
 20
115.1102864583333
 10
44.85238715277777
 20
117.7557752821181
 10
44.85238715277777
 20
117.7557752821181
 10
44.85238715277777
 20
117.7557752821181
 10
45.17691514756944
 20
117.7557752821181
 10
45.17691514756944
 20
117.7557752821181
 10
45.17691514756944
 20
117.7557752821181
 10
45.52245822482639
 20
115.9322862413194
 10
45.52245822482639
 20
115.9322862413194
 10
45.55415310329861
 20
115.7524522569444
 10
45.5789577907986
 20
115.5688286675347
 10
45.59997287326389
 20
115.3221598307292
 10
45.59997287326389
 20
115.3221598307292
 10
45.60720757378472
 20
115.3221598307292
 10
45.60720757378472
 20
115.3221598307292
 10
45.63201226128472
 20
115.5264539930555
 10
45.65302734375
 20
115.7204128689236
 10
45.69195692274305
 20
115.9109266493056
 10
45.69195692274305
 20
115.9109266493056
 10
46.07987467447916
 20
117.7557752821181
 10
46.07987467447916
 20
117.7557752821181
 10
46.07987467447916
 20
117.7557752821181
 10
46.44298773871527
 20
117.7557752821181
 10
46.44298773871527
 20
117.7557752821181
 10
46.44298773871527
 20
117.7557752821181
 10
46.79232042100694
 20
115.9322862413194
 10
46.79232042100694
 20
115.9322862413194
 10
46.82401529947916
 20
115.7558973524306
 10
46.84537489149305
 20
115.5795084635417
 10
46.86983506944444
 20
115.3221598307292
 10
46.86983506944444
 20
115.3221598307292
 10
46.87706976996527
 20
115.3221598307292
 10
46.87706976996527
 20
115.3221598307292
 10
46.90152994791666
 20
115.5264539930555
 10
46.92288953993055
 20
115.7204128689236
 10
46.961474609375
 20
115.9109266493056
 10
46.961474609375
 20
115.9109266493056
 10
47.34594726562499
 20
117.7557752821181
 10
47.34594726562499
 20
117.7557752821181
 10
47.34594726562499
 20
117.7557752821181
 10
47.67047526041667
 20
117.7557752821181
 10
47.67047526041667
 20
117.7557752821181
 10
47.67047526041667
 20
117.7557752821181
 10
47.04966905381944
 20
115.1102864583333
 10
47.04966905381944
 20
115.1102864583333
 10
47.04966905381944
 20
115.1102864583333
 10
46.68655598958333
 20
115.1102864583333
 10
46.68655598958333
 20
115.1102864583333
 10
46.68655598958333
 20
115.1102864583333
 10
46.33377821180555
 20
116.9055257161458
 10
46.33377821180555
 20
116.9055257161458
 10
46.29863823784722
 20
117.0784695095486
 10
46.27727864583333
 20
117.2548583984375
 10
46.25626356336805
 20
117.5442464192708
 10
46.25626356336805
 20
117.5442464192708
 10
46.24902886284722
 20
117.5442464192708
 10
46.24902886284722
 20
117.5442464192708
 10
46.22456868489583
 20
117.2899983723958
 10
46.20320909288194
 20
117.0960394965278
 10
46.1646240234375
 20
116.9055257161458
 10
46.1646240234375
 20
116.9055257161458
 10
45.78015136718749
 20
115.1102864583333
 10
45.78015136718749
 20
115.1102864583333
 97
        0
 75
     0
 76
     1
 98
        1
 10
0.0
 20
0.0
  0
HATCH
  5
6A
330
A
100
AcDbEntity
  8
LAYER_1
 62
     7
100
AcDbHatch
 10
0.0
 20
0.0
 30
0.0
210
0.0
220
0.0
230
1.0
  2
SOLID
 70
     1
 71
     0
 91
        1
 92
        1
 93
        1
 72
     4
 94
        3
 73
     0
 74
     0
 95
       56
 96
       52
 40
0.0
 40
0.0
 40
0.0
 40
0.0
 40
1.0
 40
1.0
 40
1.0
 40
2.0
 40
2.0
 40
2.0
 40
3.0
 40
3.0
 40
3.0
 40
4.0
 40
4.0
 40
4.0
 40
5.0
 40
5.0
 40
5.0
 40
6.0
 40
6.0
 40
6.0
 40
7.0
 40
7.0
 40
7.0
 40
8.0
 40
8.0
 40
8.0
 40
9.0
 40
9.0
 40
9.0
 40
10.0
 40
10.0
 40
10.0
 40
11.0
 40
11.0
 40
11.0
 40
12.0
 40
12.0
 40
12.0
 40
13.0
 40
13.0
 40
13.0
 40
14.0
 40
14.0
 40
14.0
 40
15.0
 40
15.0
 40
15.0
 40
16.0
 40
16.0
 40
16.0
 40
17.0
 40
17.0
 40
17.0
 40
17.0
 10
50.02313096788194
 20
117.0608995225694
 10
50.04414605034722
 20
117.3361626519097
 10
49.89600694444444
 20
117.5442464192708
 10
49.60317382812499
 20
117.5442464192708
 10
49.17667100694444
 20
117.5442464192708
 10
49.13050672743055
 20
117.2758734809028
 10
49.13050672743055
 20
117.0715793185764
 10
49.13050672743055
 20
116.8879557291667
 10
49.21181098090278
 20
116.7753011067708
 10
49.38096516927083
 20
116.7115668402778
 10
49.52221408420139
 20
116.6588568793403
 10
49.65967339409722
 20
116.6058024088542
 10
49.80092230902778
 20
116.5530924479167
 10
50.30149468315972
 20
116.3660237630208
 10
50.39347873263888
 20
116.1896348741319
 10
50.39347873263888
 20
115.8406467013889
 10
50.39347873263888
 20
115.3397298177083
 10
50.07963053385416
 20
115.0468967013889
 10
49.57147894965277
 20
115.0468967013889
 10
49.31034071180555
 20
115.0468967013889
 10
49.00028211805555
 20
115.1209662543403
 10
48.84835340711805
 20
115.4665093315972
 10
48.79219835069444
 20
115.5970784505208
 10
48.79564344618055
 20
115.808607313368
 10
48.79219835069444
 20
115.9498562282986
 10
48.79219835069444
 20
115.9498562282986
 10
49.08468695746527
 20
115.9498562282986
 10
49.08468695746527
 20
115.9498562282986
 10
49.07056206597222
 20
115.5584933810764
 10
49.1446316189236
 20
115.3114800347222
 10
49.58560384114583
 20
115.3114800347222
 10
49.88188205295138
 20
115.3114800347222
 10
50.08996582031249
 20
115.4630642361111
 10
50.08996582031249
 20
115.7734673394097
 10
50.08996582031249
 20
116.1755099826389
 10
49.92770182291666
 20
116.178955078125
 10
49.65967339409722
 20
116.2812744140625
 10
49.51497938368055
 20
116.3377739800347
 10
49.28243543836805
 20
116.4118435329861
 10
49.1411865234375
 20
116.4859130859375
 10
48.89072808159722
 20
116.613037109375
 10
48.82733832465277
 20
116.8245659722222
 10
48.82733832465277
 20
117.0857042100694
 10
48.82733832465277
 20
117.5228868272569
 10
49.13429633246528
 20
117.8088297526042
 10
49.56458875868055
 20
117.8088297526042
 10
50.04759114583333
 20
117.8088297526042
 10
50.34386935763889
 20
117.5583713107639
 10
50.31561957465277
 20
117.0608995225694
 10
50.31561957465277
 20
117.0608995225694
 10
50.02313096788194
 20
117.0608995225694
 10
50.02313096788194
 20
117.0608995225694
 97
        0
 75
     0
 76
     1
 98
        1
 10
0.0
 20
0.0
  0
HATCH
  5
69
330
A
100
AcDbEntity
  8
LAYER_1
 62
     7
100
AcDbHatch
 10
0.0
 20
0.0
 30
0.0
210
0.0
220
0.0
230
1.0
  2
SOLID
 70
     1
 71
     0
 91
        1
 92
        1
 93
        1
 72
     4
 94
        3
 73
     0
 74
     0
 95
       17
 96
       13
 40
0.0
 40
0.0
 40
0.0
 40
0.0
 40
1.0
 40
1.0
 40
1.0
 40
2.0
 40
2.0
 40
2.0
 40
3.0
 40
3.0
 40
3.0
 40
4.0
 40
4.0
 40
4.0
 40
4.0
 10
50.91885579427083
 20
115.1102864583333
 10
50.91885579427083
 20
115.1102864583333
 10
50.91885579427083
 20
117.7557752821181
 10
50.91885579427083
 20
117.7557752821181
 10
50.91885579427083
 20
117.7557752821181
 10
51.21168891059028
 20
117.7557752821181
 10
51.21168891059028
 20
117.7557752821181
 10
51.21168891059028
 20
117.7557752821181
 10
51.21168891059028
 20
115.1102864583333
 10
51.21168891059028
 20
115.1102864583333
 10
51.21168891059028
 20
115.1102864583333
 10
50.91885579427083
 20
115.1102864583333
 10
50.91885579427083
 20
115.1102864583333
 97
        0
 75
     0
 76
     1
 98
        1
 10
0.0
 20
0.0
  0
HATCH
  5
68
330
A
100
AcDbEntity
  8
LAYER_1
 62
     7
100
AcDbHatch
 10
0.0
 20
0.0
 30
0.0
210
0.0
220
0.0
230
1.0
  2
SOLID
 70
     1
 71
     0
 91
        2
 92
       16
 93
        1
 72
     4
 94
        3
 73
     0
 74
     0
 95
       20
 96
       16
 40
0.0
 40
0.0
 40
0.0
 40
0.0
 40
1.0
 40
1.0
 40
1.0
 40
2.0
 40
2.0
 40
2.0
 40
3.0
 40
3.0
 40
3.0
 40
4.0
 40
4.0
 40
4.0
 40
5.0
 40
5.0
 40
5.0
 40
5.0
 10
52.13531901041666
 20
115.3748697916667
 10
52.13531901041666
 20
115.3748697916667
 10
52.604541015625
 20
115.3748697916667
 10
52.604541015625
 20
115.3748697916667
 10
53.03483344184027
 20
115.3748697916667
 10
53.21122233072916
 20
115.6959526909722
 10
53.18297254774305
 20
116.4859130859375
 10
53.16161295572916
 20
117.0891493055556
 10
53.07720811631944
 20
117.4911919487847
 10
52.604541015625
 20
117.4911919487847
 10
52.604541015625
 20
117.4911919487847
 10
52.13531901041666
 20
117.4911919487847
 10
52.13531901041666
 20
117.4911919487847
 10
52.13531901041666
 20
117.4911919487847
 10
52.13531901041666
 20
115.3748697916667
 10
52.13531901041666
 20
115.3748697916667
 97
        0
 92
        1
 93
        1
 72
     4
 94
        3
 73
     0
 74
     0
 95
       20
 96
       16
 40
0.0
 40
0.0
 40
0.0
 40
0.0
 40
1.0
 40
1.0
 40
1.0
 40
2.0
 40
2.0
 40
2.0
 40
3.0
 40
3.0
 40
3.0
 40
4.0
 40
4.0
 40
4.0
 40
5.0
 40
5.0
 40
5.0
 40
5.0
 10
51.84283040364583
 20
115.1102864583333
 10
51.84283040364583
 20
115.1102864583333
 10
51.84283040364583
 20
117.7557752821181
 10
51.84283040364583
 20
117.7557752821181
 10
51.84283040364583
 20
117.7557752821181
 10
52.56940104166666
 20
117.7557752821181
 10
52.56940104166666
 20
117.7557752821181
 10
53.39450141059027
 20
117.7557752821181
 10
53.50750054253471
 20
117.0857042100694
 10
53.48648546006944
 20
116.4328586154514
 10
53.46512586805555
 20
115.7875922309028
 10
53.33800184461805
 20
115.1102864583333
 10
52.62211100260416
 20
115.1102864583333
 10
52.62211100260416
 20
115.1102864583333
 10
51.84283040364583
 20
115.1102864583333
 10
51.84283040364583
 20
115.1102864583333
 97
        0
 75
     0
 76
     1
 98
        1
 10
0.0
 20
0.0
  0
HATCH
  5
67
330
A
100
AcDbEntity
  8
LAYER_1
 62
     7
100
AcDbHatch
 10
0.0
 20
0.0
 30
0.0
210
0.0
220
0.0
230
1.0
  2
SOLID
 70
     1
 71
     0
 91
        1
 92
        1
 93
        1
 72
     4
 94
        3
 73
     0
 74
     0
 95
       41
 96
       37
 40
0.0
 40
0.0
 40
0.0
 40
0.0
 40
1.0
 40
1.0
 40
1.0
 40
2.0
 40
2.0
 40
2.0
 40
3.0
 40
3.0
 40
3.0
 40
4.0
 40
4.0
 40
4.0
 40
5.0
 40
5.0
 40
5.0
 40
6.0
 40
6.0
 40
6.0
 40
7.0
 40
7.0
 40
7.0
 40
8.0
 40
8.0
 40
8.0
 40
9.0
 40
9.0
 40
9.0
 40
10.0
 40
10.0
 40
10.0
 40
11.0
 40
11.0
 40
11.0
 40
12.0
 40
12.0
 40
12.0
 40
12.0
 10
53.96948784722222
 20
115.1102864583333
 10
53.96948784722222
 20
115.1102864583333
 10
53.96948784722222
 20
117.7557752821181
 10
53.96948784722222
 20
117.7557752821181
 10
53.96948784722222
 20
117.7557752821181
 10
55.29206000434027
 20
117.7557752821181
 10
55.29206000434027
 20
117.7557752821181
 10
55.29206000434027
 20
117.7557752821181
 10
55.29206000434027
 20
117.4911919487847
 10
55.29206000434027
 20
117.4911919487847
 10
55.29206000434027
 20
117.4911919487847
 10
54.26197645399305
 20
117.4911919487847
 10
54.26197645399305
 20
117.4911919487847
 10
54.26197645399305
 20
117.4911919487847
 10
54.26197645399305
 20
116.6164822048611
 10
54.26197645399305
 20
116.6164822048611
 10
54.26197645399305
 20
116.6164822048611
 10
55.22867024739583
 20
116.6164822048611
 10
55.22867024739583
 20
116.6164822048611
 10
55.22867024739583
 20
116.6164822048611
 10
55.22867024739583
 20
116.3518988715278
 10
55.22867024739583
 20
116.3518988715278
 10
55.22867024739583
 20
116.3518988715278
 10
54.26197645399305
 20
116.3518988715278
 10
54.26197645399305
 20
116.3518988715278
 10
54.26197645399305
 20
116.3518988715278
 10
54.26197645399305
 20
115.3748697916667
 10
54.26197645399305
 20
115.3748697916667
 10
54.26197645399305
 20
115.3748697916667
 10
55.29895019531249
 20
115.3748697916667
 10
55.29895019531249
 20
115.3748697916667
 10
55.29895019531249
 20
115.3748697916667
 10
55.29895019531249
 20
115.1102864583333
 10
55.29895019531249
 20
115.1102864583333
 10
55.29895019531249
 20
115.1102864583333
 10
53.96948784722222
 20
115.1102864583333
 10
53.96948784722222
 20
115.1102864583333
 97
        0
 75
     0
 76
     1
 98
        1
 10
0.0
 20
0.0
  0
HATCH
  5
66
330
A
100
AcDbEntity
  8
LAYER_1
 62
     7
100
AcDbHatch
 10
0.0
 20
0.0
 30
0.0
210
0.0
220
0.0
230
1.0
  2
SOLID
 70
     1
 71
     0
 91
        1
 92
        1
 93
        1
 72
     4
 94
        3
 73
     0
 74
     0
 95
       32
 96
       28
 40
0.0
 40
0.0
 40
0.0
 40
0.0
 40
1.0
 40
1.0
 40
1.0
 40
2.0
 40
2.0
 40
2.0
 40
3.0
 40
3.0
 40
3.0
 40
4.0
 40
4.0
 40
4.0
 40
5.0
 40
5.0
 40
5.0
 40
6.0
 40
6.0
 40
6.0
 40
7.0
 40
7.0
 40
7.0
 40
8.0
 40
8.0
 40
8.0
 40
9.0
 40
9.0
 40
9.0
 40
9.0
 10
55.75439181857639
 20
115.1102864583333
 10
55.75439181857639
 20
115.1102864583333
 10
55.75439181857639
 20
115.4630642361111
 10
55.75439181857639
 20
115.4630642361111
 10
55.75439181857639
 20
115.4630642361111
 10
56.07547471788194
 20
115.4630642361111
 10
56.07547471788194
 20
115.4630642361111
 10
56.07547471788194
 20
115.4065646701389
 10
56.07891981336805
 20
115.1809109157986
 10
56.06479492187499
 20
115.0468967013889
 10
56.06134982638888
 20
114.9022026909722
 10
56.01897515190971
 20
114.7540635850694
 10
55.89185112847222
 20
114.665869140625
 10
55.85326605902777
 20
114.6341742621528
 10
55.80365668402777
 20
114.6131591796875
 10
55.75439181857639
 20
114.5952446831597
 10
55.75439181857639
 20
114.5952446831597
 10
55.75439181857639
 20
114.7540635850694
 10
55.75439181857639
 20
114.7540635850694
 10
55.77919650607638
 20
114.7575086805556
 10
55.81433648003472
 20
114.7750786675347
 10
55.83535156249999
 20
114.7998833550347
 10
55.91321072048611
 20
114.8846327039931
 10
55.92733561197916
 20
115.0010769314236
 10
55.92733561197916
 20
115.1102864583333
 10
55.92733561197916
 20
115.1102864583333
 10
55.75439181857639
 20
115.1102864583333
 10
55.75439181857639
 20
115.1102864583333
 97
        0
 75
     0
 76
     1
 98
        1
 10
0.0
 20
0.0
  0
HATCH
  5
65
330
A
100
AcDbEntity
  8
LAYER_1
 62
     7
100
AcDbHatch
 10
0.0
 20
0.0
 30
0.0
210
0.0
220
0.0
230
1.0
  2
SOLID
 70
     1
 71
     0
 91
        1
 92
        1
 93
        1
 72
     4
 94
        3
 73
     0
 74
     0
 95
       41
 96
       37
 40
0.0
 40
0.0
 40
0.0
 40
0.0
 40
1.0
 40
1.0
 40
1.0
 40
2.0
 40
2.0
 40
2.0
 40
3.0
 40
3.0
 40
3.0
 40
4.0
 40
4.0
 40
4.0
 40
5.0
 40
5.0
 40
5.0
 40
6.0
 40
6.0
 40
6.0
 40
7.0
 40
7.0
 40
7.0
 40
8.0
 40
8.0
 40
8.0
 40
9.0
 40
9.0
 40
9.0
 40
10.0
 40
10.0
 40
10.0
 40
11.0
 40
11.0
 40
11.0
 40
12.0
 40
12.0
 40
12.0
 40
12.0
 10
41.15235460069444
 20
111.5825086805556
 10
41.15235460069444
 20
111.5825086805556
 10
41.15235460069444
 20
114.2279975043403
 10
41.15235460069444
 20
114.2279975043403
 10
41.15235460069444
 20
114.2279975043403
 10
41.44518771701389
 20
114.2279975043403
 10
41.44518771701389
 20
114.2279975043403
 10
41.44518771701389
 20
114.2279975043403
 10
41.44518771701389
 20
113.1238444010417
 10
41.44518771701389
 20
113.1238444010417
 10
41.44518771701389
 20
113.1238444010417
 10
42.45735677083333
 20
113.1238444010417
 10
42.45735677083333
 20
113.1238444010417
 10
42.45735677083333
 20
113.1238444010417
 10
42.45735677083333
 20
114.2279975043403
 10
42.45735677083333
 20
114.2279975043403
 10
42.45735677083333
 20
114.2279975043403
 10
42.75018988715277
 20
114.2279975043403
 10
42.75018988715277
 20
114.2279975043403
 10
42.75018988715277
 20
114.2279975043403
 10
42.75018988715277
 20
111.5825086805556
 10
42.75018988715277
 20
111.5825086805556
 10
42.75018988715277
 20
111.5825086805556
 10
42.45735677083333
 20
111.5825086805556
 10
42.45735677083333
 20
111.5825086805556
 10
42.45735677083333
 20
111.5825086805556
 10
42.45735677083333
 20
112.8596055772569
 10
42.45735677083333
 20
112.8596055772569
 10
42.45735677083333
 20
112.8596055772569
 10
41.44518771701389
 20
112.8596055772569
 10
41.44518771701389
 20
112.8596055772569
 10
41.44518771701389
 20
112.8596055772569
 10
41.44518771701389
 20
111.5825086805556
 10
41.44518771701389
 20
111.5825086805556
 10
41.44518771701389
 20
111.5825086805556
 10
41.15235460069444
 20
111.5825086805556
 10
41.15235460069444
 20
111.5825086805556
 97
        0
 75
     0
 76
     1
 98
        1
 10
0.0
 20
0.0
  0
HATCH
  5
64
330
A
100
AcDbEntity
  8
LAYER_1
 62
     7
100
AcDbHatch
 10
0.0
 20
0.0
 30
0.0
210
0.0
220
0.0
230
1.0
  2
SOLID
 70
     1
 71
     0
 91
        1
 92
        1
 93
        1
 72
     4
 94
        3
 73
     0
 74
     0
 95
       17
 96
       13
 40
0.0
 40
0.0
 40
0.0
 40
0.0
 40
1.0
 40
1.0
 40
1.0
 40
2.0
 40
2.0
 40
2.0
 40
3.0
 40
3.0
 40
3.0
 40
4.0
 40
4.0
 40
4.0
 40
4.0
 10
43.3740966796875
 20
111.5825086805556
 10
43.3740966796875
 20
111.5825086805556
 10
43.3740966796875
 20
114.2279975043403
 10
43.3740966796875
 20
114.2279975043403
 10
43.3740966796875
 20
114.2279975043403
 10
43.66692979600694
 20
114.2279975043403
 10
43.66692979600694
 20
114.2279975043403
 10
43.66692979600694
 20
114.2279975043403
 10
43.66692979600694
 20
111.5825086805556
 10
43.66692979600694
 20
111.5825086805556
 10
43.66692979600694
 20
111.5825086805556
 10
43.3740966796875
 20
111.5825086805556
 10
43.3740966796875
 20
111.5825086805556
 97
        0
 75
     0
 76
     1
 98
        1
 10
0.0
 20
0.0
  0
HATCH
  5
63
330
A
100
AcDbEntity
  8
LAYER_1
 62
     7
100
AcDbHatch
 10
0.0
 20
0.0
 30
0.0
210
0.0
220
0.0
230
1.0
  2
SOLID
 70
     1
 71
     0
 91
        1
 92
        1
 93
        1
 72
     4
 94
        3
 73
     0
 74
     0
 95
       53
 96
       49
 40
0.0
 40
0.0
 40
0.0
 40
0.0
 40
1.0
 40
1.0
 40
1.0
 40
2.0
 40
2.0
 40
2.0
 40
3.0
 40
3.0
 40
3.0
 40
4.0
 40
4.0
 40
4.0
 40
5.0
 40
5.0
 40
5.0
 40
6.0
 40
6.0
 40
6.0
 40
7.0
 40
7.0
 40
7.0
 40
8.0
 40
8.0
 40
8.0
 40
9.0
 40
9.0
 40
9.0
 40
10.0
 40
10.0
 40
10.0
 40
11.0
 40
11.0
 40
11.0
 40
12.0
 40
12.0
 40
12.0
 40
13.0
 40
13.0
 40
13.0
 40
14.0
 40
14.0
 40
14.0
 40
15.0
 40
15.0
 40
15.0
 40
16.0
 40
16.0
 40
16.0
 40
16.0
 10
45.88522677951389
 20
111.5614935980903
 10
45.88522677951389
 20
111.5614935980903
 10
45.659228515625
 20
111.5614935980903
 10
45.659228515625
 20
111.5614935980903
 10
45.659228515625
 20
111.5614935980903
 10
45.659228515625
 20
111.9742160373264
 10
45.659228515625
 20
111.9742160373264
 10
45.659228515625
 20
111.9742160373264
 10
45.65233832465277
 20
111.9742160373264
 10
45.65233832465277
 20
111.9742160373264
 10
45.57482367621527
 20
111.6741482204861
 10
45.33849012586805
 20
111.5191189236111
 10
45.04565700954861
 20
111.5191189236111
 10
44.25914171006944
 20
111.5191189236111
 10
44.1991970486111
 20
112.3021891276042
 10
44.1991970486111
 20
112.9229953342014
 10
44.1991970486111
 20
113.5403564453125
 10
44.30840657552083
 20
114.2810519748264
 10
45.07390679253472
 20
114.2810519748264
 10
45.57826877170138
 20
114.2810519748264
 10
45.86731228298611
 20
113.952734375
 10
45.86042209201388
 20
113.4590521918403
 10
45.86042209201388
 20
113.4590521918403
 10
45.56414388020833
 20
113.4590521918403
 10
45.56414388020833
 20
113.4590521918403
 10
45.56069878472222
 20
113.7835801866319
 10
45.42289496527778
 20
114.0092339409722
 10
45.08803168402778
 20
114.0164686414931
 10
44.50960015190972
 20
114.0268039279514
 10
44.50236545138888
 20
113.3639675564236
 10
44.50236545138888
 20
112.9123155381944
 10
44.50236545138888
 20
112.5102728949653
 10
44.48135036892361
 20
111.8081624348958
 10
45.00328233506944
 20
111.7837022569444
 10
45.54657389322917
 20
111.7588975694444
 10
45.59583875868055
 20
112.2563693576389
 10
45.59239366319444
 20
112.6759819878472
 10
45.59239366319444
 20
112.6759819878472
 10
45.00328233506944
 20
112.6759819878472
 10
45.00328233506944
 20
112.6759819878472
 10
45.00328233506944
 20
112.6759819878472
 10
45.00328233506944
 20
112.9405653211805
 10
45.00328233506944
 20
112.9405653211805
 10
45.00328233506944
 20
112.9405653211805
 10
45.88522677951389
 20
112.9405653211805
 10
45.88522677951389
 20
112.9405653211805
 10
45.88522677951389
 20
112.9405653211805
 10
45.88522677951389
 20
111.5614935980903
 10
45.88522677951389
 20
111.5614935980903
 97
        0
 75
     0
 76
     1
 98
        1
 10
0.0
 20
0.0
  0
HATCH
  5
62
330
A
100
AcDbEntity
  8
LAYER_1
 62
     7
100
AcDbHatch
 10
0.0
 20
0.0
 30
0.0
210
0.0
220
0.0
230
1.0
  2
SOLID
 70
     1
 71
     0
 91
        1
 92
        1
 93
        1
 72
     4
 94
        3
 73
     0
 74
     0
 95
       41
 96
       37
 40
0.0
 40
0.0
 40
0.0
 40
0.0
 40
1.0
 40
1.0
 40
1.0
 40
2.0
 40
2.0
 40
2.0
 40
3.0
 40
3.0
 40
3.0
 40
4.0
 40
4.0
 40
4.0
 40
5.0
 40
5.0
 40
5.0
 40
6.0
 40
6.0
 40
6.0
 40
7.0
 40
7.0
 40
7.0
 40
8.0
 40
8.0
 40
8.0
 40
9.0
 40
9.0
 40
9.0
 40
10.0
 40
10.0
 40
10.0
 40
11.0
 40
11.0
 40
11.0
 40
12.0
 40
12.0
 40
12.0
 40
12.0
 10
46.44229871961805
 20
111.5825086805556
 10
46.44229871961805
 20
111.5825086805556
 10
46.44229871961805
 20
114.2279975043403
 10
46.44229871961805
 20
114.2279975043403
 10
46.44229871961805
 20
114.2279975043403
 10
46.73478732638888
 20
114.2279975043403
 10
46.73478732638888
 20
114.2279975043403
 10
46.73478732638888
 20
114.2279975043403
 10
46.73478732638888
 20
113.1238444010417
 10
46.73478732638888
 20
113.1238444010417
 10
46.73478732638888
 20
113.1238444010417
 10
47.74730088975694
 20
113.1238444010417
 10
47.74730088975694
 20
113.1238444010417
 10
47.74730088975694
 20
113.1238444010417
 10
47.74730088975694
 20
114.2279975043403
 10
47.74730088975694
 20
114.2279975043403
 10
47.74730088975694
 20
114.2279975043403
 10
48.04013400607639
 20
114.2279975043403
 10
48.04013400607639
 20
114.2279975043403
 10
48.04013400607639
 20
114.2279975043403
 10
48.04013400607639
 20
111.5825086805556
 10
48.04013400607639
 20
111.5825086805556
 10
48.04013400607639
 20
111.5825086805556
 10
47.74730088975694
 20
111.5825086805556
 10
47.74730088975694
 20
111.5825086805556
 10
47.74730088975694
 20
111.5825086805556
 10
47.74730088975694
 20
112.8596055772569
 10
47.74730088975694
 20
112.8596055772569
 10
47.74730088975694
 20
112.8596055772569
 10
46.73478732638888
 20
112.8596055772569
 10
46.73478732638888
 20
112.8596055772569
 10
46.73478732638888
 20
112.8596055772569
 10
46.73478732638888
 20
111.5825086805556
 10
46.73478732638888
 20
111.5825086805556
 10
46.73478732638888
 20
111.5825086805556
 10
46.44229871961805
 20
111.5825086805556
 10
46.44229871961805
 20
111.5825086805556
 97
        0
 75
     0
 76
     1
 98
        1
 10
0.0
 20
0.0
  0
HATCH
  5
61
330
A
100
AcDbEntity
  8
LAYER_1
 62
     7
100
AcDbHatch
 10
0.0
 20
0.0
 30
0.0
210
0.0
220
0.0
230
1.0
  2
SOLID
 70
     1
 71
     0
 91
        1
 92
        1
 93
        1
 72
     4
 94
        3
 73
     0
 74
     0
 95
       56
 96
       52
 40
0.0
 40
0.0
 40
0.0
 40
0.0
 40
1.0
 40
1.0
 40
1.0
 40
2.0
 40
2.0
 40
2.0
 40
3.0
 40
3.0
 40
3.0
 40
4.0
 40
4.0
 40
4.0
 40
5.0
 40
5.0
 40
5.0
 40
6.0
 40
6.0
 40
6.0
 40
7.0
 40
7.0
 40
7.0
 40
8.0
 40
8.0
 40
8.0
 40
9.0
 40
9.0
 40
9.0
 40
10.0
 40
10.0
 40
10.0
 40
11.0
 40
11.0
 40
11.0
 40
12.0
 40
12.0
 40
12.0
 40
13.0
 40
13.0
 40
13.0
 40
14.0
 40
14.0
 40
14.0
 40
15.0
 40
15.0
 40
15.0
 40
16.0
 40
16.0
 40
16.0
 40
17.0
 40
17.0
 40
17.0
 40
17.0
 10
50.61120876736111
 20
113.5331217447917
 10
50.63256835937499
 20
113.8083848741319
 10
50.48408474392361
 20
114.0164686414931
 10
50.19159613715277
 20
114.0164686414931
 10
49.7647488064236
 20
114.0164686414931
 10
49.71892903645833
 20
113.748095703125
 10
49.71892903645833
 20
113.5438015407986
 10
49.71892903645833
 20
113.3601779513889
 10
49.79988878038194
 20
113.247523328993
 10
49.96938747829861
 20
113.1837890625
 10
50.11029188368055
 20
113.1310791015625
 10
50.248095703125
 20
113.0780246310764
 10
50.38900010850694
 20
113.0253146701389
 10
50.88991699218749
 20
112.8382459852431
 10
50.98155653211805
 20
112.6618570963542
 10
50.98155653211805
 20
112.3128689236111
 10
50.98155653211805
 20
111.8119520399306
 10
50.66770833333333
 20
111.5191189236111
 10
50.15990125868055
 20
111.5191189236111
 10
49.89876302083333
 20
111.5191189236111
 10
49.58835991753472
 20
111.5931884765625
 10
49.43677571614583
 20
111.9387315538194
 10
49.38027615017361
 20
112.069300672743
 10
49.38372124565971
 20
112.2808295355903
 10
49.38027615017361
 20
112.4220784505208
 10
49.38027615017361
 20
112.4220784505208
 10
49.67310926649305
 20
112.4220784505208
 10
49.67310926649305
 20
112.4220784505208
 10
49.658984375
 20
112.0307156032986
 10
49.73305392795138
 20
111.7837022569444
 10
50.17402615017361
 20
111.7837022569444
 10
50.47030436197916
 20
111.7837022569444
 10
50.67838812934027
 20
111.9352864583333
 10
50.67838812934027
 20
112.2456895616319
 10
50.67838812934027
 20
112.6477322048611
 10
50.51612413194444
 20
112.6511773003472
 10
50.248095703125
 20
112.7534966362847
 10
50.10340169270833
 20
112.8099962022569
 10
49.87051323784722
 20
112.8840657552083
 10
49.72960883246527
 20
112.9581353081597
 10
49.47915039062499
 20
113.0852593315972
 10
49.41541612413194
 20
113.2967881944444
 10
49.41541612413194
 20
113.5579264322917
 10
49.41541612413194
 20
113.9951090494792
 10
49.72237413194444
 20
114.2810519748264
 10
50.15266655815972
 20
114.2810519748264
 10
50.63601345486111
 20
114.2810519748264
 10
50.93229166666666
 20
114.0305935329861
 10
50.90404188368055
 20
113.5331217447917
 10
50.90404188368055
 20
113.5331217447917
 10
50.61120876736111
 20
113.5331217447917
 10
50.61120876736111
 20
113.5331217447917
 97
        0
 75
     0
 76
     1
 98
        1
 10
0.0
 20
0.0
  0
HATCH
  5
60
330
A
100
AcDbEntity
  8
LAYER_1
 62
     7
100
AcDbHatch
 10
0.0
 20
0.0
 30
0.0
210
0.0
220
0.0
230
1.0
  2
SOLID
 70
     1
 71
     0
 91
        1
 92
        1
 93
        1
 72
     4
 94
        3
 73
     0
 74
     0
 95
       17
 96
       13
 40
0.0
 40
0.0
 40
0.0
 40
0.0
 40
1.0
 40
1.0
 40
1.0
 40
2.0
 40
2.0
 40
2.0
 40
3.0
 40
3.0
 40
3.0
 40
4.0
 40
4.0
 40
4.0
 40
4.0
 10
51.5072781032986
 20
111.5825086805556
 10
51.5072781032986
 20
111.5825086805556
 10
51.5072781032986
 20
114.2279975043403
 10
51.5072781032986
 20
114.2279975043403
 10
51.5072781032986
 20
114.2279975043403
 10
51.79976671006944
 20
114.2279975043403
 10
51.79976671006944
 20
114.2279975043403
 10
51.79976671006944
 20
114.2279975043403
 10
51.79976671006944
 20
111.5825086805556
 10
51.79976671006944
 20
111.5825086805556
 10
51.79976671006944
 20
111.5825086805556
 10
51.5072781032986
 20
111.5825086805556
 10
51.5072781032986
 20
111.5825086805556
 97
        0
 75
     0
 76
     1
 98
        1
 10
0.0
 20
0.0
  0
HATCH
  5
5F
330
A
100
AcDbEntity
  8
LAYER_1
 62
     7
100
AcDbHatch
 10
0.0
 20
0.0
 30
0.0
210
0.0
220
0.0
230
1.0
  2
SOLID
 70
     1
 71
     0
 91
        2
 92
       16
 93
        1
 72
     4
 94
        3
 73
     0
 74
     0
 95
       20
 96
       16
 40
0.0
 40
0.0
 40
0.0
 40
0.0
 40
1.0
 40
1.0
 40
1.0
 40
2.0
 40
2.0
 40
2.0
 40
3.0
 40
3.0
 40
3.0
 40
4.0
 40
4.0
 40
4.0
 40
5.0
 40
5.0
 40
5.0
 40
5.0
 10
52.72374131944444
 20
111.8470920138889
 10
52.72374131944444
 20
111.8470920138889
 10
53.19261881510416
 20
111.8470920138889
 10
53.19261881510416
 20
111.8470920138889
 10
53.62291124131944
 20
111.8470920138889
 10
53.79930013020833
 20
112.1681749131944
 10
53.77139485677083
 20
112.9581353081597
 10
53.75003526475694
 20
113.5613715277778
 10
53.66528591579861
 20
113.9634141710069
 10
53.19261881510416
 20
113.9634141710069
 10
53.19261881510416
 20
113.9634141710069
 10
52.72374131944444
 20
113.9634141710069
 10
52.72374131944444
 20
113.9634141710069
 10
52.72374131944444
 20
113.9634141710069
 10
52.72374131944444
 20
111.8470920138889
 10
52.72374131944444
 20
111.8470920138889
 97
        0
 92
        1
 93
        1
 72
     4
 94
        3
 73
     0
 74
     0
 95
       20
 96
       16
 40
0.0
 40
0.0
 40
0.0
 40
0.0
 40
1.0
 40
1.0
 40
1.0
 40
2.0
 40
2.0
 40
2.0
 40
3.0
 40
3.0
 40
3.0
 40
4.0
 40
4.0
 40
4.0
 40
5.0
 40
5.0
 40
5.0
 40
5.0
 10
52.43090820312499
 20
111.5825086805556
 10
52.43090820312499
 20
111.5825086805556
 10
52.43090820312499
 20
114.2279975043403
 10
52.43090820312499
 20
114.2279975043403
 10
52.43090820312499
 20
114.2279975043403
 10
53.15747884114583
 20
114.2279975043403
 10
53.15747884114583
 20
114.2279975043403
 10
53.98292371961805
 20
114.2279975043403
 10
54.09557834201389
 20
113.5579264322917
 10
54.0745632595486
 20
112.9050808376736
 10
54.05354817708333
 20
112.259814453125
 10
53.92642415364583
 20
111.5825086805556
 10
53.21053331163194
 20
111.5825086805556
 10
53.21053331163194
 20
111.5825086805556
 10
52.43090820312499
 20
111.5825086805556
 10
52.43090820312499
 20
111.5825086805556
 97
        0
 75
     0
 76
     1
 98
        1
 10
0.0
 20
0.0
  0
HATCH
  5
5E
330
A
100
AcDbEntity
  8
LAYER_1
 62
     7
100
AcDbHatch
 10
0.0
 20
0.0
 30
0.0
210
0.0
220
0.0
230
1.0
  2
SOLID
 70
     1
 71
     0
 91
        1
 92
        1
 93
        1
 72
     4
 94
        3
 73
     0
 74
     0
 95
       41
 96
       37
 40
0.0
 40
0.0
 40
0.0
 40
0.0
 40
1.0
 40
1.0
 40
1.0
 40
2.0
 40
2.0
 40
2.0
 40
3.0
 40
3.0
 40
3.0
 40
4.0
 40
4.0
 40
4.0
 40
5.0
 40
5.0
 40
5.0
 40
6.0
 40
6.0
 40
6.0
 40
7.0
 40
7.0
 40
7.0
 40
8.0
 40
8.0
 40
8.0
 40
9.0
 40
9.0
 40
9.0
 40
10.0
 40
10.0
 40
10.0
 40
11.0
 40
11.0
 40
11.0
 40
12.0
 40
12.0
 40
12.0
 40
12.0
 10
54.55756564670138
 20
111.5825086805556
 10
54.55756564670138
 20
111.5825086805556
 10
54.55756564670138
 20
114.2279975043403
 10
54.55756564670138
 20
114.2279975043403
 10
54.55756564670138
 20
114.2279975043403
 10
55.88013780381944
 20
114.2279975043403
 10
55.88013780381944
 20
114.2279975043403
 10
55.88013780381944
 20
114.2279975043403
 10
55.88013780381944
 20
113.9634141710069
 10
55.88013780381944
 20
113.9634141710069
 10
55.88013780381944
 20
113.9634141710069
 10
54.85039876302083
 20
113.9634141710069
 10
54.85039876302083
 20
113.9634141710069
 10
54.85039876302083
 20
113.9634141710069
 10
54.85039876302083
 20
113.0887044270833
 10
54.85039876302083
 20
113.0887044270833
 10
54.85039876302083
 20
113.0887044270833
 10
55.81674804687499
 20
113.0887044270833
 10
55.81674804687499
 20
113.0887044270833
 10
55.81674804687499
 20
113.0887044270833
 10
55.81674804687499
 20
112.82412109375
 10
55.81674804687499
 20
112.82412109375
 10
55.81674804687499
 20
112.82412109375
 10
54.85039876302083
 20
112.82412109375
 10
54.85039876302083
 20
112.82412109375
 10
54.85039876302083
 20
112.82412109375
 10
54.85039876302083
 20
111.8470920138889
 10
54.85039876302083
 20
111.8470920138889
 10
54.85039876302083
 20
111.8470920138889
 10
55.88737250434027
 20
111.8470920138889
 10
55.88737250434027
 20
111.8470920138889
 10
55.88737250434027
 20
111.8470920138889
 10
55.88737250434027
 20
111.5825086805556
 10
55.88737250434027
 20
111.5825086805556
 10
55.88737250434027
 20
111.5825086805556
 10
54.55756564670138
 20
111.5825086805556
 10
54.55756564670138
 20
111.5825086805556
 97
        0
 75
     0
 76
     1
 98
        1
 10
0.0
 20
0.0
  0
HATCH
  5
5D
330
A
100
AcDbEntity
  8
LAYER_1
 62
     7
100
AcDbHatch
 10
0.0
 20
0.0
 30
0.0
210
0.0
220
0.0
230
1.0
  2
SOLID
 70
     1
 71
     0
 91
        1
 92
        1
 93
        1
 72
     4
 94
        3
 73
     0
 74
     0
 95
       32
 96
       28
 40
0.0
 40
0.0
 40
0.0
 40
0.0
 40
1.0
 40
1.0
 40
1.0
 40
2.0
 40
2.0
 40
2.0
 40
3.0
 40
3.0
 40
3.0
 40
4.0
 40
4.0
 40
4.0
 40
5.0
 40
5.0
 40
5.0
 40
6.0
 40
6.0
 40
6.0
 40
7.0
 40
7.0
 40
7.0
 40
8.0
 40
8.0
 40
8.0
 40
9.0
 40
9.0
 40
9.0
 40
9.0
 10
56.34246961805555
 20
111.5825086805556
 10
56.34246961805555
 20
111.5825086805556
 10
56.34246961805555
 20
111.9352864583333
 10
56.34246961805555
 20
111.9352864583333
 10
56.34246961805555
 20
111.9352864583333
 10
56.6635525173611
 20
111.9352864583333
 10
56.6635525173611
 20
111.9352864583333
 10
56.6635525173611
 20
111.8787868923611
 10
56.66699761284722
 20
111.6531331380208
 10
56.65287272135416
 20
111.5191189236111
 10
56.64942762586805
 20
111.3744249131944
 10
56.60705295138889
 20
111.2262858072917
 10
56.4802734375
 20
111.1380913628472
 10
56.44134385850694
 20
111.106396484375
 10
56.39207899305555
 20
111.0853814019097
 10
56.34246961805555
 20
111.0674669053819
 10
56.34246961805555
 20
111.0674669053819
 10
56.34246961805555
 20
111.2262858072917
 10
56.34246961805555
 20
111.2262858072917
 10
56.36727430555555
 20
111.2297309027778
 10
56.4027587890625
 20
111.2473008897569
 10
56.42377387152777
 20
111.2721055772569
 10
56.50128851996527
 20
111.3568549262153
 10
56.51541341145833
 20
111.4732991536458
 10
56.51541341145833
 20
111.5825086805556
 10
56.51541341145833
 20
111.5825086805556
 10
56.34246961805555
 20
111.5825086805556
 10
56.34246961805555
 20
111.5825086805556
 97
        0
 75
     0
 76
     1
 98
        1
 10
0.0
 20
0.0
  0
HATCH
  5
5C
330
A
100
AcDbEntity
  8
LAYER_1
 62
     7
100
AcDbHatch
 10
0.0
 20
0.0
 30
0.0
210
0.0
220
0.0
230
1.0
  2
SOLID
 70
     1
 71
     0
 91
        2
 92
       16
 93
        1
 72
     4
 94
        3
 73
     0
 74
     0
 95
       17
 96
       13
 40
0.0
 40
0.0
 40
0.0
 40
0.0
 40
1.0
 40
1.0
 40
1.0
 40
2.0
 40
2.0
 40
2.0
 40
3.0
 40
3.0
 40
3.0
 40
4.0
 40
4.0
 40
4.0
 40
4.0
 10
41.94576009114583
 20
110.4886908637153
 10
41.49445258246527
 20
110.4886908637153
 10
41.38145345052083
 20
110.0160237630208
 10
41.38489854600694
 20
109.4269124348958
 10
41.38868815104166
 20
108.6614122178819
 10
41.46620279947916
 20
108.2559244791667
 10
41.95299479166666
 20
108.2559244791667
 10
42.43978678385416
 20
108.2559244791667
 10
42.51730143229166
 20
108.6614122178819
 10
42.52074652777777
 20
109.4269124348958
 10
42.52419162326389
 20
110.0160237630208
 10
42.41153700086805
 20
110.4886908637153
 10
41.94576009114583
 20
110.4886908637153
 97
        0
 92
        1
 93
        1
 72
     4
 94
        3
 73
     0
 74
     0
 95
       17
 96
       13
 40
0.0
 40
0.0
 40
0.0
 40
0.0
 40
1.0
 40
1.0
 40
1.0
 40
2.0
 40
2.0
 40
2.0
 40
3.0
 40
3.0
 40
3.0
 40
4.0
 40
4.0
 40
4.0
 40
4.0
 10
41.95988498263888
 20
110.7532741970486
 10
42.73261990017361
 20
110.7532741970486
 10
42.82770453559027
 20
110.0404839409722
 10
42.82425944010416
 20
109.433802625868
 10
42.82046983506944
 20
108.700341796875
 10
42.72538519965278
 20
107.9913411458333
 10
41.95299479166666
 20
107.9913411458333
 10
41.18060438368055
 20
107.9913411458333
 10
41.08896484375
 20
108.700341796875
 10
41.08173014322917
 20
109.433802625868
 10
41.08173014322917
 20
110.0404839409722
 10
41.17336968315972
 20
110.7532741970486
 10
41.95988498263888
 20
110.7532741970486
 97
        0
 75
     0
 76
     1
 98
        1
 10
0.0
 20
0.0
  0
HATCH
  5
5B
330
A
100
AcDbEntity
  8
LAYER_1
 62
     7
100
AcDbHatch
 10
0.0
 20
0.0
 30
0.0
210
0.0
220
0.0
230
1.0
  2
SOLID
 70
     1
 71
     0
 91
        2
 92
       16
 93
        1
 72
     4
 94
        3
 73
     0
 74
     0
 95
       20
 96
       16
 40
0.0
 40
0.0
 40
0.0
 40
0.0
 40
1.0
 40
1.0
 40
1.0
 40
2.0
 40
2.0
 40
2.0
 40
3.0
 40
3.0
 40
3.0
 40
4.0
 40
4.0
 40
4.0
 40
5.0
 40
5.0
 40
5.0
 40
5.0
 10
43.62455512152778
 20
109.483412000868
 10
43.62455512152778
 20
109.483412000868
 10
44.08654242621527
 20
109.483412000868
 10
44.08654242621527
 20
109.483412000868
 10
44.22434624565972
 20
109.4868570963542
 10
44.605029296875
 20
109.5078721788194
 10
44.59813910590277
 20
109.9702039930556
 10
44.59090440538194
 20
110.4249565972222
 10
44.23468153211805
 20
110.4356363932292
 10
44.03727756076388
 20
110.4356363932292
 10
44.03727756076388
 20
110.4356363932292
 10
43.62455512152778
 20
110.4356363932292
 10
43.62455512152778
 20
110.4356363932292
 10
43.62455512152778
 20
110.4356363932292
 10
43.62455512152778
 20
109.483412000868
 10
43.62455512152778
 20
109.483412000868
 97
        0
 92
        1
 93
        1
 72
     4
 94
        3
 73
     0
 74
     0
 95
       50
 96
       46
 40
0.0
 40
0.0
 40
0.0
 40
0.0
 40
1.0
 40
1.0
 40
1.0
 40
2.0
 40
2.0
 40
2.0
 40
3.0
 40
3.0
 40
3.0
 40
4.0
 40
4.0
 40
4.0
 40
5.0
 40
5.0
 40
5.0
 40
6.0
 40
6.0
 40
6.0
 40
7.0
 40
7.0
 40
7.0
 40
8.0
 40
8.0
 40
8.0
 40
9.0
 40
9.0
 40
9.0
 40
10.0
 40
10.0
 40
10.0
 40
11.0
 40
11.0
 40
11.0
 40
12.0
 40
12.0
 40
12.0
 40
13.0
 40
13.0
 40
13.0
 40
14.0
 40
14.0
 40
14.0
 40
15.0
 40
15.0
 40
15.0
 40
15.0
 10
43.62455512152778
 20
108.0547309027778
 10
43.62455512152778
 20
108.0547309027778
 10
43.33172200520833
 20
108.0547309027778
 10
43.33172200520833
 20
108.0547309027778
 10
43.33172200520833
 20
108.0547309027778
 10
43.33172200520833
 20
110.7002197265625
 10
43.33172200520833
 20
110.7002197265625
 10
43.33172200520833
 20
110.7002197265625
 10
44.01247287326388
 20
110.7002197265625
 10
44.01247287326388
 20
110.7002197265625
 10
44.56644422743055
 20
110.7002197265625
 10
44.91922200520833
 20
110.5555257161458
 10
44.90165201822916
 20
109.9453993055555
 10
44.89097222222222
 20
109.6349962022569
 10
44.70045844184028
 20
109.4127875434028
 10
44.39350043402777
 20
109.3704128689236
 10
44.39350043402777
 20
109.3704128689236
 10
44.39350043402777
 20
109.3635226779514
 10
44.39350043402777
 20
109.3635226779514
 10
44.73559841579861
 20
109.3318277994792
 10
44.82034776475694
 20
109.2222737630208
 10
44.86272243923611
 20
108.8694959852431
 10
44.87340223524305
 20
108.6720920138889
 10
44.89097222222222
 20
108.4781331380208
 10
44.91922200520833
 20
108.2803846571181
 10
44.92955729166666
 20
108.2311197916667
 10
44.95091688368055
 20
108.1146755642361
 10
45.02119683159722
 20
108.1146755642361
 10
45.02119683159722
 20
108.1146755642361
 10
45.02119683159722
 20
108.0547309027778
 10
45.02119683159722
 20
108.0547309027778
 10
45.02119683159722
 20
108.0547309027778
 10
44.67909884982638
 20
108.0547309027778
 10
44.67909884982638
 20
108.0547309027778
 10
44.61570909288194
 20
108.2242296006944
 10
44.58745930989583
 20
108.5522026909722
 10
44.58745930989583
 20
108.7285915798611
 10
44.58745930989583
 20
108.9931749131944
 10
44.48169487847222
 20
109.2188286675347
 10
44.13615180121528
 20
109.2188286675347
 10
44.13615180121528
 20
109.2188286675347
 10
43.62455512152778
 20
109.2188286675347
 10
43.62455512152778
 20
109.2188286675347
 10
43.62455512152778
 20
109.2188286675347
 10
43.62455512152778
 20
108.0547309027778
 10
43.62455512152778
 20
108.0547309027778
 97
        0
 75
     0
 76
     1
 98
        1
 10
0.0
 20
0.0
  0
HATCH
  5
5A
330
A
100
AcDbEntity
  8
LAYER_1
 62
     7
100
AcDbHatch
 10
0.0
 20
0.0
 30
0.0
210
0.0
220
0.0
230
1.0
  2
SOLID
 70
     1
 71
     0
 91
        1
 92
        1
 93
        1
 72
     4
 94
        3
 73
     0
 74
     0
 95
       44
 96
       40
 40
0.0
 40
0.0
 40
0.0
 40
0.0
 40
1.0
 40
1.0
 40
1.0
 40
2.0
 40
2.0
 40
2.0
 40
3.0
 40
3.0
 40
3.0
 40
4.0
 40
4.0
 40
4.0
 40
5.0
 40
5.0
 40
5.0
 40
6.0
 40
6.0
 40
6.0
 40
7.0
 40
7.0
 40
7.0
 40
8.0
 40
8.0
 40
8.0
 40
9.0
 40
9.0
 40
9.0
 40
10.0
 40
10.0
 40
10.0
 40
11.0
 40
11.0
 40
11.0
 40
12.0
 40
12.0
 40
12.0
 40
13.0
 40
13.0
 40
13.0
 40
13.0
 10
47.54679633246527
 20
109.9064697265625
 10
47.53956163194444
 20
110.2203179253472
 10
47.43758680555555
 20
110.4886908637153
 10
47.07068413628472
 20
110.4886908637153
 10
46.56287706163194
 20
110.4886908637153
 10
46.5556423611111
 20
109.7655653211806
 10
46.5556423611111
 20
109.4162326388889
 10
46.54151746961805
 20
109.0565646701389
 10
46.53462727864583
 20
108.2559244791667
 10
47.07068413628472
 20
108.2559244791667
 10
47.41967230902777
 20
108.2559244791667
 10
47.49374186197916
 20
108.5415228949653
 10
47.52922634548611
 20
108.8309109157986
 10
47.53611653645833
 20
108.8908555772569
 10
47.53956163194444
 20
108.9508002387153
 10
47.54679633246527
 20
109.0107449001736
 10
47.54679633246527
 20
109.0107449001736
 10
47.83962944878472
 20
109.0107449001736
 10
47.83962944878472
 20
109.0107449001736
 10
47.83239474826389
 20
108.9576904296875
 10
47.83239474826389
 20
108.9011908637153
 10
47.82550455729167
 20
108.8484809027778
 10
47.8079345703125
 20
108.6331624348958
 10
47.79725477430555
 20
108.4708984375
 10
47.67013075086805
 20
108.2876193576389
 10
47.53267144097222
 20
108.0971055772569
 10
47.34939236111111
 20
107.9913411458333
 10
47.09548882378472
 20
107.9913411458333
 10
46.28072374131944
 20
107.9913411458333
 10
46.25247395833333
 20
108.7778564453125
 10
46.25247395833333
 20
109.4093424479167
 10
46.25247395833333
 20
110.0053439670139
 10
46.34032389322916
 20
110.7532741970486
 10
47.09169921874999
 20
110.7532741970486
 10
47.59261610243055
 20
110.7532741970486
 10
47.85375434027777
 20
110.3791368272569
 10
47.83962944878472
 20
109.9064697265625
 10
47.83962944878472
 20
109.9064697265625
 10
47.54679633246527
 20
109.9064697265625
 10
47.54679633246527
 20
109.9064697265625
 97
        0
 75
     0
 76
     1
 98
        1
 10
0.0
 20
0.0
  0
HATCH
  5
59
330
A
100
AcDbEntity
  8
LAYER_1
 62
     7
100
AcDbHatch
 10
0.0
 20
0.0
 30
0.0
210
0.0
220
0.0
230
1.0
  2
SOLID
 70
     1
 71
     0
 91
        1
 92
        1
 93
        1
 72
     4
 94
        3
 73
     0
 74
     0
 95
       41
 96
       37
 40
0.0
 40
0.0
 40
0.0
 40
0.0
 40
1.0
 40
1.0
 40
1.0
 40
2.0
 40
2.0
 40
2.0
 40
3.0
 40
3.0
 40
3.0
 40
4.0
 40
4.0
 40
4.0
 40
5.0
 40
5.0
 40
5.0
 40
6.0
 40
6.0
 40
6.0
 40
7.0
 40
7.0
 40
7.0
 40
8.0
 40
8.0
 40
8.0
 40
9.0
 40
9.0
 40
9.0
 40
10.0
 40
10.0
 40
10.0
 40
11.0
 40
11.0
 40
11.0
 40
12.0
 40
12.0
 40
12.0
 40
12.0
 10
48.28749186197916
 20
108.0547309027778
 10
48.28749186197916
 20
108.0547309027778
 10
48.28749186197916
 20
110.7002197265625
 10
48.28749186197916
 20
110.7002197265625
 10
48.28749186197916
 20
110.7002197265625
 10
49.61006401909722
 20
110.7002197265625
 10
49.61006401909722
 20
110.7002197265625
 10
49.61006401909722
 20
110.7002197265625
 10
49.61006401909722
 20
110.4356363932292
 10
49.61006401909722
 20
110.4356363932292
 10
49.61006401909722
 20
110.4356363932292
 10
48.58032497829861
 20
110.4356363932292
 10
48.58032497829861
 20
110.4356363932292
 10
48.58032497829861
 20
110.4356363932292
 10
48.58032497829861
 20
109.5609266493055
 10
48.58032497829861
 20
109.5609266493055
 10
48.58032497829861
 20
109.5609266493055
 10
49.54667426215277
 20
109.5609266493055
 10
49.54667426215277
 20
109.5609266493055
 10
49.54667426215277
 20
109.5609266493055
 10
49.54667426215277
 20
109.2963433159722
 10
49.54667426215277
 20
109.2963433159722
 10
49.54667426215277
 20
109.2963433159722
 10
48.58032497829861
 20
109.2963433159722
 10
48.58032497829861
 20
109.2963433159722
 10
48.58032497829861
 20
109.2963433159722
 10
48.58032497829861
 20
108.3193142361111
 10
48.58032497829861
 20
108.3193142361111
 10
48.58032497829861
 20
108.3193142361111
 10
49.61729871961805
 20
108.3193142361111
 10
49.61729871961805
 20
108.3193142361111
 10
49.61729871961805
 20
108.3193142361111
 10
49.61729871961805
 20
108.0547309027778
 10
49.61729871961805
 20
108.0547309027778
 10
49.61729871961805
 20
108.0547309027778
 10
48.28749186197916
 20
108.0547309027778
 10
48.28749186197916
 20
108.0547309027778
 97
        0
 75
     0
 76
     1
 98
        1
 10
0.0
 20
0.0
  0
HATCH
  5
58
330
A
100
AcDbEntity
  8
LAYER_1
 62
     7
100
AcDbHatch
 10
0.0
 20
0.0
 30
0.0
210
0.0
220
0.0
230
1.0
  2
SOLID
 70
     1
 71
     0
 91
        1
 92
        1
 93
        1
 72
     4
 94
        3
 73
     0
 74
     0
 95
       53
 96
       49
 40
0.0
 40
0.0
 40
0.0
 40
0.0
 40
1.0
 40
1.0
 40
1.0
 40
2.0
 40
2.0
 40
2.0
 40
3.0
 40
3.0
 40
3.0
 40
4.0
 40
4.0
 40
4.0
 40
5.0
 40
5.0
 40
5.0
 40
6.0
 40
6.0
 40
6.0
 40
7.0
 40
7.0
 40
7.0
 40
8.0
 40
8.0
 40
8.0
 40
9.0
 40
9.0
 40
9.0
 40
10.0
 40
10.0
 40
10.0
 40
11.0
 40
11.0
 40
11.0
 40
12.0
 40
12.0
 40
12.0
 40
13.0
 40
13.0
 40
13.0
 40
14.0
 40
14.0
 40
14.0
 40
15.0
 40
15.0
 40
15.0
 40
16.0
 40
16.0
 40
16.0
 40
16.0
 10
51.38118760850694
 20
110.7002197265625
 10
51.38118760850694
 20
110.7002197265625
 10
51.67402072482638
 20
110.7002197265625
 10
51.67402072482638
 20
110.7002197265625
 10
51.67402072482638
 20
110.7002197265625
 10
51.67402072482638
 20
108.0547309027778
 10
51.67402072482638
 20
108.0547309027778
 10
51.67402072482638
 20
108.0547309027778
 10
51.19411892361111
 20
108.0547309027778
 10
51.19411892361111
 20
108.0547309027778
 10
51.19411892361111
 20
108.0547309027778
 10
50.45342339409721
 20
110.1710530598958
 10
50.45342339409721
 20
110.1710530598958
 10
50.41104871961805
 20
110.2909423828125
 10
50.37935384114583
 20
110.4108317057292
 10
50.35454915364583
 20
110.5696506076389
 10
50.35454915364583
 20
110.5696506076389
 10
50.34765896267361
 20
110.5696506076389
 10
50.34765896267361
 20
110.5696506076389
 10
50.35110405815972
 20
110.4356363932292
 10
50.35454915364583
 20
110.2981770833333
 10
50.35454915364583
 20
110.1641628689236
 10
50.35454915364583
 20
110.1641628689236
 10
50.35454915364583
 20
108.0547309027778
 10
50.35454915364583
 20
108.0547309027778
 10
50.35454915364583
 20
108.0547309027778
 10
50.062060546875
 20
108.0547309027778
 10
50.062060546875
 20
108.0547309027778
 10
50.062060546875
 20
108.0547309027778
 10
50.062060546875
 20
110.7002197265625
 10
50.062060546875
 20
110.7002197265625
 10
50.062060546875
 20
110.7002197265625
 10
50.53817274305555
 20
110.7002197265625
 10
50.53817274305555
 20
110.7002197265625
 10
50.53817274305555
 20
110.7002197265625
 10
51.28954806857639
 20
108.534632703993
 10
51.28954806857639
 20
108.534632703993
 10
51.3212429470486
 20
108.4533284505208
 10
51.3460476345486
 20
108.3685791015625
 10
51.38118760850694
 20
108.2452446831597
 10
51.38118760850694
 20
108.2452446831597
 10
51.38807779947916
 20
108.2452446831597
 10
51.38807779947916
 20
108.2452446831597
 10
51.38463270399305
 20
108.340673828125
 10
51.38118760850694
 20
108.4429931640625
 10
51.38118760850694
 20
108.5415228949653
 10
51.38118760850694
 20
108.5415228949653
 10
51.38118760850694
 20
110.7002197265625
 10
51.38118760850694
 20
110.7002197265625
 97
        0
 75
     0
 76
     1
 98
        1
 10
0.0
 20
0.0
  0
HATCH
  5
57
330
A
100
AcDbEntity
  8
LAYER_1
 62
     7
100
AcDbHatch
 10
0.0
 20
0.0
 30
0.0
210
0.0
220
0.0
230
1.0
  2
SOLID
 70
     1
 71
     0
 91
        1
 92
        1
 93
        1
 72
     4
 94
        3
 73
     0
 74
     0
 95
       29
 96
       25
 40
0.0
 40
0.0
 40
0.0
 40
0.0
 40
1.0
 40
1.0
 40
1.0
 40
2.0
 40
2.0
 40
2.0
 40
3.0
 40
3.0
 40
3.0
 40
4.0
 40
4.0
 40
4.0
 40
5.0
 40
5.0
 40
5.0
 40
6.0
 40
6.0
 40
6.0
 40
7.0
 40
7.0
 40
7.0
 40
8.0
 40
8.0
 40
8.0
 40
8.0
 10
51.99820421006944
 20
110.7002197265625
 10
51.99820421006944
 20
110.7002197265625
 10
53.65942925347222
 20
110.7002197265625
 10
53.65942925347222
 20
110.7002197265625
 10
53.65942925347222
 20
110.7002197265625
 10
53.65942925347222
 20
110.4356363932292
 10
53.65942925347222
 20
110.4356363932292
 10
53.65942925347222
 20
110.4356363932292
 10
52.97523328993055
 20
110.4356363932292
 10
52.97523328993055
 20
110.4356363932292
 10
52.97523328993055
 20
110.4356363932292
 10
52.97523328993055
 20
108.0547309027778
 10
52.97523328993055
 20
108.0547309027778
 10
52.97523328993055
 20
108.0547309027778
 10
52.68240017361111
 20
108.0547309027778
 10
52.68240017361111
 20
108.0547309027778
 10
52.68240017361111
 20
108.0547309027778
 10
52.68240017361111
 20
110.4356363932292
 10
52.68240017361111
 20
110.4356363932292
 10
52.68240017361111
 20
110.4356363932292
 10
51.99820421006944
 20
110.4356363932292
 10
51.99820421006944
 20
110.4356363932292
 10
51.99820421006944
 20
110.4356363932292
 10
51.99820421006944
 20
110.7002197265625
 10
51.99820421006944
 20
110.7002197265625
 97
        0
 75
     0
 76
     1
 98
        1
 10
0.0
 20
0.0
  0
HATCH
  5
56
330
A
100
AcDbEntity
  8
LAYER_1
 62
     7
100
AcDbHatch
 10
0.0
 20
0.0
 30
0.0
210
0.0
220
0.0
230
1.0
  2
SOLID
 70
     1
 71
     0
 91
        1
 92
        1
 93
        1
 72
     4
 94
        3
 73
     0
 74
     0
 95
       41
 96
       37
 40
0.0
 40
0.0
 40
0.0
 40
0.0
 40
1.0
 40
1.0
 40
1.0
 40
2.0
 40
2.0
 40
2.0
 40
3.0
 40
3.0
 40
3.0
 40
4.0
 40
4.0
 40
4.0
 40
5.0
 40
5.0
 40
5.0
 40
6.0
 40
6.0
 40
6.0
 40
7.0
 40
7.0
 40
7.0
 40
8.0
 40
8.0
 40
8.0
 40
9.0
 40
9.0
 40
9.0
 40
10.0
 40
10.0
 40
10.0
 40
11.0
 40
11.0
 40
11.0
 40
12.0
 40
12.0
 40
12.0
 40
12.0
 10
53.97017686631944
 20
108.0547309027778
 10
53.97017686631944
 20
108.0547309027778
 10
53.97017686631944
 20
110.7002197265625
 10
53.97017686631944
 20
110.7002197265625
 10
53.97017686631944
 20
110.7002197265625
 10
55.29274902343749
 20
110.7002197265625
 10
55.29274902343749
 20
110.7002197265625
 10
55.29274902343749
 20
110.7002197265625
 10
55.29274902343749
 20
110.4356363932292
 10
55.29274902343749
 20
110.4356363932292
 10
55.29274902343749
 20
110.4356363932292
 10
54.26300998263888
 20
110.4356363932292
 10
54.26300998263888
 20
110.4356363932292
 10
54.26300998263888
 20
110.4356363932292
 10
54.26300998263888
 20
109.5609266493055
 10
54.26300998263888
 20
109.5609266493055
 10
54.26300998263888
 20
109.5609266493055
 10
55.22935926649305
 20
109.5609266493055
 10
55.22935926649305
 20
109.5609266493055
 10
55.22935926649305
 20
109.5609266493055
 10
55.22935926649305
 20
109.2963433159722
 10
55.22935926649305
 20
109.2963433159722
 10
55.22935926649305
 20
109.2963433159722
 10
54.26300998263888
 20
109.2963433159722
 10
54.26300998263888
 20
109.2963433159722
 10
54.26300998263888
 20
109.2963433159722
 10
54.26300998263888
 20
108.3193142361111
 10
54.26300998263888
 20
108.3193142361111
 10
54.26300998263888
 20
108.3193142361111
 10
55.29998372395833
 20
108.3193142361111
 10
55.29998372395833
 20
108.3193142361111
 10
55.29998372395833
 20
108.3193142361111
 10
55.29998372395833
 20
108.0547309027778
 10
55.29998372395833
 20
108.0547309027778
 10
55.29998372395833
 20
108.0547309027778
 10
53.97017686631944
 20
108.0547309027778
 10
53.97017686631944
 20
108.0547309027778
 97
        0
 75
     0
 76
     1
 98
        1
 10
0.0
 20
0.0
  0
HATCH
  5
55
330
A
100
AcDbEntity
  8
LAYER_1
 62
     7
100
AcDbHatch
 10
0.0
 20
0.0
 30
0.0
210
0.0
220
0.0
230
1.0
  2
SOLID
 70
     1
 71
     0
 91
        2
 92
       16
 93
        1
 72
     4
 94
        3
 73
     0
 74
     0
 95
       20
 96
       16
 40
0.0
 40
0.0
 40
0.0
 40
0.0
 40
1.0
 40
1.0
 40
1.0
 40
2.0
 40
2.0
 40
2.0
 40
3.0
 40
3.0
 40
3.0
 40
4.0
 40
4.0
 40
4.0
 40
5.0
 40
5.0
 40
5.0
 40
5.0
 10
56.06927354600694
 20
109.483412000868
 10
56.06927354600694
 20
109.483412000868
 10
56.53126085069444
 20
109.483412000868
 10
56.53126085069444
 20
109.483412000868
 10
56.66872016059028
 20
109.4868570963542
 10
57.04974772135416
 20
109.5078721788194
 10
57.04285753038194
 20
109.9702039930556
 10
57.0356228298611
 20
110.4249565972222
 10
56.67939995659722
 20
110.4356363932292
 10
56.48199598524305
 20
110.4356363932292
 10
56.48199598524305
 20
110.4356363932292
 10
56.06927354600694
 20
110.4356363932292
 10
56.06927354600694
 20
110.4356363932292
 10
56.06927354600694
 20
110.4356363932292
 10
56.06927354600694
 20
109.483412000868
 10
56.06927354600694
 20
109.483412000868
 97
        0
 92
        1
 93
        1
 72
     4
 94
        3
 73
     0
 74
     0
 95
       50
 96
       46
 40
0.0
 40
0.0
 40
0.0
 40
0.0
 40
1.0
 40
1.0
 40
1.0
 40
2.0
 40
2.0
 40
2.0
 40
3.0
 40
3.0
 40
3.0
 40
4.0
 40
4.0
 40
4.0
 40
5.0
 40
5.0
 40
5.0
 40
6.0
 40
6.0
 40
6.0
 40
7.0
 40
7.0
 40
7.0
 40
8.0
 40
8.0
 40
8.0
 40
9.0
 40
9.0
 40
9.0
 40
10.0
 40
10.0
 40
10.0
 40
11.0
 40
11.0
 40
11.0
 40
12.0
 40
12.0
 40
12.0
 40
13.0
 40
13.0
 40
13.0
 40
14.0
 40
14.0
 40
14.0
 40
15.0
 40
15.0
 40
15.0
 40
15.0
 10
56.06927354600694
 20
108.0547309027778
 10
56.06927354600694
 20
108.0547309027778
 10
55.7764404296875
 20
108.0547309027778
 10
55.7764404296875
 20
108.0547309027778
 10
55.7764404296875
 20
108.0547309027778
 10
55.7764404296875
 20
110.7002197265625
 10
55.7764404296875
 20
110.7002197265625
 10
55.7764404296875
 20
110.7002197265625
 10
56.45719129774305
 20
110.7002197265625
 10
56.45719129774305
 20
110.7002197265625
 10
57.0108181423611
 20
110.7002197265625
 10
57.36359592013888
 20
110.5555257161458
 10
57.34602593315972
 20
109.9453993055555
 10
57.33534613715278
 20
109.6349962022569
 10
57.14483235677083
 20
109.4127875434028
 10
56.83821885850694
 20
109.3704128689236
 10
56.83821885850694
 20
109.3704128689236
 10
56.83821885850694
 20
109.3635226779514
 10
56.83821885850694
 20
109.3635226779514
 10
57.18031684027778
 20
109.3318277994792
 10
57.2647216796875
 20
109.2222737630208
 10
57.30709635416666
 20
108.8694959852431
 10
57.31777615017361
 20
108.6720920138889
 10
57.33534613715278
 20
108.4781331380208
 10
57.36359592013888
 20
108.2803846571181
 10
57.37427571614583
 20
108.2311197916667
 10
57.39529079861111
 20
108.1146755642361
 10
57.46591525607639
 20
108.1146755642361
 10
57.46591525607639
 20
108.1146755642361
 10
57.46591525607639
 20
108.0547309027778
 10
57.46591525607639
 20
108.0547309027778
 10
57.46591525607639
 20
108.0547309027778
 10
57.12381727430555
 20
108.0547309027778
 10
57.12381727430555
 20
108.0547309027778
 10
57.06042751736111
 20
108.2242296006944
 10
57.032177734375
 20
108.5522026909722
 10
57.032177734375
 20
108.7285915798611
 10
57.032177734375
 20
108.9931749131944
 10
56.92641330295138
 20
109.2188286675347
 10
56.58052571614583
 20
109.2188286675347
 10
56.58052571614583
 20
109.2188286675347
 10
56.06927354600694
 20
109.2188286675347
 10
56.06927354600694
 20
109.2188286675347
 10
56.06927354600694
 20
109.2188286675347
 10
56.06927354600694
 20
108.0547309027778
 10
56.06927354600694
 20
108.0547309027778
 97
        0
 75
     0
 76
     1
 98
        1
 10
0.0
 20
0.0
  0
HATCH
  5
54
330
A
100
AcDbEntity
  8
LAYER_1
 62
     7
100
AcDbHatch
 10
0.0
 20
0.0
 30
0.0
210
0.0
220
0.0
230
1.0
  2
SOLID
 70
     1
 71
     0
 91
        1
 92
        1
 93
        1
 72
     4
 94
        3
 73
     0
 74
     0
 95
       35
 96
       31
 40
0.0
 40
0.0
 40
0.0
 40
0.0
 40
1.0
 40
1.0
 40
1.0
 40
2.0
 40
2.0
 40
2.0
 40
3.0
 40
3.0
 40
3.0
 40
4.0
 40
4.0
 40
4.0
 40
5.0
 40
5.0
 40
5.0
 40
6.0
 40
6.0
 40
6.0
 40
7.0
 40
7.0
 40
7.0
 40
8.0
 40
8.0
 40
8.0
 40
9.0
 40
9.0
 40
9.0
 40
10.0
 40
10.0
 40
10.0
 40
10.0
 10
41.13444010416666
 20
104.526953125
 10
41.13444010416666
 20
104.526953125
 10
41.13444010416666
 20
107.1724419487847
 10
41.13444010416666
 20
107.1724419487847
 10
41.13444010416666
 20
107.1724419487847
 10
42.37605251736111
 20
107.1724419487847
 10
42.37605251736111
 20
107.1724419487847
 10
42.37605251736111
 20
107.1724419487847
 10
42.37605251736111
 20
106.9078586154514
 10
42.37605251736111
 20
106.9078586154514
 10
42.37605251736111
 20
106.9078586154514
 10
41.42727322048611
 20
106.9078586154514
 10
41.42727322048611
 20
106.9078586154514
 10
41.42727322048611
 20
106.9078586154514
 10
41.42727322048611
 20
106.0400390625
 10
41.42727322048611
 20
106.0400390625
 10
41.42727322048611
 20
106.0400390625
 10
42.30921766493055
 20
106.0400390625
 10
42.30921766493055
 20
106.0400390625
 10
42.30921766493055
 20
106.0400390625
 10
42.30921766493055
 20
105.7758002387153
 10
42.30921766493055
 20
105.7758002387153
 10
42.30921766493055
 20
105.7758002387153
 10
41.42727322048611
 20
105.7758002387153
 10
41.42727322048611
 20
105.7758002387153
 10
41.42727322048611
 20
105.7758002387153
 10
41.42727322048611
 20
104.526953125
 10
41.42727322048611
 20
104.526953125
 10
41.42727322048611
 20
104.526953125
 10
41.13444010416666
 20
104.526953125
 10
41.13444010416666
 20
104.526953125
 97
        0
 75
     0
 76
     1
 98
        1
 10
0.0
 20
0.0
  0
HATCH
  5
53
330
A
100
AcDbEntity
  8
LAYER_1
 62
     7
100
AcDbHatch
 10
0.0
 20
0.0
 30
0.0
210
0.0
220
0.0
230
1.0
  2
SOLID
 70
     1
 71
     0
 91
        1
 92
        1
 93
        1
 72
     4
 94
        3
 73
     0
 74
     0
 95
       23
 96
       19
 40
0.0
 40
0.0
 40
0.0
 40
0.0
 40
1.0
 40
1.0
 40
1.0
 40
2.0
 40
2.0
 40
2.0
 40
3.0
 40
3.0
 40
3.0
 40
4.0
 40
4.0
 40
4.0
 40
5.0
 40
5.0
 40
5.0
 40
6.0
 40
6.0
 40
6.0
 40
6.0
 10
42.732275390625
 20
104.526953125
 10
42.732275390625
 20
104.526953125
 10
42.732275390625
 20
107.1724419487847
 10
42.732275390625
 20
107.1724419487847
 10
42.732275390625
 20
107.1724419487847
 10
43.02476399739583
 20
107.1724419487847
 10
43.02476399739583
 20
107.1724419487847
 10
43.02476399739583
 20
107.1724419487847
 10
43.02476399739583
 20
104.7915364583333
 10
43.02476399739583
 20
104.7915364583333
 10
43.02476399739583
 20
104.7915364583333
 10
44.10411241319444
 20
104.7915364583333
 10
44.10411241319444
 20
104.7915364583333
 10
44.10411241319444
 20
104.7915364583333
 10
44.10411241319444
 20
104.526953125
 10
44.10411241319444
 20
104.526953125
 10
44.10411241319444
 20
104.526953125
 10
42.732275390625
 20
104.526953125
 10
42.732275390625
 20
104.526953125
 97
        0
 75
     0
 76
     1
 98
        1
 10
0.0
 20
0.0
  0
HATCH
  5
52
330
A
100
AcDbEntity
  8
LAYER_1
 62
     7
100
AcDbHatch
 10
0.0
 20
0.0
 30
0.0
210
0.0
220
0.0
230
1.0
  2
SOLID
 70
     1
 71
     0
 91
        1
 92
        1
 93
        1
 72
     4
 94
        3
 73
     0
 74
     0
 95
       35
 96
       31
 40
0.0
 40
0.0
 40
0.0
 40
0.0
 40
1.0
 40
1.0
 40
1.0
 40
2.0
 40
2.0
 40
2.0
 40
3.0
 40
3.0
 40
3.0
 40
4.0
 40
4.0
 40
4.0
 40
5.0
 40
5.0
 40
5.0
 40
6.0
 40
6.0
 40
6.0
 40
7.0
 40
7.0
 40
7.0
 40
8.0
 40
8.0
 40
8.0
 40
9.0
 40
9.0
 40
9.0
 40
10.0
 40
10.0
 40
10.0
 40
10.0
 10
44.48892957899305
 20
107.1724419487847
 10
44.48892957899305
 20
107.1724419487847
 10
44.78176269531249
 20
107.1724419487847
 10
44.78176269531249
 20
107.1724419487847
 10
44.78176269531249
 20
107.1724419487847
 10
44.78176269531249
 20
105.2714382595486
 10
44.78176269531249
 20
105.2714382595486
 10
44.77831759982639
 20
105.0630099826389
 10
44.81345757378472
 20
104.7281467013889
 10
45.28267957899305
 20
104.7281467013889
 10
45.75190158420138
 20
104.7281467013889
 10
45.78704155815972
 20
105.0630099826389
 10
45.78359646267361
 20
105.2714382595486
 10
45.78359646267361
 20
105.2714382595486
 10
45.78359646267361
 20
107.1724419487847
 10
45.78359646267361
 20
107.1724419487847
 10
45.78359646267361
 20
107.1724419487847
 10
46.07608506944444
 20
107.1724419487847
 10
46.07608506944444
 20
107.1724419487847
 10
46.07608506944444
 20
107.1724419487847
 10
46.07608506944444
 20
105.1653293185764
 10
46.07608506944444
 20
105.1653293185764
 10
46.07608506944444
 20
104.6926622178819
 10
45.76223687065972
 20
104.4635633680556
 10
45.28267957899305
 20
104.4635633680556
 10
44.80277777777778
 20
104.4635633680556
 10
44.48892957899305
 20
104.6926622178819
 10
44.48892957899305
 20
105.1653293185764
 10
44.48892957899305
 20
105.1653293185764
 10
44.48892957899305
 20
107.1724419487847
 10
44.48892957899305
 20
107.1724419487847
 97
        0
 75
     0
 76
     1
 98
        1
 10
0.0
 20
0.0
  0
HATCH
  5
51
330
A
100
AcDbEntity
  8
LAYER_1
 62
     7
100
AcDbHatch
 10
0.0
 20
0.0
 30
0.0
210
0.0
220
0.0
230
1.0
  2
SOLID
 70
     1
 71
     0
 91
        1
 92
        1
 93
        1
 72
     4
 94
        3
 73
     0
 74
     0
 95
       56
 96
       52
 40
0.0
 40
0.0
 40
0.0
 40
0.0
 40
1.0
 40
1.0
 40
1.0
 40
2.0
 40
2.0
 40
2.0
 40
3.0
 40
3.0
 40
3.0
 40
4.0
 40
4.0
 40
4.0
 40
5.0
 40
5.0
 40
5.0
 40
6.0
 40
6.0
 40
6.0
 40
7.0
 40
7.0
 40
7.0
 40
8.0
 40
8.0
 40
8.0
 40
9.0
 40
9.0
 40
9.0
 40
10.0
 40
10.0
 40
10.0
 40
11.0
 40
11.0
 40
11.0
 40
12.0
 40
12.0
 40
12.0
 40
13.0
 40
13.0
 40
13.0
 40
14.0
 40
14.0
 40
14.0
 40
15.0
 40
15.0
 40
15.0
 40
16.0
 40
16.0
 40
16.0
 40
17.0
 40
17.0
 40
17.0
 40
17.0
 10
47.76900499131944
 20
106.4775661892361
 10
47.79036458333333
 20
106.7528293185764
 10
47.64222547743055
 20
106.9609130859375
 10
47.34939236111111
 20
106.9609130859375
 10
46.92254503038194
 20
106.9609130859375
 10
46.87672526041666
 20
106.6925401475694
 10
46.87672526041666
 20
106.488245985243
 10
46.87672526041666
 20
106.3046223958333
 10
46.95768500434027
 20
106.1919677734375
 10
47.12718370225694
 20
106.1282335069444
 10
47.26808810763888
 20
106.0755235460069
 10
47.40589192708333
 20
106.0224690755208
 10
47.54679633246527
 20
105.9697591145833
 10
48.04771321614583
 20
105.7826904296875
 10
48.13935275607638
 20
105.6063015407986
 10
48.13935275607638
 20
105.2573133680556
 10
48.13935275607638
 20
104.756396484375
 10
47.82550455729167
 20
104.4635633680556
 10
47.31769748263888
 20
104.4635633680556
 10
47.05655924479166
 20
104.4635633680556
 10
46.74615614149305
 20
104.5376329210069
 10
46.59457194010416
 20
104.8831759982639
 10
46.53807237413194
 20
105.0137451171875
 10
46.54151746961805
 20
105.2252739800347
 10
46.53807237413194
 20
105.3665228949653
 10
46.53807237413194
 20
105.3665228949653
 10
46.83090549045139
 20
105.3665228949653
 10
46.83090549045139
 20
105.3665228949653
 10
46.81678059895833
 20
104.9751600477431
 10
46.89085015190972
 20
104.7281467013889
 10
47.33182237413194
 20
104.7281467013889
 10
47.6281005859375
 20
104.7281467013889
 10
47.83618435329861
 20
104.8797309027778
 10
47.83618435329861
 20
105.1901340060764
 10
47.83618435329861
 20
105.5921766493055
 10
47.67392035590277
 20
105.5956217447917
 10
47.40589192708333
 20
105.6979410807292
 10
47.26119791666666
 20
105.7544406467014
 10
47.02830946180555
 20
105.8285101996528
 10
46.88740505642361
 20
105.9025797526042
 10
46.63694661458333
 20
106.0297037760417
 10
46.57321234809027
 20
106.2412326388889
 10
46.57321234809027
 20
106.5023708767361
 10
46.57321234809027
 20
106.9395534939236
 10
46.88017035590277
 20
107.2254964192708
 10
47.31046278211805
 20
107.2254964192708
 10
47.79380967881944
 20
107.2254964192708
 10
48.09008789062499
 20
106.9750379774306
 10
48.06183810763888
 20
106.4775661892361
 10
48.06183810763888
 20
106.4775661892361
 10
47.76900499131944
 20
106.4775661892361
 10
47.76900499131944
 20
106.4775661892361
 97
        0
 75
     0
 76
     1
 98
        1
 10
0.0
 20
0.0
  0
HATCH
  5
50
330
A
100
AcDbEntity
  8
LAYER_1
 62
     7
100
AcDbHatch
 10
0.0
 20
0.0
 30
0.0
210
0.0
220
0.0
230
1.0
  2
SOLID
 70
     1
 71
     0
 91
        1
 92
        1
 93
        1
 72
     4
 94
        3
 73
     0
 74
     0
 95
       41
 96
       37
 40
0.0
 40
0.0
 40
0.0
 40
0.0
 40
1.0
 40
1.0
 40
1.0
 40
2.0
 40
2.0
 40
2.0
 40
3.0
 40
3.0
 40
3.0
 40
4.0
 40
4.0
 40
4.0
 40
5.0
 40
5.0
 40
5.0
 40
6.0
 40
6.0
 40
6.0
 40
7.0
 40
7.0
 40
7.0
 40
8.0
 40
8.0
 40
8.0
 40
9.0
 40
9.0
 40
9.0
 40
10.0
 40
10.0
 40
10.0
 40
11.0
 40
11.0
 40
11.0
 40
12.0
 40
12.0
 40
12.0
 40
12.0
 10
48.59789496527777
 20
104.526953125
 10
48.59789496527777
 20
104.526953125
 10
48.59789496527777
 20
107.1724419487847
 10
48.59789496527777
 20
107.1724419487847
 10
48.59789496527777
 20
107.1724419487847
 10
48.89072808159722
 20
107.1724419487847
 10
48.89072808159722
 20
107.1724419487847
 10
48.89072808159722
 20
107.1724419487847
 10
48.89072808159722
 20
106.0682888454861
 10
48.89072808159722
 20
106.0682888454861
 10
48.89072808159722
 20
106.0682888454861
 10
49.90289713541666
 20
106.0682888454861
 10
49.90289713541666
 20
106.0682888454861
 10
49.90289713541666
 20
106.0682888454861
 10
49.90289713541666
 20
107.1724419487847
 10
49.90289713541666
 20
107.1724419487847
 10
49.90289713541666
 20
107.1724419487847
 10
50.19573025173611
 20
107.1724419487847
 10
50.19573025173611
 20
107.1724419487847
 10
50.19573025173611
 20
107.1724419487847
 10
50.19573025173611
 20
104.526953125
 10
50.19573025173611
 20
104.526953125
 10
50.19573025173611
 20
104.526953125
 10
49.90289713541666
 20
104.526953125
 10
49.90289713541666
 20
104.526953125
 10
49.90289713541666
 20
104.526953125
 10
49.90289713541666
 20
105.8040500217014
 10
49.90289713541666
 20
105.8040500217014
 10
49.90289713541666
 20
105.8040500217014
 10
48.89072808159722
 20
105.8040500217014
 10
48.89072808159722
 20
105.8040500217014
 10
48.89072808159722
 20
105.8040500217014
 10
48.89072808159722
 20
104.526953125
 10
48.89072808159722
 20
104.526953125
 10
48.89072808159722
 20
104.526953125
 10
48.59789496527777
 20
104.526953125
 10
48.59789496527777
 20
104.526953125
 97
        0
 75
     0
 76
     1
 98
        1
 10
0.0
 20
0.0
  0
HATCH
  5
4F
330
A
100
AcDbEntity
  8
LAYER_1
 62
     7
100
AcDbHatch
 10
0.0
 20
0.0
 30
0.0
210
0.0
220
0.0
230
1.0
  2
SOLID
 70
     1
 71
     0
 91
        1
 92
        1
 93
        1
 72
     4
 94
        3
 73
     0
 74
     0
 95
       71
 96
       67
 40
0.0
 40
0.0
 40
0.0
 40
0.0
 40
1.0
 40
1.0
 40
1.0
 40
2.0
 40
2.0
 40
2.0
 40
3.0
 40
3.0
 40
3.0
 40
4.0
 40
4.0
 40
4.0
 40
5.0
 40
5.0
 40
5.0
 40
6.0
 40
6.0
 40
6.0
 40
7.0
 40
7.0
 40
7.0
 40
8.0
 40
8.0
 40
8.0
 40
9.0
 40
9.0
 40
9.0
 40
10.0
 40
10.0
 40
10.0
 40
11.0
 40
11.0
 40
11.0
 40
12.0
 40
12.0
 40
12.0
 40
13.0
 40
13.0
 40
13.0
 40
14.0
 40
14.0
 40
14.0
 40
15.0
 40
15.0
 40
15.0
 40
16.0
 40
16.0
 40
16.0
 40
17.0
 40
17.0
 40
17.0
 40
18.0
 40
18.0
 40
18.0
 40
19.0
 40
19.0
 40
19.0
 40
20.0
 40
20.0
 40
20.0
 40
21.0
 40
21.0
 40
21.0
 40
22.0
 40
22.0
 40
22.0
 40
22.0
 10
52.34374728732639
 20
104.526953125
 10
52.34374728732639
 20
104.526953125
 10
51.98063422309027
 20
104.526953125
 10
51.98063422309027
 20
104.526953125
 10
51.98063422309027
 20
104.526953125
 10
51.41632758246527
 20
107.1724419487847
 10
51.41632758246527
 20
107.1724419487847
 10
51.41632758246527
 20
107.1724419487847
 10
51.74051106770833
 20
107.1724419487847
 10
51.74051106770833
 20
107.1724419487847
 10
51.74051106770833
 20
107.1724419487847
 10
52.08639865451389
 20
105.3489529079861
 10
52.08639865451389
 20
105.3489529079861
 10
52.11809353298611
 20
105.1691189236111
 10
52.1428982204861
 20
104.9854953342014
 10
52.16391330295139
 20
104.7388264973958
 10
52.16391330295139
 20
104.7388264973958
 10
52.17080349392361
 20
104.7388264973958
 10
52.17080349392361
 20
104.7388264973958
 10
52.19560818142361
 20
104.9431206597222
 10
52.2169677734375
 20
105.1370795355903
 10
52.25555284288194
 20
105.3275933159722
 10
52.25555284288194
 20
105.3275933159722
 10
52.64347059461805
 20
107.1724419487847
 10
52.64347059461805
 20
107.1724419487847
 10
52.64347059461805
 20
107.1724419487847
 10
53.00692816840277
 20
107.1724419487847
 10
53.00692816840277
 20
107.1724419487847
 10
53.00692816840277
 20
107.1724419487847
 10
53.35591634114583
 20
105.3489529079861
 10
53.35591634114583
 20
105.3489529079861
 10
53.38795572916666
 20
105.1725640190972
 10
53.40897081163194
 20
104.9961751302083
 10
53.43377549913194
 20
104.7388264973958
 10
53.43377549913194
 20
104.7388264973958
 10
53.44066569010416
 20
104.7388264973958
 10
53.44066569010416
 20
104.7388264973958
 10
53.46547037760416
 20
104.9431206597222
 10
53.48648546006944
 20
105.1370795355903
 10
53.52541503906249
 20
105.3275933159722
 10
53.52541503906249
 20
105.3275933159722
 10
53.9098876953125
 20
107.1724419487847
 10
53.9098876953125
 20
107.1724419487847
 10
53.9098876953125
 20
107.1724419487847
 10
54.23441569010416
 20
107.1724419487847
 10
54.23441569010416
 20
107.1724419487847
 10
54.23441569010416
 20
107.1724419487847
 10
53.61360948350694
 20
104.526953125
 10
53.61360948350694
 20
104.526953125
 10
53.61360948350694
 20
104.526953125
 10
53.25015190972222
 20
104.526953125
 10
53.25015190972222
 20
104.526953125
 10
53.25015190972222
 20
104.526953125
 10
52.89771864149305
 20
106.3221923828125
 10
52.89771864149305
 20
106.3221923828125
 10
52.86223415798611
 20
106.4951361762153
 10
52.84121907552083
 20
106.6715250651042
 10
52.81985948350694
 20
106.9609130859375
 10
52.81985948350694
 20
106.9609130859375
 10
52.81296929253472
 20
106.9609130859375
 10
52.81296929253472
 20
106.9609130859375
 10
52.78816460503472
 20
106.7066650390625
 10
52.76714952256944
 20
106.5127061631944
 10
52.72821994357638
 20
106.3221923828125
 10
52.72821994357638
 20
106.3221923828125
 10
52.34374728732639
 20
104.526953125
 10
52.34374728732639
 20
104.526953125
 97
        0
 75
     0
 76
     1
 98
        1
 10
0.0
 20
0.0
  0
HATCH
  5
4E
330
A
100
AcDbEntity
  8
LAYER_1
 62
     7
100
AcDbHatch
 10
0.0
 20
0.0
 30
0.0
210
0.0
220
0.0
230
1.0
  2
SOLID
 70
     1
 71
     0
 91
        1
 92
        1
 93
        1
 72
     4
 94
        3
 73
     0
 74
     0
 95
       17
 96
       13
 40
0.0
 40
0.0
 40
0.0
 40
0.0
 40
1.0
 40
1.0
 40
1.0
 40
2.0
 40
2.0
 40
2.0
 40
3.0
 40
3.0
 40
3.0
 40
4.0
 40
4.0
 40
4.0
 40
4.0
 10
54.63955891927083
 20
104.526953125
 10
54.63955891927083
 20
104.526953125
 10
54.63955891927083
 20
107.1724419487847
 10
54.63955891927083
 20
107.1724419487847
 10
54.63955891927083
 20
107.1724419487847
 10
54.93239203559028
 20
107.1724419487847
 10
54.93239203559028
 20
107.1724419487847
 10
54.93239203559028
 20
107.1724419487847
 10
54.93239203559028
 20
104.526953125
 10
54.93239203559028
 20
104.526953125
 10
54.93239203559028
 20
104.526953125
 10
54.63955891927083
 20
104.526953125
 10
54.63955891927083
 20
104.526953125
 97
        0
 75
     0
 76
     1
 98
        1
 10
0.0
 20
0.0
  0
HATCH
  5
4D
330
A
100
AcDbEntity
  8
LAYER_1
 62
     7
100
AcDbHatch
 10
0.0
 20
0.0
 30
0.0
210
0.0
220
0.0
230
1.0
  2
SOLID
 70
     1
 71
     0
 91
        1
 92
        1
 93
        1
 72
     4
 94
        3
 73
     0
 74
     0
 95
       29
 96
       25
 40
0.0
 40
0.0
 40
0.0
 40
0.0
 40
1.0
 40
1.0
 40
1.0
 40
2.0
 40
2.0
 40
2.0
 40
3.0
 40
3.0
 40
3.0
 40
4.0
 40
4.0
 40
4.0
 40
5.0
 40
5.0
 40
5.0
 40
6.0
 40
6.0
 40
6.0
 40
7.0
 40
7.0
 40
7.0
 40
8.0
 40
8.0
 40
8.0
 40
8.0
 10
55.32685546875
 20
107.1724419487847
 10
55.32685546875
 20
107.1724419487847
 10
56.98842502170138
 20
107.1724419487847
 10
56.98842502170138
 20
107.1724419487847
 10
56.98842502170138
 20
107.1724419487847
 10
56.98842502170138
 20
106.9078586154514
 10
56.98842502170138
 20
106.9078586154514
 10
56.98842502170138
 20
106.9078586154514
 10
56.30388454861111
 20
106.9078586154514
 10
56.30388454861111
 20
106.9078586154514
 10
56.30388454861111
 20
106.9078586154514
 10
56.30388454861111
 20
104.526953125
 10
56.30388454861111
 20
104.526953125
 10
56.30388454861111
 20
104.526953125
 10
56.01139594184027
 20
104.526953125
 10
56.01139594184027
 20
104.526953125
 10
56.01139594184027
 20
104.526953125
 10
56.01139594184027
 20
106.9078586154514
 10
56.01139594184027
 20
106.9078586154514
 10
56.01139594184027
 20
106.9078586154514
 10
55.32685546875
 20
106.9078586154514
 10
55.32685546875
 20
106.9078586154514
 10
55.32685546875
 20
106.9078586154514
 10
55.32685546875
 20
107.1724419487847
 10
55.32685546875
 20
107.1724419487847
 97
        0
 75
     0
 76
     1
 98
        1
 10
0.0
 20
0.0
  0
HATCH
  5
4C
330
A
100
AcDbEntity
  8
LAYER_1
 62
     7
100
AcDbHatch
 10
0.0
 20
0.0
 30
0.0
210
0.0
220
0.0
230
1.0
  2
SOLID
 70
     1
 71
     0
 91
        1
 92
        1
 93
        1
 72
     4
 94
        3
 73
     0
 74
     0
 95
       41
 96
       37
 40
0.0
 40
0.0
 40
0.0
 40
0.0
 40
1.0
 40
1.0
 40
1.0
 40
2.0
 40
2.0
 40
2.0
 40
3.0
 40
3.0
 40
3.0
 40
4.0
 40
4.0
 40
4.0
 40
5.0
 40
5.0
 40
5.0
 40
6.0
 40
6.0
 40
6.0
 40
7.0
 40
7.0
 40
7.0
 40
8.0
 40
8.0
 40
8.0
 40
9.0
 40
9.0
 40
9.0
 40
10.0
 40
10.0
 40
10.0
 40
11.0
 40
11.0
 40
11.0
 40
12.0
 40
12.0
 40
12.0
 40
12.0
 10
57.31674262152777
 20
104.526953125
 10
57.31674262152777
 20
104.526953125
 10
57.31674262152777
 20
107.1724419487847
 10
57.31674262152777
 20
107.1724419487847
 10
57.31674262152777
 20
107.1724419487847
 10
57.6092312282986
 20
107.1724419487847
 10
57.6092312282986
 20
107.1724419487847
 10
57.6092312282986
 20
107.1724419487847
 10
57.6092312282986
 20
106.0682888454861
 10
57.6092312282986
 20
106.0682888454861
 10
57.6092312282986
 20
106.0682888454861
 10
58.62174479166666
 20
106.0682888454861
 10
58.62174479166666
 20
106.0682888454861
 10
58.62174479166666
 20
106.0682888454861
 10
58.62174479166666
 20
107.1724419487847
 10
58.62174479166666
 20
107.1724419487847
 10
58.62174479166666
 20
107.1724419487847
 10
58.91457790798611
 20
107.1724419487847
 10
58.91457790798611
 20
107.1724419487847
 10
58.91457790798611
 20
107.1724419487847
 10
58.91457790798611
 20
104.526953125
 10
58.91457790798611
 20
104.526953125
 10
58.91457790798611
 20
104.526953125
 10
58.62174479166666
 20
104.526953125
 10
58.62174479166666
 20
104.526953125
 10
58.62174479166666
 20
104.526953125
 10
58.62174479166666
 20
105.8040500217014
 10
58.62174479166666
 20
105.8040500217014
 10
58.62174479166666
 20
105.8040500217014
 10
57.6092312282986
 20
105.8040500217014
 10
57.6092312282986
 20
105.8040500217014
 10
57.6092312282986
 20
105.8040500217014
 10
57.6092312282986
 20
104.526953125
 10
57.6092312282986
 20
104.526953125
 10
57.6092312282986
 20
104.526953125
 10
57.31674262152777
 20
104.526953125
 10
57.31674262152777
 20
104.526953125
 97
        0
 75
     0
 76
     1
 98
        1
 10
0.0
 20
0.0
  0
HATCH
  5
4B
330
A
100
AcDbEntity
  8
LAYER_1
 62
     7
100
AcDbHatch
 10
0.0
 20
0.0
 30
0.0
210
0.0
220
0.0
230
1.0
  2
SOLID
 70
     1
 71
     0
 91
        1
 92
        1
 93
        1
 72
     4
 94
        3
 73
     0
 74
     0
 95
       41
 96
       37
 40
0.0
 40
0.0
 40
0.0
 40
0.0
 40
1.0
 40
1.0
 40
1.0
 40
2.0
 40
2.0
 40
2.0
 40
3.0
 40
3.0
 40
3.0
 40
4.0
 40
4.0
 40
4.0
 40
5.0
 40
5.0
 40
5.0
 40
6.0
 40
6.0
 40
6.0
 40
7.0
 40
7.0
 40
7.0
 40
8.0
 40
8.0
 40
8.0
 40
9.0
 40
9.0
 40
9.0
 40
10.0
 40
10.0
 40
10.0
 40
11.0
 40
11.0
 40
11.0
 40
12.0
 40
12.0
 40
12.0
 40
12.0
 10
41.15235460069444
 20
100.9991753472222
 10
41.15235460069444
 20
100.9991753472222
 10
41.15235460069444
 20
103.6446641710069
 10
41.15235460069444
 20
103.6446641710069
 10
41.15235460069444
 20
103.6446641710069
 10
41.44518771701389
 20
103.6446641710069
 10
41.44518771701389
 20
103.6446641710069
 10
41.44518771701389
 20
103.6446641710069
 10
41.44518771701389
 20
102.5405110677083
 10
41.44518771701389
 20
102.5405110677083
 10
41.44518771701389
 20
102.5405110677083
 10
42.45735677083333
 20
102.5405110677083
 10
42.45735677083333
 20
102.5405110677083
 10
42.45735677083333
 20
102.5405110677083
 10
42.45735677083333
 20
103.6446641710069
 10
42.45735677083333
 20
103.6446641710069
 10
42.45735677083333
 20
103.6446641710069
 10
42.75018988715277
 20
103.6446641710069
 10
42.75018988715277
 20
103.6446641710069
 10
42.75018988715277
 20
103.6446641710069
 10
42.75018988715277
 20
100.9991753472222
 10
42.75018988715277
 20
100.9991753472222
 10
42.75018988715277
 20
100.9991753472222
 10
42.45735677083333
 20
100.9991753472222
 10
42.45735677083333
 20
100.9991753472222
 10
42.45735677083333
 20
100.9991753472222
 10
42.45735677083333
 20
102.2762722439236
 10
42.45735677083333
 20
102.2762722439236
 10
42.45735677083333
 20
102.2762722439236
 10
41.44518771701389
 20
102.2762722439236
 10
41.44518771701389
 20
102.2762722439236
 10
41.44518771701389
 20
102.2762722439236
 10
41.44518771701389
 20
100.9991753472222
 10
41.44518771701389
 20
100.9991753472222
 10
41.44518771701389
 20
100.9991753472222
 10
41.15235460069444
 20
100.9991753472222
 10
41.15235460069444
 20
100.9991753472222
 97
        0
 75
     0
 76
     1
 98
        1
 10
0.0
 20
0.0
  0
HATCH
  5
4A
330
A
100
AcDbEntity
  8
LAYER_1
 62
     7
100
AcDbHatch
 10
0.0
 20
0.0
 30
0.0
210
0.0
220
0.0
230
1.0
  2
SOLID
 70
     1
 71
     0
 91
        1
 92
        1
 93
        1
 72
     4
 94
        3
 73
     0
 74
     0
 95
       41
 96
       37
 40
0.0
 40
0.0
 40
0.0
 40
0.0
 40
1.0
 40
1.0
 40
1.0
 40
2.0
 40
2.0
 40
2.0
 40
3.0
 40
3.0
 40
3.0
 40
4.0
 40
4.0
 40
4.0
 40
5.0
 40
5.0
 40
5.0
 40
6.0
 40
6.0
 40
6.0
 40
7.0
 40
7.0
 40
7.0
 40
8.0
 40
8.0
 40
8.0
 40
9.0
 40
9.0
 40
9.0
 40
10.0
 40
10.0
 40
10.0
 40
11.0
 40
11.0
 40
11.0
 40
12.0
 40
12.0
 40
12.0
 40
12.0
 10
43.28934733072916
 20
100.9991753472222
 10
43.28934733072916
 20
100.9991753472222
 10
43.28934733072916
 20
103.6446641710069
 10
43.28934733072916
 20
103.6446641710069
 10
43.28934733072916
 20
103.6446641710069
 10
44.61226399739583
 20
103.6446641710069
 10
44.61226399739583
 20
103.6446641710069
 10
44.61226399739583
 20
103.6446641710069
 10
44.61226399739583
 20
103.3800808376736
 10
44.61226399739583
 20
103.3800808376736
 10
44.61226399739583
 20
103.3800808376736
 10
43.58218044704861
 20
103.3800808376736
 10
43.58218044704861
 20
103.3800808376736
 10
43.58218044704861
 20
103.3800808376736
 10
43.58218044704861
 20
102.50537109375
 10
43.58218044704861
 20
102.50537109375
 10
43.58218044704861
 20
102.50537109375
 10
44.54887424045138
 20
102.50537109375
 10
44.54887424045138
 20
102.50537109375
 10
44.54887424045138
 20
102.50537109375
 10
44.54887424045138
 20
102.2407877604167
 10
44.54887424045138
 20
102.2407877604167
 10
44.54887424045138
 20
102.2407877604167
 10
43.58218044704861
 20
102.2407877604167
 10
43.58218044704861
 20
102.2407877604167
 10
43.58218044704861
 20
102.2407877604167
 10
43.58218044704861
 20
101.2637586805555
 10
43.58218044704861
 20
101.2637586805555
 10
43.58218044704861
 20
101.2637586805555
 10
44.61915418836805
 20
101.2637586805555
 10
44.61915418836805
 20
101.2637586805555
 10
44.61915418836805
 20
101.2637586805555
 10
44.61915418836805
 20
100.9991753472222
 10
44.61915418836805
 20
100.9991753472222
 10
44.61915418836805
 20
100.9991753472222
 10
43.28934733072916
 20
100.9991753472222
 10
43.28934733072916
 20
100.9991753472222
 97
        0
 75
     0
 76
     1
 98
        1
 10
0.0
 20
0.0
  0
HATCH
  5
49
330
A
100
AcDbEntity
  8
LAYER_1
 62
     7
100
AcDbHatch
 10
0.0
 20
0.0
 30
0.0
210
0.0
220
0.0
230
1.0
  2
SOLID
 70
     1
 71
     0
 91
        2
 92
       16
 93
        1
 72
     4
 94
        3
 73
     0
 74
     0
 95
       17
 96
       13
 40
0.0
 40
0.0
 40
0.0
 40
0.0
 40
1.0
 40
1.0
 40
1.0
 40
2.0
 40
2.0
 40
2.0
 40
3.0
 40
3.0
 40
3.0
 40
4.0
 40
4.0
 40
4.0
 40
4.0
 10
45.77636176215277
 20
103.4331353081597
 10
45.77636176215277
 20
103.4331353081597
 10
45.76947157118055
 20
103.4331353081597
 10
45.76947157118055
 20
103.4331353081597
 10
45.76947157118055
 20
103.4331353081597
 10
45.42013888888889
 20
102.0258138020833
 10
45.42013888888889
 20
102.0258138020833
 10
45.42013888888889
 20
102.0258138020833
 10
46.11845974392361
 20
102.0258138020833
 10
46.11845974392361
 20
102.0258138020833
 10
46.11845974392361
 20
102.0258138020833
 10
45.77636176215277
 20
103.4331353081597
 10
45.77636176215277
 20
103.4331353081597
 97
        0
 92
        1
 93
        1
 72
     4
 94
        3
 73
     0
 74
     0
 95
       29
 96
       25
 40
0.0
 40
0.0
 40
0.0
 40
0.0
 40
1.0
 40
1.0
 40
1.0
 40
2.0
 40
2.0
 40
2.0
 40
3.0
 40
3.0
 40
3.0
 40
4.0
 40
4.0
 40
4.0
 40
5.0
 40
5.0
 40
5.0
 40
6.0
 40
6.0
 40
6.0
 40
7.0
 40
7.0
 40
7.0
 40
8.0
 40
8.0
 40
8.0
 40
8.0
 10
45.58584798177083
 20
103.6446641710069
 10
45.58584798177083
 20
103.6446641710069
 10
45.97411024305555
 20
103.6446641710069
 10
45.97411024305555
 20
103.6446641710069
 10
45.97411024305555
 20
103.6446641710069
 10
46.71825086805555
 20
100.9991753472222
 10
46.71825086805555
 20
100.9991753472222
 10
46.71825086805555
 20
100.9991753472222
 10
46.39372287326388
 20
100.9991753472222
 10
46.39372287326388
 20
100.9991753472222
 10
46.39372287326388
 20
100.9991753472222
 10
46.18563910590277
 20
101.76123046875
 10
46.18563910590277
 20
101.76123046875
 10
46.18563910590277
 20
101.76123046875
 10
45.34985894097222
 20
101.76123046875
 10
45.34985894097222
 20
101.76123046875
 10
45.34985894097222
 20
101.76123046875
 10
45.15555555555555
 20
100.9991753472222
 10
45.15555555555555
 20
100.9991753472222
 10
45.15555555555555
 20
100.9991753472222
 10
44.8313720703125
 20
100.9991753472222
 10
44.8313720703125
 20
100.9991753472222
 10
44.8313720703125
 20
100.9991753472222
 10
45.58584798177083
 20
103.6446641710069
 10
45.58584798177083
 20
103.6446641710069
 97
        0
 75
     0
 76
     1
 98
        1
 10
0.0
 20
0.0
  0
HATCH
  5
48
330
A
100
AcDbEntity
  8
LAYER_1
 62
     7
100
AcDbHatch
 10
0.0
 20
0.0
 30
0.0
210
0.0
220
0.0
230
1.0
  2
SOLID
 70
     1
 71
     0
 91
        2
 92
       16
 93
        1
 72
     4
 94
        3
 73
     0
 74
     0
 95
       20
 96
       16
 40
0.0
 40
0.0
 40
0.0
 40
0.0
 40
1.0
 40
1.0
 40
1.0
 40
2.0
 40
2.0
 40
2.0
 40
3.0
 40
3.0
 40
3.0
 40
4.0
 40
4.0
 40
4.0
 40
5.0
 40
5.0
 40
5.0
 40
5.0
 10
47.33561197916666
 20
101.2637586805555
 10
47.33561197916666
 20
101.2637586805555
 10
47.80448947482638
 20
101.2637586805555
 10
47.80448947482638
 20
101.2637586805555
 10
48.23512641059028
 20
101.2637586805555
 10
48.41117078993055
 20
101.5848415798611
 10
48.38292100694444
 20
102.3748019748264
 10
48.36190592447916
 20
102.9780381944444
 10
48.27715657552083
 20
103.3800808376736
 10
47.80448947482638
 20
103.3800808376736
 10
47.80448947482638
 20
103.3800808376736
 10
47.33561197916666
 20
103.3800808376736
 10
47.33561197916666
 20
103.3800808376736
 10
47.33561197916666
 20
103.3800808376736
 10
47.33561197916666
 20
101.2637586805555
 10
47.33561197916666
 20
101.2637586805555
 97
        0
 92
        1
 93
        1
 72
     4
 94
        3
 73
     0
 74
     0
 95
       20
 96
       16
 40
0.0
 40
0.0
 40
0.0
 40
0.0
 40
1.0
 40
1.0
 40
1.0
 40
2.0
 40
2.0
 40
2.0
 40
3.0
 40
3.0
 40
3.0
 40
4.0
 40
4.0
 40
4.0
 40
5.0
 40
5.0
 40
5.0
 40
5.0
 10
47.04277886284722
 20
100.9991753472222
 10
47.04277886284722
 20
100.9991753472222
 10
47.04277886284722
 20
103.6446641710069
 10
47.04277886284722
 20
103.6446641710069
 10
47.04277886284722
 20
103.6446641710069
 10
47.76934950086805
 20
103.6446641710069
 10
47.76934950086805
 20
103.6446641710069
 10
48.59479437934027
 20
103.6446641710069
 10
48.70744900173611
 20
102.9745930989583
 10
48.68643391927083
 20
102.3217475043403
 10
48.66541883680555
 20
101.6764811197917
 10
48.53829481336805
 20
100.9991753472222
 10
47.82240397135416
 20
100.9991753472222
 10
47.82240397135416
 20
100.9991753472222
 10
47.04277886284722
 20
100.9991753472222
 10
47.04277886284722
 20
100.9991753472222
 97
        0
 75
     0
 76
     1
 98
        1
 10
0.0
 20
0.0
  0
HATCH
  5
47
330
A
100
AcDbEntity
  8
LAYER_1
 62
     7
100
AcDbHatch
 10
0.0
 20
0.0
 30
0.0
210
0.0
220
0.0
230
1.0
  2
SOLID
 70
     1
 71
     0
 91
        1
 92
        1
 93
        1
 72
     4
 94
        3
 73
     0
 74
     0
 95
       41
 96
       37
 40
0.0
 40
0.0
 40
0.0
 40
0.0
 40
1.0
 40
1.0
 40
1.0
 40
2.0
 40
2.0
 40
2.0
 40
3.0
 40
3.0
 40
3.0
 40
4.0
 40
4.0
 40
4.0
 40
5.0
 40
5.0
 40
5.0
 40
6.0
 40
6.0
 40
6.0
 40
7.0
 40
7.0
 40
7.0
 40
8.0
 40
8.0
 40
8.0
 40
9.0
 40
9.0
 40
9.0
 40
10.0
 40
10.0
 40
10.0
 40
11.0
 40
11.0
 40
11.0
 40
12.0
 40
12.0
 40
12.0
 40
12.0
 10
49.16943630642361
 20
100.9991753472222
 10
49.16943630642361
 20
100.9991753472222
 10
49.16943630642361
 20
103.6446641710069
 10
49.16943630642361
 20
103.6446641710069
 10
49.16943630642361
 20
103.6446641710069
 10
50.49200846354166
 20
103.6446641710069
 10
50.49200846354166
 20
103.6446641710069
 10
50.49200846354166
 20
103.6446641710069
 10
50.49200846354166
 20
103.3800808376736
 10
50.49200846354166
 20
103.3800808376736
 10
50.49200846354166
 20
103.3800808376736
 10
49.46226942274305
 20
103.3800808376736
 10
49.46226942274305
 20
103.3800808376736
 10
49.46226942274305
 20
103.3800808376736
 10
49.46226942274305
 20
102.50537109375
 10
49.46226942274305
 20
102.50537109375
 10
49.46226942274305
 20
102.50537109375
 10
50.42861870659722
 20
102.50537109375
 10
50.42861870659722
 20
102.50537109375
 10
50.42861870659722
 20
102.50537109375
 10
50.42861870659722
 20
102.2407877604167
 10
50.42861870659722
 20
102.2407877604167
 10
50.42861870659722
 20
102.2407877604167
 10
49.46226942274305
 20
102.2407877604167
 10
49.46226942274305
 20
102.2407877604167
 10
49.46226942274305
 20
102.2407877604167
 10
49.46226942274305
 20
101.2637586805555
 10
49.46226942274305
 20
101.2637586805555
 10
49.46226942274305
 20
101.2637586805555
 10
50.4992431640625
 20
101.2637586805555
 10
50.4992431640625
 20
101.2637586805555
 10
50.4992431640625
 20
101.2637586805555
 10
50.4992431640625
 20
100.9991753472222
 10
50.4992431640625
 20
100.9991753472222
 10
50.4992431640625
 20
100.9991753472222
 10
49.16943630642361
 20
100.9991753472222
 10
49.16943630642361
 20
100.9991753472222
 97
        0
 75
     0
 76
     1
 98
        1
 10
0.0
 20
0.0
  0
HATCH
  5
46
330
A
100
AcDbEntity
  8
LAYER_1
 62
     7
100
AcDbHatch
 10
0.0
 20
0.0
 30
0.0
210
0.0
220
0.0
230
1.0
  2
SOLID
 70
     1
 71
     0
 91
        2
 92
       16
 93
        1
 72
     4
 94
        3
 73
     0
 74
     0
 95
       20
 96
       16
 40
0.0
 40
0.0
 40
0.0
 40
0.0
 40
1.0
 40
1.0
 40
1.0
 40
2.0
 40
2.0
 40
2.0
 40
3.0
 40
3.0
 40
3.0
 40
4.0
 40
4.0
 40
4.0
 40
5.0
 40
5.0
 40
5.0
 40
5.0
 10
51.2685329861111
 20
102.4278564453125
 10
51.2685329861111
 20
102.4278564453125
 10
51.73052029079861
 20
102.4278564453125
 10
51.73052029079861
 20
102.4278564453125
 10
51.86797960069444
 20
102.4313015407986
 10
52.24900716145833
 20
102.4523166232639
 10
52.2417724609375
 20
102.9146484375
 10
52.23488226996528
 20
103.3694010416667
 10
51.87865939670139
 20
103.3800808376736
 10
51.68125542534722
 20
103.3800808376736
 10
51.68125542534722
 20
103.3800808376736
 10
51.2685329861111
 20
103.3800808376736
 10
51.2685329861111
 20
103.3800808376736
 10
51.2685329861111
 20
103.3800808376736
 10
51.2685329861111
 20
102.4278564453125
 10
51.2685329861111
 20
102.4278564453125
 97
        0
 92
        1
 93
        1
 72
     4
 94
        3
 73
     0
 74
     0
 95
       50
 96
       46
 40
0.0
 40
0.0
 40
0.0
 40
0.0
 40
1.0
 40
1.0
 40
1.0
 40
2.0
 40
2.0
 40
2.0
 40
3.0
 40
3.0
 40
3.0
 40
4.0
 40
4.0
 40
4.0
 40
5.0
 40
5.0
 40
5.0
 40
6.0
 40
6.0
 40
6.0
 40
7.0
 40
7.0
 40
7.0
 40
8.0
 40
8.0
 40
8.0
 40
9.0
 40
9.0
 40
9.0
 40
10.0
 40
10.0
 40
10.0
 40
11.0
 40
11.0
 40
11.0
 40
12.0
 40
12.0
 40
12.0
 40
13.0
 40
13.0
 40
13.0
 40
14.0
 40
14.0
 40
14.0
 40
15.0
 40
15.0
 40
15.0
 40
15.0
 10
51.2685329861111
 20
100.9991753472222
 10
51.2685329861111
 20
100.9991753472222
 10
50.97569986979166
 20
100.9991753472222
 10
50.97569986979166
 20
100.9991753472222
 10
50.97569986979166
 20
100.9991753472222
 10
50.97569986979166
 20
103.6446641710069
 10
50.97569986979166
 20
103.6446641710069
 10
50.97569986979166
 20
103.6446641710069
 10
51.65645073784722
 20
103.6446641710069
 10
51.65645073784722
 20
103.6446641710069
 10
52.21007758246527
 20
103.6446641710069
 10
52.56285536024305
 20
103.4999701605903
 10
52.54528537326389
 20
102.88984375
 10
52.53460557725694
 20
102.5794406467014
 10
52.344091796875
 20
102.3572319878472
 10
52.03747829861111
 20
102.3148573133681
 10
52.03747829861111
 20
102.3148573133681
 10
52.03747829861111
 20
102.3079671223958
 10
52.03747829861111
 20
102.3079671223958
 10
52.37957628038194
 20
102.2762722439236
 10
52.46398111979166
 20
102.1667182074653
 10
52.50635579427083
 20
101.8139404296875
 10
52.51703559027777
 20
101.6165364583333
 10
52.53460557725694
 20
101.4225775824653
 10
52.56285536024305
 20
101.2248291015625
 10
52.57353515625
 20
101.1755642361111
 10
52.59455023871527
 20
101.0591200086806
 10
52.66517469618055
 20
101.0591200086806
 10
52.66517469618055
 20
101.0591200086806
 10
52.66517469618055
 20
100.9991753472222
 10
52.66517469618055
 20
100.9991753472222
 10
52.66517469618055
 20
100.9991753472222
 10
52.32307671440972
 20
100.9991753472222
 10
52.32307671440972
 20
100.9991753472222
 10
52.25968695746527
 20
101.1686740451389
 10
52.23143717447916
 20
101.4966471354167
 10
52.23143717447916
 20
101.6730360243056
 10
52.23143717447916
 20
101.9376193576389
 10
52.12567274305555
 20
102.1632731119792
 10
51.77978515624999
 20
102.1632731119792
 10
51.77978515624999
 20
102.1632731119792
 10
51.2685329861111
 20
102.1632731119792
 10
51.2685329861111
 20
102.1632731119792
 10
51.2685329861111
 20
102.1632731119792
 10
51.2685329861111
 20
100.9991753472222
 10
51.2685329861111
 20
100.9991753472222
 97
        0
 75
     0
 76
     1
 98
        1
 10
0.0
 20
0.0
  0
HATCH
  5
45
330
A
100
AcDbEntity
  8
LAYER_1
 62
     7
100
AcDbHatch
 10
0.0
 20
0.0
 30
0.0
210
0.0
220
0.0
230
1.0
  2
SOLID
 70
     1
 71
     0
 91
        1
 92
        1
 93
        1
 72
     4
 94
        3
 73
     0
 74
     0
 95
       23
 96
       19
 40
0.0
 40
0.0
 40
0.0
 40
0.0
 40
1.0
 40
1.0
 40
1.0
 40
2.0
 40
2.0
 40
2.0
 40
3.0
 40
3.0
 40
3.0
 40
4.0
 40
4.0
 40
4.0
 40
5.0
 40
5.0
 40
5.0
 40
6.0
 40
6.0
 40
6.0
 40
6.0
 10
41.87548014322916
 20
100.1168863932292
 10
41.71666124131944
 20
99.78891330295139
 10
41.43795301649305
 20
99.33037109374999
 10
41.43795301649305
 20
98.43085666232638
 10
41.43795301649305
 20
97.78180067274305
 10
41.56128743489583
 20
97.27743869357639
 10
41.89305013020833
 20
96.71313205295138
 10
41.89305013020833
 20
96.71313205295138
 10
41.68841145833333
 20
96.71313205295138
 10
41.68841145833333
 20
96.71313205295138
 10
41.37111816406249
 20
97.23161892361111
 10
41.1416748046875
 20
97.77146538628472
 10
41.1416748046875
 20
98.38848198784721
 10
41.1416748046875
 20
99.08335774739582
 10
41.32874348958333
 20
99.53122016059027
 10
41.68841145833333
 20
100.1168863932292
 10
41.68841145833333
 20
100.1168863932292
 10
41.87548014322916
 20
100.1168863932292
 10
41.87548014322916
 20
100.1168863932292
 97
        0
 75
     0
 76
     1
 98
        1
 10
0.0
 20
0.0
  0
HATCH
  5
44
330
A
100
AcDbEntity
  8
LAYER_1
 62
     7
100
AcDbHatch
 10
0.0
 20
0.0
 30
0.0
210
0.0
220
0.0
230
1.0
  2
SOLID
 70
     1
 71
     0
 91
        1
 92
        1
 93
        1
 72
     4
 94
        3
 73
     0
 74
     0
 95
       23
 96
       19
 40
0.0
 40
0.0
 40
0.0
 40
0.0
 40
1.0
 40
1.0
 40
1.0
 40
2.0
 40
2.0
 40
2.0
 40
3.0
 40
3.0
 40
3.0
 40
4.0
 40
4.0
 40
4.0
 40
5.0
 40
5.0
 40
5.0
 40
6.0
 40
6.0
 40
6.0
 40
6.0
 10
42.34022352430555
 20
97.47139756944443
 10
42.34022352430555
 20
97.47139756944443
 10
42.34022352430555
 20
100.1168863932292
 10
42.34022352430555
 20
100.1168863932292
 10
42.34022352430555
 20
100.1168863932292
 10
42.63305664062499
 20
100.1168863932292
 10
42.63305664062499
 20
100.1168863932292
 10
42.63305664062499
 20
100.1168863932292
 10
42.63305664062499
 20
97.73598090277777
 10
42.63305664062499
 20
97.73598090277777
 10
42.63305664062499
 20
97.73598090277777
 10
43.71240505642361
 20
97.73598090277777
 10
43.71240505642361
 20
97.73598090277777
 10
43.71240505642361
 20
97.73598090277777
 10
43.71240505642361
 20
97.47139756944443
 10
43.71240505642361
 20
97.47139756944443
 10
43.71240505642361
 20
97.47139756944443
 10
42.34022352430555
 20
97.47139756944443
 10
42.34022352430555
 20
97.47139756944443
 97
        0
 75
     0
 76
     1
 98
        1
 10
0.0
 20
0.0
  0
HATCH
  5
43
330
A
100
AcDbEntity
  8
LAYER_1
 62
     7
100
AcDbHatch
 10
0.0
 20
0.0
 30
0.0
210
0.0
220
0.0
230
1.0
  2
SOLID
 70
     1
 71
     0
 91
        2
 92
       16
 93
        1
 72
     4
 94
        3
 73
     0
 74
     0
 95
       17
 96
       13
 40
0.0
 40
0.0
 40
0.0
 40
0.0
 40
1.0
 40
1.0
 40
1.0
 40
2.0
 40
2.0
 40
2.0
 40
3.0
 40
3.0
 40
3.0
 40
4.0
 40
4.0
 40
4.0
 40
4.0
 10
44.88373752170138
 20
99.90535753038193
 10
44.43208550347222
 20
99.90535753038193
 10
44.31943088107639
 20
99.4326904296875
 10
44.32287597656249
 20
98.8435791015625
 10
44.32632107204861
 20
98.0780788845486
 10
44.40383572048611
 20
97.67259114583332
 10
44.89062771267361
 20
97.67259114583332
 10
45.3774197048611
 20
97.67259114583332
 10
45.4549343532986
 20
98.0780788845486
 10
45.45872395833333
 20
98.8435791015625
 10
45.46216905381944
 20
99.4326904296875
 10
45.349169921875
 20
99.90535753038193
 10
44.88373752170138
 20
99.90535753038193
 97
        0
 92
        1
 93
        1
 72
     4
 94
        3
 73
     0
 74
     0
 95
       17
 96
       13
 40
0.0
 40
0.0
 40
0.0
 40
0.0
 40
1.0
 40
1.0
 40
1.0
 40
2.0
 40
2.0
 40
2.0
 40
3.0
 40
3.0
 40
3.0
 40
4.0
 40
4.0
 40
4.0
 40
4.0
 10
44.89786241319444
 20
100.1699408637153
 10
45.67025282118055
 20
100.1699408637153
 10
45.76568196614583
 20
99.45715060763888
 10
45.76189236111111
 20
98.85046929253471
 10
45.75844726562499
 20
98.11700846354165
 10
45.66336263020833
 20
97.40800781249999
 10
44.89062771267361
 20
97.40800781249999
 10
44.1182373046875
 20
97.40800781249999
 10
44.02659776475694
 20
98.11700846354165
 10
44.01970757378472
 20
98.85046929253471
 10
44.01970757378472
 20
99.45715060763888
 10
44.11134711371528
 20
100.1699408637153
 10
44.89786241319444
 20
100.1699408637153
 97
        0
 75
     0
 76
     1
 98
        1
 10
0.0
 20
0.0
  0
HATCH
  5
42
330
A
100
AcDbEntity
  8
LAYER_1
 62
     7
100
AcDbHatch
 10
0.0
 20
0.0
 30
0.0
210
0.0
220
0.0
230
1.0
  2
SOLID
 70
     1
 71
     0
 91
        1
 92
        1
 93
        1
 72
     4
 94
        3
 73
     0
 74
     0
 95
       71
 96
       67
 40
0.0
 40
0.0
 40
0.0
 40
0.0
 40
1.0
 40
1.0
 40
1.0
 40
2.0
 40
2.0
 40
2.0
 40
3.0
 40
3.0
 40
3.0
 40
4.0
 40
4.0
 40
4.0
 40
5.0
 40
5.0
 40
5.0
 40
6.0
 40
6.0
 40
6.0
 40
7.0
 40
7.0
 40
7.0
 40
8.0
 40
8.0
 40
8.0
 40
9.0
 40
9.0
 40
9.0
 40
10.0
 40
10.0
 40
10.0
 40
11.0
 40
11.0
 40
11.0
 40
12.0
 40
12.0
 40
12.0
 40
13.0
 40
13.0
 40
13.0
 40
14.0
 40
14.0
 40
14.0
 40
15.0
 40
15.0
 40
15.0
 40
16.0
 40
16.0
 40
16.0
 40
17.0
 40
17.0
 40
17.0
 40
18.0
 40
18.0
 40
18.0
 40
19.0
 40
19.0
 40
19.0
 40
20.0
 40
20.0
 40
20.0
 40
21.0
 40
21.0
 40
21.0
 40
22.0
 40
22.0
 40
22.0
 40
22.0
 10
46.95389539930555
 20
97.47139756944443
 10
46.95389539930555
 20
97.47139756944443
 10
46.59078233506944
 20
97.47139756944443
 10
46.59078233506944
 20
97.47139756944443
 10
46.59078233506944
 20
97.47139756944443
 10
46.02613118489583
 20
100.1168863932292
 10
46.02613118489583
 20
100.1168863932292
 10
46.02613118489583
 20
100.1168863932292
 10
46.3506591796875
 20
100.1168863932292
 10
46.3506591796875
 20
100.1168863932292
 10
46.3506591796875
 20
100.1168863932292
 10
46.69654676649305
 20
98.29339735243055
 10
46.69654676649305
 20
98.29339735243055
 10
46.72824164496527
 20
98.11356336805555
 10
46.75270182291666
 20
97.92993977864583
 10
46.77406141493055
 20
97.68327094184026
 10
46.77406141493055
 20
97.68327094184026
 10
46.78095160590277
 20
97.68327094184026
 10
46.78095160590277
 20
97.68327094184026
 10
46.80575629340277
 20
97.88756510416665
 10
46.82677137586805
 20
98.08152398003472
 10
46.8657009548611
 20
98.27203776041665
 10
46.8657009548611
 20
98.27203776041665
 10
47.25361870659722
 20
100.1168863932292
 10
47.25361870659722
 20
100.1168863932292
 10
47.25361870659722
 20
100.1168863932292
 10
47.61707628038194
 20
100.1168863932292
 10
47.61707628038194
 20
100.1168863932292
 10
47.61707628038194
 20
100.1168863932292
 10
47.96606445312499
 20
98.29339735243055
 10
47.96606445312499
 20
98.29339735243055
 10
47.99810384114583
 20
98.11700846354165
 10
48.01911892361111
 20
97.94061957465277
 10
48.0439236111111
 20
97.68327094184026
 10
48.0439236111111
 20
97.68327094184026
 10
48.05081380208333
 20
97.68327094184026
 10
48.05081380208333
 20
97.68327094184026
 10
48.07561848958333
 20
97.88756510416665
 10
48.09663357204861
 20
98.08152398003472
 10
48.13556315104167
 20
98.27203776041665
 10
48.13556315104167
 20
98.27203776041665
 10
48.52003580729166
 20
100.1168863932292
 10
48.52003580729166
 20
100.1168863932292
 10
48.52003580729166
 20
100.1168863932292
 10
48.84456380208333
 20
100.1168863932292
 10
48.84456380208333
 20
100.1168863932292
 10
48.84456380208333
 20
100.1168863932292
 10
48.22375759548611
 20
97.47139756944443
 10
48.22375759548611
 20
97.47139756944443
 10
48.22375759548611
 20
97.47139756944443
 10
47.86030002170138
 20
97.47139756944443
 10
47.86030002170138
 20
97.47139756944443
 10
47.86030002170138
 20
97.47139756944443
 10
47.50786675347222
 20
99.26663682725693
 10
47.50786675347222
 20
99.26663682725693
 10
47.47238226996527
 20
99.43958062065971
 10
47.4513671875
 20
99.61596950954861
 10
47.43000759548611
 20
99.90535753038193
 10
47.43000759548611
 20
99.90535753038193
 10
47.42311740451388
 20
99.90535753038193
 10
47.42311740451388
 20
99.90535753038193
 10
47.39831271701389
 20
99.65110948350693
 10
47.3772976345486
 20
99.45715060763888
 10
47.33836805555555
 20
99.26663682725693
 10
47.33836805555555
 20
99.26663682725693
 10
46.95389539930555
 20
97.47139756944443
 10
46.95389539930555
 20
97.47139756944443
 97
        0
 75
     0
 76
     1
 98
        1
 10
0.0
 20
0.0
  0
HATCH
  5
41
330
A
100
AcDbEntity
  8
LAYER_1
 62
     7
100
AcDbHatch
 10
0.0
 20
0.0
 30
0.0
210
0.0
220
0.0
230
1.0
  2
SOLID
 70
     1
 71
     0
 91
        1
 92
        1
 93
        1
 72
     4
 94
        3
 73
     0
 74
     0
 95
       56
 96
       52
 40
0.0
 40
0.0
 40
0.0
 40
0.0
 40
1.0
 40
1.0
 40
1.0
 40
2.0
 40
2.0
 40
2.0
 40
3.0
 40
3.0
 40
3.0
 40
4.0
 40
4.0
 40
4.0
 40
5.0
 40
5.0
 40
5.0
 40
6.0
 40
6.0
 40
6.0
 40
7.0
 40
7.0
 40
7.0
 40
8.0
 40
8.0
 40
8.0
 40
9.0
 40
9.0
 40
9.0
 40
10.0
 40
10.0
 40
10.0
 40
11.0
 40
11.0
 40
11.0
 40
12.0
 40
12.0
 40
12.0
 40
13.0
 40
13.0
 40
13.0
 40
14.0
 40
14.0
 40
14.0
 40
15.0
 40
15.0
 40
15.0
 40
16.0
 40
16.0
 40
16.0
 40
17.0
 40
17.0
 40
17.0
 40
17.0
 10
51.196875
 20
99.42201063368054
 10
51.21823459201389
 20
99.69727376302082
 10
51.07009548611111
 20
99.90535753038193
 10
50.77726236979166
 20
99.90535753038193
 10
50.3504150390625
 20
99.90535753038193
 10
50.30459526909722
 20
99.63698459201387
 10
50.30459526909722
 20
99.4326904296875
 10
50.30459526909722
 20
99.24906684027776
 10
50.38555501302083
 20
99.13641221788194
 10
50.55505371093749
 20
99.07267795138888
 10
50.69595811631944
 20
99.01996799045138
 10
50.83376193576388
 20
98.96691351996527
 10
50.97466634114583
 20
98.91420355902777
 10
51.47558322482639
 20
98.72713487413193
 10
51.56722276475694
 20
98.55074598524304
 10
51.56722276475694
 20
98.20175781249999
 10
51.56722276475694
 20
97.70084092881943
 10
51.25337456597222
 20
97.40800781249999
 10
50.74556749131944
 20
97.40800781249999
 10
50.48442925347221
 20
97.40800781249999
 10
50.17402615017361
 20
97.48207736545137
 10
50.02244194878472
 20
97.82762044270832
 10
49.96594238281249
 20
97.95818956163194
 10
49.96938747829861
 20
98.16971842447916
 10
49.96594238281249
 20
98.31096733940971
 10
49.96594238281249
 20
98.31096733940971
 10
50.25877549913194
 20
98.31096733940971
 10
50.25877549913194
 20
98.31096733940971
 10
50.24465060763888
 20
97.91960449218749
 10
50.31872016059027
 20
97.67259114583332
 10
50.7596923828125
 20
97.67259114583332
 10
51.05597059461805
 20
97.67259114583332
 10
51.26405436197916
 20
97.82417534722221
 10
51.26405436197916
 20
98.13457845052082
 10
51.26405436197916
 20
98.53662109374999
 10
51.10179036458333
 20
98.5400661892361
 10
50.83376193576388
 20
98.64238552517361
 10
50.68906792534722
 20
98.69888509114583
 10
50.45617947048611
 20
98.77295464409721
 10
50.31527506510416
 20
98.8470241970486
 10
50.06481662326389
 20
98.9741482204861
 10
50.00108235677083
 20
99.18567708333332
 10
50.00108235677083
 20
99.44681532118055
 10
50.00108235677083
 20
99.88399793836804
 10
50.30804036458333
 20
100.1699408637153
 10
50.73833279079861
 20
100.1699408637153
 10
51.22167968749999
 20
100.1699408637153
 10
51.51795789930555
 20
99.91948242187499
 10
51.48970811631944
 20
99.42201063368054
 10
51.48970811631944
 20
99.42201063368054
 10
51.196875
 20
99.42201063368054
 10
51.196875
 20
99.42201063368054
 97
        0
 75
     0
 76
     1
 98
        1
 10
0.0
 20
0.0
  0
HATCH
  5
40
330
A
100
AcDbEntity
  8
LAYER_1
 62
     7
100
AcDbHatch
 10
0.0
 20
0.0
 30
0.0
210
0.0
220
0.0
230
1.0
  2
SOLID
 70
     1
 71
     0
 91
        1
 92
        1
 93
        1
 72
     4
 94
        3
 73
     0
 74
     0
 95
       17
 96
       13
 40
0.0
 40
0.0
 40
0.0
 40
0.0
 40
1.0
 40
1.0
 40
1.0
 40
2.0
 40
2.0
 40
2.0
 40
3.0
 40
3.0
 40
3.0
 40
4.0
 40
4.0
 40
4.0
 40
4.0
 10
52.0929443359375
 20
97.47139756944443
 10
52.0929443359375
 20
97.47139756944443
 10
52.0929443359375
 20
100.1168863932292
 10
52.0929443359375
 20
100.1168863932292
 10
52.0929443359375
 20
100.1168863932292
 10
52.38543294270833
 20
100.1168863932292
 10
52.38543294270833
 20
100.1168863932292
 10
52.38543294270833
 20
100.1168863932292
 10
52.38543294270833
 20
97.47139756944443
 10
52.38543294270833
 20
97.47139756944443
 10
52.38543294270833
 20
97.47139756944443
 10
52.0929443359375
 20
97.47139756944443
 10
52.0929443359375
 20
97.47139756944443
 97
        0
 75
     0
 76
     1
 98
        1
 10
0.0
 20
0.0
  0
HATCH
  5
3F
330
A
100
AcDbEntity
  8
LAYER_1
 62
     7
100
AcDbHatch
 10
0.0
 20
0.0
 30
0.0
210
0.0
220
0.0
230
1.0
  2
SOLID
 70
     1
 71
     0
 91
        2
 92
       16
 93
        1
 72
     4
 94
        3
 73
     0
 74
     0
 95
       20
 96
       16
 40
0.0
 40
0.0
 40
0.0
 40
0.0
 40
1.0
 40
1.0
 40
1.0
 40
2.0
 40
2.0
 40
2.0
 40
3.0
 40
3.0
 40
3.0
 40
4.0
 40
4.0
 40
4.0
 40
5.0
 40
5.0
 40
5.0
 40
5.0
 10
53.30940755208333
 20
97.73598090277777
 10
53.30940755208333
 20
97.73598090277777
 10
53.77828504774305
 20
97.73598090277777
 10
53.77828504774305
 20
97.73598090277777
 10
54.20892198350694
 20
97.73598090277777
 10
54.38496636284722
 20
98.05706380208332
 10
54.35671657986111
 20
98.8470241970486
 10
54.33570149739583
 20
99.45026041666665
 10
54.2509521484375
 20
99.85230305989582
 10
53.77828504774305
 20
99.85230305989582
 10
53.77828504774305
 20
99.85230305989582
 10
53.30940755208333
 20
99.85230305989582
 10
53.30940755208333
 20
99.85230305989582
 10
53.30940755208333
 20
99.85230305989582
 10
53.30940755208333
 20
97.73598090277777
 10
53.30940755208333
 20
97.73598090277777
 97
        0
 92
        1
 93
        1
 72
     4
 94
        3
 73
     0
 74
     0
 95
       20
 96
       16
 40
0.0
 40
0.0
 40
0.0
 40
0.0
 40
1.0
 40
1.0
 40
1.0
 40
2.0
 40
2.0
 40
2.0
 40
3.0
 40
3.0
 40
3.0
 40
4.0
 40
4.0
 40
4.0
 40
5.0
 40
5.0
 40
5.0
 40
5.0
 10
53.01657443576389
 20
97.47139756944443
 10
53.01657443576389
 20
97.47139756944443
 10
53.01657443576389
 20
100.1168863932292
 10
53.01657443576389
 20
100.1168863932292
 10
53.01657443576389
 20
100.1168863932292
 10
53.74314507378472
 20
100.1168863932292
 10
53.74314507378472
 20
100.1168863932292
 10
54.56858995225694
 20
100.1168863932292
 10
54.68124457465277
 20
99.44681532118055
 10
54.6602294921875
 20
98.79396972656249
 10
54.63921440972221
 20
98.14870334201387
 10
54.51209038628472
 20
97.47139756944443
 10
53.79619954427083
 20
97.47139756944443
 10
53.79619954427083
 20
97.47139756944443
 10
53.01657443576389
 20
97.47139756944443
 10
53.01657443576389
 20
97.47139756944443
 97
        0
 75
     0
 76
     1
 98
        1
 10
0.0
 20
0.0
  0
HATCH
  5
3E
330
A
100
AcDbEntity
  8
LAYER_1
 62
     7
100
AcDbHatch
 10
0.0
 20
0.0
 30
0.0
210
0.0
220
0.0
230
1.0
  2
SOLID
 70
     1
 71
     0
 91
        1
 92
        1
 93
        1
 72
     4
 94
        3
 73
     0
 74
     0
 95
       41
 96
       37
 40
0.0
 40
0.0
 40
0.0
 40
0.0
 40
1.0
 40
1.0
 40
1.0
 40
2.0
 40
2.0
 40
2.0
 40
3.0
 40
3.0
 40
3.0
 40
4.0
 40
4.0
 40
4.0
 40
5.0
 40
5.0
 40
5.0
 40
6.0
 40
6.0
 40
6.0
 40
7.0
 40
7.0
 40
7.0
 40
8.0
 40
8.0
 40
8.0
 40
9.0
 40
9.0
 40
9.0
 40
10.0
 40
10.0
 40
10.0
 40
11.0
 40
11.0
 40
11.0
 40
12.0
 40
12.0
 40
12.0
 40
12.0
 10
55.14323187934027
 20
97.47139756944443
 10
55.14323187934027
 20
97.47139756944443
 10
55.14323187934027
 20
100.1168863932292
 10
55.14323187934027
 20
100.1168863932292
 10
55.14323187934027
 20
100.1168863932292
 10
56.46580403645833
 20
100.1168863932292
 10
56.46580403645833
 20
100.1168863932292
 10
56.46580403645833
 20
100.1168863932292
 10
56.46580403645833
 20
99.85230305989582
 10
56.46580403645833
 20
99.85230305989582
 10
56.46580403645833
 20
99.85230305989582
 10
55.43606499565972
 20
99.85230305989582
 10
55.43606499565972
 20
99.85230305989582
 10
55.43606499565972
 20
99.85230305989582
 10
55.43606499565972
 20
98.97759331597221
 10
55.43606499565972
 20
98.97759331597221
 10
55.43606499565972
 20
98.97759331597221
 10
56.40241427951388
 20
98.97759331597221
 10
56.40241427951388
 20
98.97759331597221
 10
56.40241427951388
 20
98.97759331597221
 10
56.40241427951388
 20
98.71300998263888
 10
56.40241427951388
 20
98.71300998263888
 10
56.40241427951388
 20
98.71300998263888
 10
55.43606499565972
 20
98.71300998263888
 10
55.43606499565972
 20
98.71300998263888
 10
55.43606499565972
 20
98.71300998263888
 10
55.43606499565972
 20
97.73598090277777
 10
55.43606499565972
 20
97.73598090277777
 10
55.43606499565972
 20
97.73598090277777
 10
56.47303873697916
 20
97.73598090277777
 10
56.47303873697916
 20
97.73598090277777
 10
56.47303873697916
 20
97.73598090277777
 10
56.47303873697916
 20
97.47139756944443
 10
56.47303873697916
 20
97.47139756944443
 10
56.47303873697916
 20
97.47139756944443
 10
55.14323187934027
 20
97.47139756944443
 10
55.14323187934027
 20
97.47139756944443
 97
        0
 75
     0
 76
     1
 98
        1
 10
0.0
 20
0.0
  0
HATCH
  5
3D
330
A
100
AcDbEntity
  8
LAYER_1
 62
     7
100
AcDbHatch
 10
0.0
 20
0.0
 30
0.0
210
0.0
220
0.0
230
1.0
  2
SOLID
 70
     1
 71
     0
 91
        1
 92
        1
 93
        1
 72
     4
 94
        3
 73
     0
 74
     0
 95
       35
 96
       31
 40
0.0
 40
0.0
 40
0.0
 40
0.0
 40
1.0
 40
1.0
 40
1.0
 40
2.0
 40
2.0
 40
2.0
 40
3.0
 40
3.0
 40
3.0
 40
4.0
 40
4.0
 40
4.0
 40
5.0
 40
5.0
 40
5.0
 40
6.0
 40
6.0
 40
6.0
 40
7.0
 40
7.0
 40
7.0
 40
8.0
 40
8.0
 40
8.0
 40
9.0
 40
9.0
 40
9.0
 40
10.0
 40
10.0
 40
10.0
 40
10.0
 10
41.13444010416666
 20
93.94361979166666
 10
41.13444010416666
 20
93.94361979166666
 10
41.13444010416666
 20
96.58910861545138
 10
41.13444010416666
 20
96.58910861545138
 10
41.13444010416666
 20
96.58910861545138
 10
42.37605251736111
 20
96.58910861545138
 10
42.37605251736111
 20
96.58910861545138
 10
42.37605251736111
 20
96.58910861545138
 10
42.37605251736111
 20
96.32452528211805
 10
42.37605251736111
 20
96.32452528211805
 10
42.37605251736111
 20
96.32452528211805
 10
41.42727322048611
 20
96.32452528211805
 10
41.42727322048611
 20
96.32452528211805
 10
41.42727322048611
 20
96.32452528211805
 10
41.42727322048611
 20
95.45670572916666
 10
41.42727322048611
 20
95.45670572916666
 10
41.42727322048611
 20
95.45670572916666
 10
42.30921766493055
 20
95.45670572916666
 10
42.30921766493055
 20
95.45670572916666
 10
42.30921766493055
 20
95.45670572916666
 10
42.30921766493055
 20
95.19246690538193
 10
42.30921766493055
 20
95.19246690538193
 10
42.30921766493055
 20
95.19246690538193
 10
41.42727322048611
 20
95.19246690538193
 10
41.42727322048611
 20
95.19246690538193
 10
41.42727322048611
 20
95.19246690538193
 10
41.42727322048611
 20
93.94361979166666
 10
41.42727322048611
 20
93.94361979166666
 10
41.42727322048611
 20
93.94361979166666
 10
41.13444010416666
 20
93.94361979166666
 10
41.13444010416666
 20
93.94361979166666
 97
        0
 75
     0
 76
     1
 98
        1
 10
0.0
 20
0.0
  0
HATCH
  5
3C
330
A
100
AcDbEntity
  8
LAYER_1
 62
     7
100
AcDbHatch
 10
0.0
 20
0.0
 30
0.0
210
0.0
220
0.0
230
1.0
  2
SOLID
 70
     1
 71
     0
 91
        1
 92
        1
 93
        1
 72
     4
 94
        3
 73
     0
 74
     0
 95
       23
 96
       19
 40
0.0
 40
0.0
 40
0.0
 40
0.0
 40
1.0
 40
1.0
 40
1.0
 40
2.0
 40
2.0
 40
2.0
 40
3.0
 40
3.0
 40
3.0
 40
4.0
 40
4.0
 40
4.0
 40
5.0
 40
5.0
 40
5.0
 40
6.0
 40
6.0
 40
6.0
 40
6.0
 10
42.732275390625
 20
93.94361979166666
 10
42.732275390625
 20
93.94361979166666
 10
42.732275390625
 20
96.58910861545138
 10
42.732275390625
 20
96.58910861545138
 10
42.732275390625
 20
96.58910861545138
 10
43.02476399739583
 20
96.58910861545138
 10
43.02476399739583
 20
96.58910861545138
 10
43.02476399739583
 20
96.58910861545138
 10
43.02476399739583
 20
94.208203125
 10
43.02476399739583
 20
94.208203125
 10
43.02476399739583
 20
94.208203125
 10
44.10411241319444
 20
94.208203125
 10
44.10411241319444
 20
94.208203125
 10
44.10411241319444
 20
94.208203125
 10
44.10411241319444
 20
93.94361979166666
 10
44.10411241319444
 20
93.94361979166666
 10
44.10411241319444
 20
93.94361979166666
 10
42.732275390625
 20
93.94361979166666
 10
42.732275390625
 20
93.94361979166666
 97
        0
 75
     0
 76
     1
 98
        1
 10
0.0
 20
0.0
  0
HATCH
  5
3B
330
A
100
AcDbEntity
  8
LAYER_1
 62
     7
100
AcDbHatch
 10
0.0
 20
0.0
 30
0.0
210
0.0
220
0.0
230
1.0
  2
SOLID
 70
     1
 71
     0
 91
        1
 92
        1
 93
        1
 72
     4
 94
        3
 73
     0
 74
     0
 95
       35
 96
       31
 40
0.0
 40
0.0
 40
0.0
 40
0.0
 40
1.0
 40
1.0
 40
1.0
 40
2.0
 40
2.0
 40
2.0
 40
3.0
 40
3.0
 40
3.0
 40
4.0
 40
4.0
 40
4.0
 40
5.0
 40
5.0
 40
5.0
 40
6.0
 40
6.0
 40
6.0
 40
7.0
 40
7.0
 40
7.0
 40
8.0
 40
8.0
 40
8.0
 40
9.0
 40
9.0
 40
9.0
 40
10.0
 40
10.0
 40
10.0
 40
10.0
 10
44.48892957899305
 20
96.58910861545138
 10
44.48892957899305
 20
96.58910861545138
 10
44.78176269531249
 20
96.58910861545138
 10
44.78176269531249
 20
96.58910861545138
 10
44.78176269531249
 20
96.58910861545138
 10
44.78176269531249
 20
94.68810492621527
 10
44.78176269531249
 20
94.68810492621527
 10
44.77831759982639
 20
94.47967664930555
 10
44.81345757378472
 20
94.14481336805555
 10
45.28267957899305
 20
94.14481336805555
 10
45.75190158420138
 20
94.14481336805555
 10
45.78704155815972
 20
94.47967664930555
 10
45.78359646267361
 20
94.68810492621527
 10
45.78359646267361
 20
94.68810492621527
 10
45.78359646267361
 20
96.58910861545138
 10
45.78359646267361
 20
96.58910861545138
 10
45.78359646267361
 20
96.58910861545138
 10
46.07608506944444
 20
96.58910861545138
 10
46.07608506944444
 20
96.58910861545138
 10
46.07608506944444
 20
96.58910861545138
 10
46.07608506944444
 20
94.58199598524304
 10
46.07608506944444
 20
94.58199598524304
 10
46.07608506944444
 20
94.1093288845486
 10
45.76223687065972
 20
93.88023003472222
 10
45.28267957899305
 20
93.88023003472222
 10
44.80277777777778
 20
93.88023003472222
 10
44.48892957899305
 20
94.1093288845486
 10
44.48892957899305
 20
94.58199598524304
 10
44.48892957899305
 20
94.58199598524304
 10
44.48892957899305
 20
96.58910861545138
 10
44.48892957899305
 20
96.58910861545138
 97
        0
 75
     0
 76
     1
 98
        1
 10
0.0
 20
0.0
  0
HATCH
  5
3A
330
A
100
AcDbEntity
  8
LAYER_1
 62
     7
100
AcDbHatch
 10
0.0
 20
0.0
 30
0.0
210
0.0
220
0.0
230
1.0
  2
SOLID
 70
     1
 71
     0
 91
        1
 92
        1
 93
        1
 72
     4
 94
        3
 73
     0
 74
     0
 95
       56
 96
       52
 40
0.0
 40
0.0
 40
0.0
 40
0.0
 40
1.0
 40
1.0
 40
1.0
 40
2.0
 40
2.0
 40
2.0
 40
3.0
 40
3.0
 40
3.0
 40
4.0
 40
4.0
 40
4.0
 40
5.0
 40
5.0
 40
5.0
 40
6.0
 40
6.0
 40
6.0
 40
7.0
 40
7.0
 40
7.0
 40
8.0
 40
8.0
 40
8.0
 40
9.0
 40
9.0
 40
9.0
 40
10.0
 40
10.0
 40
10.0
 40
11.0
 40
11.0
 40
11.0
 40
12.0
 40
12.0
 40
12.0
 40
13.0
 40
13.0
 40
13.0
 40
14.0
 40
14.0
 40
14.0
 40
15.0
 40
15.0
 40
15.0
 40
16.0
 40
16.0
 40
16.0
 40
17.0
 40
17.0
 40
17.0
 40
17.0
 10
47.76900499131944
 20
95.89423285590277
 10
47.79036458333333
 20
96.16949598524305
 10
47.64222547743055
 20
96.37757975260416
 10
47.34939236111111
 20
96.37757975260416
 10
46.92254503038194
 20
96.37757975260416
 10
46.87672526041666
 20
96.1092068142361
 10
46.87672526041666
 20
95.90491265190971
 10
46.87672526041666
 20
95.72128906249999
 10
46.95768500434027
 20
95.60863444010415
 10
47.12718370225694
 20
95.5449001736111
 10
47.26808810763888
 20
95.49219021267361
 10
47.40589192708333
 20
95.43913574218749
 10
47.54679633246527
 20
95.38642578125
 10
48.04771321614583
 20
95.19935709635416
 10
48.13935275607638
 20
95.02296820746527
 10
48.13935275607638
 20
94.67398003472222
 10
48.13935275607638
 20
94.17306315104166
 10
47.82550455729167
 20
93.88023003472222
 10
47.31769748263888
 20
93.88023003472222
 10
47.05655924479166
 20
93.88023003472222
 10
46.74615614149305
 20
93.9542995876736
 10
46.59457194010416
 20
94.29984266493055
 10
46.53807237413194
 20
94.43041178385415
 10
46.54151746961805
 20
94.64194064670139
 10
46.53807237413194
 20
94.78318956163194
 10
46.53807237413194
 20
94.78318956163194
 10
46.83090549045139
 20
94.78318956163194
 10
46.83090549045139
 20
94.78318956163194
 10
46.81678059895833
 20
94.39182671440972
 10
46.89085015190972
 20
94.14481336805555
 10
47.33182237413194
 20
94.14481336805555
 10
47.6281005859375
 20
94.14481336805555
 10
47.83618435329861
 20
94.29639756944444
 10
47.83618435329861
 20
94.60680067274305
 10
47.83618435329861
 20
95.00884331597221
 10
47.67392035590277
 20
95.01228841145833
 10
47.40589192708333
 20
95.11460774739582
 10
47.26119791666666
 20
95.17110731336804
 10
47.02830946180555
 20
95.24517686631944
 10
46.88740505642361
 20
95.31924641927083
 10
46.63694661458333
 20
95.44637044270833
 10
46.57321234809027
 20
95.65789930555555
 10
46.57321234809027
 20
95.91903754340277
 10
46.57321234809027
 20
96.35622016059027
 10
46.88017035590277
 20
96.6421630859375
 10
47.31046278211805
 20
96.6421630859375
 10
47.79380967881944
 20
96.6421630859375
 10
48.09008789062499
 20
96.39170464409722
 10
48.06183810763888
 20
95.89423285590277
 10
48.06183810763888
 20
95.89423285590277
 10
47.76900499131944
 20
95.89423285590277
 10
47.76900499131944
 20
95.89423285590277
 97
        0
 75
     0
 76
     1
 98
        1
 10
0.0
 20
0.0
  0
HATCH
  5
39
330
A
100
AcDbEntity
  8
LAYER_1
 62
     7
100
AcDbHatch
 10
0.0
 20
0.0
 30
0.0
210
0.0
220
0.0
230
1.0
  2
SOLID
 70
     1
 71
     0
 91
        1
 92
        1
 93
        1
 72
     4
 94
        3
 73
     0
 74
     0
 95
       41
 96
       37
 40
0.0
 40
0.0
 40
0.0
 40
0.0
 40
1.0
 40
1.0
 40
1.0
 40
2.0
 40
2.0
 40
2.0
 40
3.0
 40
3.0
 40
3.0
 40
4.0
 40
4.0
 40
4.0
 40
5.0
 40
5.0
 40
5.0
 40
6.0
 40
6.0
 40
6.0
 40
7.0
 40
7.0
 40
7.0
 40
8.0
 40
8.0
 40
8.0
 40
9.0
 40
9.0
 40
9.0
 40
10.0
 40
10.0
 40
10.0
 40
11.0
 40
11.0
 40
11.0
 40
12.0
 40
12.0
 40
12.0
 40
12.0
 10
48.59789496527777
 20
93.94361979166666
 10
48.59789496527777
 20
93.94361979166666
 10
48.59789496527777
 20
96.58910861545138
 10
48.59789496527777
 20
96.58910861545138
 10
48.59789496527777
 20
96.58910861545138
 10
48.89072808159722
 20
96.58910861545138
 10
48.89072808159722
 20
96.58910861545138
 10
48.89072808159722
 20
96.58910861545138
 10
48.89072808159722
 20
95.48495551215277
 10
48.89072808159722
 20
95.48495551215277
 10
48.89072808159722
 20
95.48495551215277
 10
49.90289713541666
 20
95.48495551215277
 10
49.90289713541666
 20
95.48495551215277
 10
49.90289713541666
 20
95.48495551215277
 10
49.90289713541666
 20
96.58910861545138
 10
49.90289713541666
 20
96.58910861545138
 10
49.90289713541666
 20
96.58910861545138
 10
50.19573025173611
 20
96.58910861545138
 10
50.19573025173611
 20
96.58910861545138
 10
50.19573025173611
 20
96.58910861545138
 10
50.19573025173611
 20
93.94361979166666
 10
50.19573025173611
 20
93.94361979166666
 10
50.19573025173611
 20
93.94361979166666
 10
49.90289713541666
 20
93.94361979166666
 10
49.90289713541666
 20
93.94361979166666
 10
49.90289713541666
 20
93.94361979166666
 10
49.90289713541666
 20
95.22071668836804
 10
49.90289713541666
 20
95.22071668836804
 10
49.90289713541666
 20
95.22071668836804
 10
48.89072808159722
 20
95.22071668836804
 10
48.89072808159722
 20
95.22071668836804
 10
48.89072808159722
 20
95.22071668836804
 10
48.89072808159722
 20
93.94361979166666
 10
48.89072808159722
 20
93.94361979166666
 10
48.89072808159722
 20
93.94361979166666
 10
48.59789496527777
 20
93.94361979166666
 10
48.59789496527777
 20
93.94361979166666
 97
        0
 75
     0
 76
     1
 98
        1
 10
0.0
 20
0.0
  0
HATCH
  5
38
330
A
100
AcDbEntity
  8
LAYER_1
 62
     7
100
AcDbHatch
 10
0.0
 20
0.0
 30
0.0
210
0.0
220
0.0
230
1.0
  2
SOLID
 70
     1
 71
     0
 91
        1
 92
        1
 93
        1
 72
     4
 94
        3
 73
     0
 74
     0
 95
       56
 96
       52
 40
0.0
 40
0.0
 40
0.0
 40
0.0
 40
1.0
 40
1.0
 40
1.0
 40
2.0
 40
2.0
 40
2.0
 40
3.0
 40
3.0
 40
3.0
 40
4.0
 40
4.0
 40
4.0
 40
5.0
 40
5.0
 40
5.0
 40
6.0
 40
6.0
 40
6.0
 40
7.0
 40
7.0
 40
7.0
 40
8.0
 40
8.0
 40
8.0
 40
9.0
 40
9.0
 40
9.0
 40
10.0
 40
10.0
 40
10.0
 40
11.0
 40
11.0
 40
11.0
 40
12.0
 40
12.0
 40
12.0
 40
13.0
 40
13.0
 40
13.0
 40
14.0
 40
14.0
 40
14.0
 40
15.0
 40
15.0
 40
15.0
 40
16.0
 40
16.0
 40
16.0
 40
17.0
 40
17.0
 40
17.0
 40
17.0
 10
42.28441297743055
 20
92.36645507812499
 10
42.30577256944444
 20
92.64171820746527
 10
42.15763346354166
 20
92.84980197482638
 10
41.86480034722222
 20
92.84980197482638
 10
41.43795301649305
 20
92.84980197482638
 10
41.39213324652778
 20
92.58142903645833
 10
41.39213324652778
 20
92.37713487413194
 10
41.39213324652778
 20
92.19351128472222
 10
41.47309299045138
 20
92.08085666232638
 10
41.64259168836805
 20
92.01712239583333
 10
41.78349609375
 20
91.96441243489582
 10
41.92129991319444
 20
91.91135796440972
 10
42.06220431857638
 20
91.85864800347221
 10
42.56312120225694
 20
91.67157931857638
 10
42.6547607421875
 20
91.4951904296875
 10
42.6547607421875
 20
91.14620225694443
 10
42.6547607421875
 20
90.64528537326387
 10
42.34091254340277
 20
90.35245225694443
 10
41.83310546875
 20
90.35245225694443
 10
41.57196723090277
 20
90.35245225694443
 10
41.26156412760416
 20
90.42652180989583
 10
41.10997992621527
 20
90.77206488715277
 10
41.05348036024305
 20
90.90263400607638
 10
41.05692545572916
 20
91.1141628689236
 10
41.05348036024305
 20
91.25541178385416
 10
41.05348036024305
 20
91.25541178385416
 10
41.34631347656249
 20
91.25541178385416
 10
41.34631347656249
 20
91.25541178385416
 10
41.33218858506944
 20
90.86404893663193
 10
41.40625813802083
 20
90.61703559027777
 10
41.84723036024305
 20
90.61703559027777
 10
42.14350857204861
 20
90.61703559027777
 10
42.35159233940972
 20
90.76861979166665
 10
42.35159233940972
 20
91.07902289496526
 10
42.35159233940972
 20
91.48106553819444
 10
42.18932834201389
 20
91.48451063368054
 10
41.92129991319444
 20
91.58682996961805
 10
41.77660590277777
 20
91.64332953559027
 10
41.54371744791666
 20
91.71739908854165
 10
41.40281304253472
 20
91.79146864149305
 10
41.15235460069444
 20
91.91859266493054
 10
41.08896484375
 20
92.13012152777777
 10
41.08896484375
 20
92.39125976562499
 10
41.08896484375
 20
92.8284423828125
 10
41.39557834201388
 20
93.11438530815971
 10
41.82587076822917
 20
93.11438530815971
 10
42.30921766493055
 20
93.11438530815971
 10
42.60549587673611
 20
92.86392686631943
 10
42.57724609375
 20
92.36645507812499
 10
42.57724609375
 20
92.36645507812499
 10
42.28441297743055
 20
92.36645507812499
 10
42.28441297743055
 20
92.36645507812499
 97
        0
 75
     0
 76
     1
 98
        1
 10
0.0
 20
0.0
  0
HATCH
  5
37
330
A
100
AcDbEntity
  8
LAYER_1
 62
     7
100
AcDbHatch
 10
0.0
 20
0.0
 30
0.0
210
0.0
220
0.0
230
1.0
  2
SOLID
 70
     1
 71
     0
 91
        1
 92
        1
 93
        1
 72
     4
 94
        3
 73
     0
 74
     0
 95
       41
 96
       37
 40
0.0
 40
0.0
 40
0.0
 40
0.0
 40
1.0
 40
1.0
 40
1.0
 40
2.0
 40
2.0
 40
2.0
 40
3.0
 40
3.0
 40
3.0
 40
4.0
 40
4.0
 40
4.0
 40
5.0
 40
5.0
 40
5.0
 40
6.0
 40
6.0
 40
6.0
 40
7.0
 40
7.0
 40
7.0
 40
8.0
 40
8.0
 40
8.0
 40
9.0
 40
9.0
 40
9.0
 40
10.0
 40
10.0
 40
10.0
 40
11.0
 40
11.0
 40
11.0
 40
12.0
 40
12.0
 40
12.0
 40
12.0
 10
43.11330295138888
 20
90.41584201388888
 10
43.11330295138888
 20
90.41584201388888
 10
43.11330295138888
 20
93.06133083767361
 10
43.11330295138888
 20
93.06133083767361
 10
43.11330295138888
 20
93.06133083767361
 10
43.40613606770833
 20
93.06133083767361
 10
43.40613606770833
 20
93.06133083767361
 10
43.40613606770833
 20
93.06133083767361
 10
43.40613606770833
 20
91.95717773437499
 10
43.40613606770833
 20
91.95717773437499
 10
43.40613606770833
 20
91.95717773437499
 10
44.41830512152777
 20
91.95717773437499
 10
44.41830512152777
 20
91.95717773437499
 10
44.41830512152777
 20
91.95717773437499
 10
44.41830512152777
 20
93.06133083767361
 10
44.41830512152777
 20
93.06133083767361
 10
44.41830512152777
 20
93.06133083767361
 10
44.71113823784722
 20
93.06133083767361
 10
44.71113823784722
 20
93.06133083767361
 10
44.71113823784722
 20
93.06133083767361
 10
44.71113823784722
 20
90.41584201388888
 10
44.71113823784722
 20
90.41584201388888
 10
44.71113823784722
 20
90.41584201388888
 10
44.41830512152777
 20
90.41584201388888
 10
44.41830512152777
 20
90.41584201388888
 10
44.41830512152777
 20
90.41584201388888
 10
44.41830512152777
 20
91.69293891059027
 10
44.41830512152777
 20
91.69293891059027
 10
44.41830512152777
 20
91.69293891059027
 10
43.40613606770833
 20
91.69293891059027
 10
43.40613606770833
 20
91.69293891059027
 10
43.40613606770833
 20
91.69293891059027
 10
43.40613606770833
 20
90.41584201388888
 10
43.40613606770833
 20
90.41584201388888
 10
43.40613606770833
 20
90.41584201388888
 10
43.11330295138888
 20
90.41584201388888
 10
43.11330295138888
 20
90.41584201388888
 97
        0
 75
     0
 76
     1
 98
        1
 10
0.0
 20
0.0
  0
HATCH
  5
36
330
A
100
AcDbEntity
  8
LAYER_1
 62
     7
100
AcDbHatch
 10
0.0
 20
0.0
 30
0.0
210
0.0
220
0.0
230
1.0
  2
SOLID
 70
     1
 71
     0
 91
        2
 92
       16
 93
        1
 72
     4
 94
        3
 73
     0
 74
     0
 95
       17
 96
       13
 40
0.0
 40
0.0
 40
0.0
 40
0.0
 40
1.0
 40
1.0
 40
1.0
 40
2.0
 40
2.0
 40
2.0
 40
3.0
 40
3.0
 40
3.0
 40
4.0
 40
4.0
 40
4.0
 40
4.0
 10
46.06196017795138
 20
92.84980197482638
 10
45.61030815972222
 20
92.84980197482638
 10
45.49765353732639
 20
92.37713487413194
 10
45.50109863281249
 20
91.78802354600694
 10
45.50454372829861
 20
91.02252332899305
 10
45.58205837673611
 20
90.61703559027777
 10
46.06885036892361
 20
90.61703559027777
 10
46.5556423611111
 20
90.61703559027777
 10
46.63350151909722
 20
91.02252332899305
 10
46.63694661458333
 20
91.78802354600694
 10
46.64039171006944
 20
92.37713487413194
 10
46.527392578125
 20
92.84980197482638
 10
46.06196017795138
 20
92.84980197482638
 97
        0
 92
        1
 93
        1
 72
     4
 94
        3
 73
     0
 74
     0
 95
       17
 96
       13
 40
0.0
 40
0.0
 40
0.0
 40
0.0
 40
1.0
 40
1.0
 40
1.0
 40
2.0
 40
2.0
 40
2.0
 40
3.0
 40
3.0
 40
3.0
 40
4.0
 40
4.0
 40
4.0
 40
4.0
 10
46.07608506944444
 20
93.11438530815971
 10
46.84847547743055
 20
93.11438530815971
 10
46.94356011284722
 20
92.40159505208332
 10
46.94011501736111
 20
91.79491373697915
 10
46.93666992187499
 20
91.06145290798611
 10
46.84124077690972
 20
90.35245225694443
 10
46.06885036892361
 20
90.35245225694443
 10
45.2964599609375
 20
90.35245225694443
 10
45.20482042100694
 20
91.06145290798611
 10
45.19758572048611
 20
91.79491373697915
 10
45.19758572048611
 20
92.40159505208332
 10
45.28956976996528
 20
93.11438530815971
 10
46.07608506944444
 20
93.11438530815971
 97
        0
 75
     0
 76
     1
 98
        1
 10
0.0
 20
0.0
  0
HATCH
  5
35
330
A
100
AcDbEntity
  8
LAYER_1
 62
     7
100
AcDbHatch
 10
0.0
 20
0.0
 30
0.0
210
0.0
220
0.0
230
1.0
  2
SOLID
 70
     1
 71
     0
 91
        1
 92
        1
 93
        1
 72
     4
 94
        3
 73
     0
 74
     0
 95
       71
 96
       67
 40
0.0
 40
0.0
 40
0.0
 40
0.0
 40
1.0
 40
1.0
 40
1.0
 40
2.0
 40
2.0
 40
2.0
 40
3.0
 40
3.0
 40
3.0
 40
4.0
 40
4.0
 40
4.0
 40
5.0
 40
5.0
 40
5.0
 40
6.0
 40
6.0
 40
6.0
 40
7.0
 40
7.0
 40
7.0
 40
8.0
 40
8.0
 40
8.0
 40
9.0
 40
9.0
 40
9.0
 40
10.0
 40
10.0
 40
10.0
 40
11.0
 40
11.0
 40
11.0
 40
12.0
 40
12.0
 40
12.0
 40
13.0
 40
13.0
 40
13.0
 40
14.0
 40
14.0
 40
14.0
 40
15.0
 40
15.0
 40
15.0
 40
16.0
 40
16.0
 40
16.0
 40
17.0
 40
17.0
 40
17.0
 40
18.0
 40
18.0
 40
18.0
 40
19.0
 40
19.0
 40
19.0
 40
20.0
 40
20.0
 40
20.0
 40
21.0
 40
21.0
 40
21.0
 40
22.0
 40
22.0
 40
22.0
 40
22.0
 10
48.13211805555555
 20
90.41584201388888
 10
48.13211805555555
 20
90.41584201388888
 10
47.76900499131944
 20
90.41584201388888
 10
47.76900499131944
 20
90.41584201388888
 10
47.76900499131944
 20
90.41584201388888
 10
47.20435384114583
 20
93.06133083767361
 10
47.20435384114583
 20
93.06133083767361
 10
47.20435384114583
 20
93.06133083767361
 10
47.5288818359375
 20
93.06133083767361
 10
47.5288818359375
 20
93.06133083767361
 10
47.5288818359375
 20
93.06133083767361
 10
47.87476942274305
 20
91.23784179687499
 10
47.87476942274305
 20
91.23784179687499
 10
47.90646430121527
 20
91.05800781249999
 10
47.93126898871527
 20
90.87438422309027
 10
47.95228407118055
 20
90.62771538628472
 10
47.95228407118055
 20
90.62771538628472
 10
47.95917426215277
 20
90.62771538628472
 10
47.95917426215277
 20
90.62771538628472
 10
47.98397894965277
 20
90.8320095486111
 10
48.00499403211805
 20
91.02596842447916
 10
48.0439236111111
 20
91.21648220486111
 10
48.0439236111111
 20
91.21648220486111
 10
48.43184136284722
 20
93.06133083767361
 10
48.43184136284722
 20
93.06133083767361
 10
48.43184136284722
 20
93.06133083767361
 10
48.79529893663194
 20
93.06133083767361
 10
48.79529893663194
 20
93.06133083767361
 10
48.79529893663194
 20
93.06133083767361
 10
49.1446316189236
 20
91.23784179687499
 10
49.1446316189236
 20
91.23784179687499
 10
49.17632649739583
 20
91.06145290798611
 10
49.19734157986111
 20
90.88506401909721
 10
49.2221462673611
 20
90.62771538628472
 10
49.2221462673611
 20
90.62771538628472
 10
49.22903645833333
 20
90.62771538628472
 10
49.22903645833333
 20
90.62771538628472
 10
49.25384114583333
 20
90.8320095486111
 10
49.27485622829861
 20
91.02596842447916
 10
49.31378580729167
 20
91.21648220486111
 10
49.31378580729167
 20
91.21648220486111
 10
49.69825846354166
 20
93.06133083767361
 10
49.69825846354166
 20
93.06133083767361
 10
49.69825846354166
 20
93.06133083767361
 10
50.02278645833333
 20
93.06133083767361
 10
50.02278645833333
 20
93.06133083767361
 10
50.02278645833333
 20
93.06133083767361
 10
49.40198025173611
 20
90.41584201388888
 10
49.40198025173611
 20
90.41584201388888
 10
49.40198025173611
 20
90.41584201388888
 10
49.03852267795138
 20
90.41584201388888
 10
49.03852267795138
 20
90.41584201388888
 10
49.03852267795138
 20
90.41584201388888
 10
48.68608940972221
 20
92.21108127170137
 10
48.68608940972221
 20
92.21108127170137
 10
48.65060492621527
 20
92.38402506510415
 10
48.62958984375
 20
92.56041395399305
 10
48.60823025173611
 20
92.84980197482638
 10
48.60823025173611
 20
92.84980197482638
 10
48.60134006076388
 20
92.84980197482638
 10
48.60134006076388
 20
92.84980197482638
 10
48.57653537326389
 20
92.59555392795139
 10
48.5555202907986
 20
92.40159505208332
 10
48.51659071180555
 20
92.21108127170137
 10
48.51659071180555
 20
92.21108127170137
 10
48.13211805555555
 20
90.41584201388888
 10
48.13211805555555
 20
90.41584201388888
 97
        0
 75
     0
 76
     1
 98
        1
 10
0.0
 20
0.0
  0
HATCH
  5
34
330
A
100
AcDbEntity
  8
LAYER_1
 62
     7
100
AcDbHatch
 10
0.0
 20
0.0
 30
0.0
210
0.0
220
0.0
230
1.0
  2
SOLID
 70
     1
 71
     0
 91
        1
 92
        1
 93
        1
 72
     4
 94
        3
 73
     0
 74
     0
 95
       53
 96
       49
 40
0.0
 40
0.0
 40
0.0
 40
0.0
 40
1.0
 40
1.0
 40
1.0
 40
2.0
 40
2.0
 40
2.0
 40
3.0
 40
3.0
 40
3.0
 40
4.0
 40
4.0
 40
4.0
 40
5.0
 40
5.0
 40
5.0
 40
6.0
 40
6.0
 40
6.0
 40
7.0
 40
7.0
 40
7.0
 40
8.0
 40
8.0
 40
8.0
 40
9.0
 40
9.0
 40
9.0
 40
10.0
 40
10.0
 40
10.0
 40
11.0
 40
11.0
 40
11.0
 40
12.0
 40
12.0
 40
12.0
 40
13.0
 40
13.0
 40
13.0
 40
14.0
 40
14.0
 40
14.0
 40
15.0
 40
15.0
 40
15.0
 40
16.0
 40
16.0
 40
16.0
 40
16.0
 10
51.67298719618055
 20
93.06133083767361
 10
51.67298719618055
 20
93.06133083767361
 10
51.96582031249999
 20
93.06133083767361
 10
51.96582031249999
 20
93.06133083767361
 10
51.96582031249999
 20
93.06133083767361
 10
51.96582031249999
 20
90.41584201388888
 10
51.96582031249999
 20
90.41584201388888
 10
51.96582031249999
 20
90.41584201388888
 10
51.48626302083333
 20
90.41584201388888
 10
51.48626302083333
 20
90.41584201388888
 10
51.48626302083333
 20
90.41584201388888
 10
50.74556749131944
 20
92.53216417100694
 10
50.74556749131944
 20
92.53216417100694
 10
50.70319281684027
 20
92.6520534939236
 10
50.67149793836805
 20
92.77194281684027
 10
50.64669325086805
 20
92.93076171874999
 10
50.64669325086805
 20
92.93076171874999
 10
50.63980305989583
 20
92.93076171874999
 10
50.63980305989583
 20
92.93076171874999
 10
50.64324815538194
 20
92.79674750434027
 10
50.64669325086805
 20
92.65928819444444
 10
50.64669325086805
 20
92.52527398003471
 10
50.64669325086805
 20
92.52527398003471
 10
50.64669325086805
 20
90.41584201388888
 10
50.64669325086805
 20
90.41584201388888
 10
50.64669325086805
 20
90.41584201388888
 10
50.3538601345486
 20
90.41584201388888
 10
50.3538601345486
 20
90.41584201388888
 10
50.3538601345486
 20
90.41584201388888
 10
50.3538601345486
 20
93.06133083767361
 10
50.3538601345486
 20
93.06133083767361
 10
50.3538601345486
 20
93.06133083767361
 10
50.82997233072916
 20
93.06133083767361
 10
50.82997233072916
 20
93.06133083767361
 10
50.82997233072916
 20
93.06133083767361
 10
51.58134765625
 20
90.89574381510415
 10
51.58134765625
 20
90.89574381510415
 10
51.61304253472222
 20
90.81443956163194
 10
51.63784722222222
 20
90.7296902126736
 10
51.67298719618055
 20
90.60635579427083
 10
51.67298719618055
 20
90.60635579427083
 10
51.68022189670138
 20
90.60635579427083
 10
51.68022189670138
 20
90.60635579427083
 10
51.67677680121528
 20
90.70178493923611
 10
51.67298719618055
 20
90.8041042751736
 10
51.67298719618055
 20
90.90263400607638
 10
51.67298719618055
 20
90.90263400607638
 10
51.67298719618055
 20
93.06133083767361
 10
51.67298719618055
 20
93.06133083767361
 97
        0
 75
     0
 76
     1
 98
        1
 10
0.0
 20
0.0
  0
HATCH
  5
33
330
A
100
AcDbEntity
  8
LAYER_1
 62
     7
100
AcDbHatch
 10
0.0
 20
0.0
 30
0.0
210
0.0
220
0.0
230
1.0
  2
SOLID
 70
     1
 71
     0
 91
        1
 92
        1
 93
        1
 72
     4
 94
        3
 73
     0
 74
     0
 95
       23
 96
       19
 40
0.0
 40
0.0
 40
0.0
 40
0.0
 40
1.0
 40
1.0
 40
1.0
 40
2.0
 40
2.0
 40
2.0
 40
3.0
 40
3.0
 40
3.0
 40
4.0
 40
4.0
 40
4.0
 40
5.0
 40
5.0
 40
5.0
 40
6.0
 40
6.0
 40
6.0
 40
6.0
 10
52.41023763020833
 20
89.65757649739582
 10
52.56871202256944
 20
89.9855495876736
 10
52.84742024739583
 20
90.44409179687499
 10
52.84742024739583
 20
91.3436062282986
 10
52.84742024739583
 20
91.99266221788194
 10
52.72408582899305
 20
92.4970241970486
 10
52.39232313368055
 20
93.06133083767361
 10
52.39232313368055
 20
93.06133083767361
 10
52.59696180555555
 20
93.06133083767361
 10
52.59696180555555
 20
93.06133083767361
 10
52.914599609375
 20
92.54284396701388
 10
53.14369845920138
 20
92.00299750434027
 10
53.14369845920138
 20
91.38598090277777
 10
53.14369845920138
 20
90.69110514322915
 10
52.95697428385416
 20
90.24324273003471
 10
52.59696180555555
 20
89.65757649739582
 10
52.59696180555555
 20
89.65757649739582
 10
52.41023763020833
 20
89.65757649739582
 10
52.41023763020833
 20
89.65757649739582
 97
        0
 75
     0
 76
     1
 98
        1
 10
0.0
 20
0.0
  0
HATCH
  5
32
330
A
100
AcDbEntity
  8
LAYER_1
 62
     7
100
AcDbHatch
 10
0.0
 20
0.0
 30
0.0
210
0.0
220
0.0
230
1.0
  2
SOLID
 70
     1
 71
     0
 91
        1
 92
        1
 93
        1
 72
     4
 94
        3
 73
     0
 74
     0
 95
       56
 96
       52
 40
0.0
 40
0.0
 40
0.0
 40
0.0
 40
1.0
 40
1.0
 40
1.0
 40
2.0
 40
2.0
 40
2.0
 40
3.0
 40
3.0
 40
3.0
 40
4.0
 40
4.0
 40
4.0
 40
5.0
 40
5.0
 40
5.0
 40
6.0
 40
6.0
 40
6.0
 40
7.0
 40
7.0
 40
7.0
 40
8.0
 40
8.0
 40
8.0
 40
9.0
 40
9.0
 40
9.0
 40
10.0
 40
10.0
 40
10.0
 40
11.0
 40
11.0
 40
11.0
 40
12.0
 40
12.0
 40
12.0
 40
13.0
 40
13.0
 40
13.0
 40
14.0
 40
14.0
 40
14.0
 40
15.0
 40
15.0
 40
15.0
 40
16.0
 40
16.0
 40
16.0
 40
17.0
 40
17.0
 40
17.0
 40
17.0
 10
85.47454155815971
 20
135.8780110677083
 10
85.43767903645832
 20
136.0619791666667
 10
85.30263129340277
 20
136.1711886935764
 10
85.11073947482637
 20
136.1171006944445
 10
84.83134223090278
 20
136.0385525173611
 10
84.85063476562499
 20
135.8545844184028
 10
84.88818630642361
 20
135.7205702039931
 10
84.9219482421875
 20
135.6003363715278
 10
84.99567328559027
 20
135.5414252387153
 10
85.11831868489583
 20
135.5310899522569
 10
85.22063802083332
 20
135.5224772135417
 10
85.32020128038194
 20
135.5131754557291
 10
85.42252061631943
 20
135.5042182074653
 10
85.78494466145833
 20
135.4739013671875
 10
85.87761773003471
 20
135.3753716362847
 10
85.94169650607638
 20
135.1466172960069
 10
86.03402506510416
 20
134.8186442057292
 10
85.88209635416666
 20
134.5692192925347
 10
85.54964463975693
 20
134.4755126953125
 10
85.37842339409721
 20
134.4276258680555
 10
85.16172688802082
 20
134.4190131293403
 10
84.99877387152777
 20
134.6174506293403
 10
84.93779568142361
 20
134.6925537109375
 10
84.90093315972221
 20
134.8317355685764
 10
84.87268337673611
 20
134.9237196180555
 10
84.87268337673611
 20
134.9237196180555
 10
85.06457519531249
 20
134.9774631076389
 10
85.06457519531249
 20
134.9774631076389
 10
85.12727593315971
 20
134.7183919270833
 10
85.22132703993054
 20
134.5702528211805
 10
85.51002604166666
 20
134.6515570746528
 10
85.70398491753471
 20
134.7059895833333
 10
85.81250542534721
 20
134.8437934027778
 10
85.75531684027777
 20
135.0470540364583
 10
85.68124728732639
 20
135.3102593315972
 10
85.57444932725694
 20
135.2826985677083
 10
85.38014594184027
 20
135.3002685546875
 10
85.27507052951388
 20
135.3109483506945
 10
85.10901692708333
 20
135.3164605034722
 10
85.0029079861111
 20
135.3388536241319
 10
84.81549479166667
 20
135.3760606553819
 10
84.73487955729166
 20
135.5031846788194
 10
84.68699273003472
 20
135.6740614149306
 10
84.60637749565971
 20
135.9603488498264
 10
84.7548611111111
 20
136.2039171006944
 10
85.03666992187499
 20
136.283154296875
 10
85.35327419704861
 20
136.3720377604167
 10
85.59339735243054
 20
136.2628282335069
 10
85.66643337673611
 20
135.9317545572916
 10
85.66643337673611
 20
135.9317545572916
 10
85.47454155815971
 20
135.8780110677083
 10
85.47454155815971
 20
135.8780110677083
 97
        0
 75
     0
 76
     1
 98
        1
 10
0.0
 20
0.0
  0
HATCH
  5
31
330
A
100
AcDbEntity
  8
LAYER_1
 62
     7
100
AcDbHatch
 10
0.0
 20
0.0
 30
0.0
210
0.0
220
0.0
230
1.0
  2
SOLID
 70
     1
 71
     0
 91
        1
 92
        1
 93
        1
 72
     4
 94
        3
 73
     0
 74
     0
 95
       17
 96
       13
 40
0.0
 40
0.0
 40
0.0
 40
0.0
 40
1.0
 40
1.0
 40
1.0
 40
2.0
 40
2.0
 40
2.0
 40
3.0
 40
3.0
 40
3.0
 40
4.0
 40
4.0
 40
4.0
 40
4.0
 10
86.61693522135415
 20
134.8203667534722
 10
86.61693522135415
 20
134.8203667534722
 10
86.13014322916666
 20
136.5529052734375
 10
86.13014322916666
 20
136.5529052734375
 10
86.13014322916666
 20
136.5529052734375
 10
86.32169053819443
 20
136.6069932725694
 10
86.32169053819443
 20
136.6069932725694
 10
86.32169053819443
 20
136.6069932725694
 10
86.80848253038194
 20
134.8744547526042
 10
86.80848253038194
 20
134.8744547526042
 10
86.80848253038194
 20
134.8744547526042
 10
86.61693522135415
 20
134.8203667534722
 10
86.61693522135415
 20
134.8203667534722
 97
        0
 75
     0
 76
     1
 98
        1
 10
0.0
 20
0.0
  0
HATCH
  5
30
330
A
100
AcDbEntity
  8
LAYER_1
 62
     7
100
AcDbHatch
 10
0.0
 20
0.0
 30
0.0
210
0.0
220
0.0
230
1.0
  2
SOLID
 70
     1
 71
     0
 91
        1
 92
        1
 93
        1
 72
     4
 94
        3
 73
     0
 74
     0
 95
       71
 96
       67
 40
0.0
 40
0.0
 40
0.0
 40
0.0
 40
1.0
 40
1.0
 40
1.0
 40
2.0
 40
2.0
 40
2.0
 40
3.0
 40
3.0
 40
3.0
 40
4.0
 40
4.0
 40
4.0
 40
5.0
 40
5.0
 40
5.0
 40
6.0
 40
6.0
 40
6.0
 40
7.0
 40
7.0
 40
7.0
 40
8.0
 40
8.0
 40
8.0
 40
9.0
 40
9.0
 40
9.0
 40
10.0
 40
10.0
 40
10.0
 40
11.0
 40
11.0
 40
11.0
 40
12.0
 40
12.0
 40
12.0
 40
13.0
 40
13.0
 40
13.0
 40
14.0
 40
14.0
 40
14.0
 40
15.0
 40
15.0
 40
15.0
 40
16.0
 40
16.0
 40
16.0
 40
17.0
 40
17.0
 40
17.0
 40
18.0
 40
18.0
 40
18.0
 40
19.0
 40
19.0
 40
19.0
 40
20.0
 40
20.0
 40
20.0
 40
21.0
 40
21.0
 40
21.0
 40
22.0
 40
22.0
 40
22.0
 40
22.0
 10
88.02632378472221
 20
137.0858615451389
 10
88.02632378472221
 20
137.0858615451389
 10
88.3635986328125
 20
137.1806016710069
 10
88.3635986328125
 20
137.1806016710069
 10
88.3635986328125
 20
137.1806016710069
 10
88.85039062499999
 20
135.4480631510417
 10
88.85039062499999
 20
135.4480631510417
 10
88.85039062499999
 20
135.4480631510417
 10
88.65884331597222
 20
135.3943196614583
 10
88.65884331597222
 20
135.3943196614583
 10
88.65884331597222
 20
135.3943196614583
 10
88.25748969184026
 20
136.8219672309028
 10
88.25748969184026
 20
136.8219672309028
 10
88.23681911892361
 20
136.8956922743055
 10
88.22131618923611
 20
136.9687282986111
 10
88.19616699218749
 20
137.041419813368
 10
88.19616699218749
 20
137.041419813368
 10
88.19134385850694
 20
137.0400417751736
 10
88.19134385850694
 20
137.0400417751736
 10
88.19926757812499
 20
136.9325547960069
 10
88.20099012586805
 20
136.8633083767361
 10
88.20374620225694
 20
136.791650390625
 10
88.20374620225694
 20
136.791650390625
 10
88.23819715711805
 20
135.2761528862847
 10
88.23819715711805
 20
135.2761528862847
 10
88.23819715711805
 20
135.2761528862847
 10
88.00978732638887
 20
135.2117296006944
 10
88.00978732638887
 20
135.2117296006944
 10
88.00978732638887
 20
135.2117296006944
 10
87.24394259982638
 20
136.5446370442708
 10
87.24394259982638
 20
136.5446370442708
 10
87.21086968315971
 20
136.6001030815972
 10
87.18055284288194
 20
136.6538465711805
 10
87.13335503472221
 20
136.7427300347222
 10
87.13335503472221
 20
136.7427300347222
 10
87.12887641059027
 20
136.7413519965278
 10
87.12887641059027
 20
136.7413519965278
 10
87.14954698350694
 20
136.667626953125
 10
87.17538519965277
 20
136.5925238715278
 10
87.19640028211805
 20
136.518798828125
 10
87.19640028211805
 20
136.518798828125
 10
87.59603135850693
 20
135.0956298828125
 10
87.59603135850693
 20
135.0956298828125
 10
87.59603135850693
 20
135.0956298828125
 10
87.40448404947917
 20
135.0418863932292
 10
87.40448404947917
 20
135.0418863932292
 10
87.40448404947917
 20
135.0418863932292
 10
86.91769205729166
 20
136.7744249131944
 10
86.91769205729166
 20
136.7744249131944
 10
86.91769205729166
 20
136.7744249131944
 10
87.2570339626736
 20
136.8698540581597
 10
87.2570339626736
 20
136.8698540581597
 10
87.2570339626736
 20
136.8698540581597
 10
87.97636990017361
 20
135.6137722439236
 10
87.97636990017361
 20
135.6137722439236
 10
88.01564398871527
 20
135.5448703342014
 10
88.04492730034721
 20
135.4759684244792
 10
88.08557942708333
 20
135.3677924262153
 10
88.08557942708333
 20
135.3677924262153
 10
88.09005805121527
 20
135.3688259548611
 10
88.09005805121527
 20
135.3688259548611
 10
88.07696668836805
 20
135.460120985243
 10
88.06456434461805
 20
135.5486599392361
 10
88.06146375868055
 20
135.639954969618
 10
88.06146375868055
 20
135.639954969618
 10
88.02632378472221
 20
137.0858615451389
 10
88.02632378472221
 20
137.0858615451389
 97
        0
 75
     0
 76
     1
 98
        1
 10
0.0
 20
0.0
  0
HATCH
  5
2F
330
A
100
AcDbEntity
  8
LAYER_1
 62
     7
100
AcDbHatch
 10
0.0
 20
0.0
 30
0.0
210
0.0
220
0.0
230
1.0
  2
SOLID
 70
     1
 71
     0
 91
        2
 92
       16
 93
        1
 72
     4
 94
        3
 73
     0
 74
     0
 95
       20
 96
       16
 40
0.0
 40
0.0
 40
0.0
 40
0.0
 40
1.0
 40
1.0
 40
1.0
 40
2.0
 40
2.0
 40
2.0
 40
3.0
 40
3.0
 40
3.0
 40
4.0
 40
4.0
 40
4.0
 40
5.0
 40
5.0
 40
5.0
 40
5.0
 10
89.35785319010415
 20
136.570130750868
 10
89.35785319010415
 20
136.570130750868
 10
89.54492187499999
 20
136.6228407118055
 10
89.54492187499999
 20
136.6228407118055
 10
89.80778266059026
 20
136.6989773220486
 10
89.95902235243055
 20
136.7813151041667
 10
89.87289496527777
 20
137.078626844618
 10
89.79434678819443
 20
137.3583685980903
 10
89.60555555555555
 20
137.3476888020833
 10
89.37370062934026
 20
137.2774088541667
 10
89.37370062934026
 20
137.2774088541667
 10
89.17491861979165
 20
137.2215983072917
 10
89.17491861979165
 20
137.2215983072917
 10
89.17491861979165
 20
137.2215983072917
 10
89.35785319010415
 20
136.570130750868
 10
89.35785319010415
 20
136.570130750868
 97
        0
 92
        1
 93
        1
 72
     4
 94
        3
 73
     0
 74
     0
 95
       32
 96
       28
 40
0.0
 40
0.0
 40
0.0
 40
0.0
 40
1.0
 40
1.0
 40
1.0
 40
2.0
 40
2.0
 40
2.0
 40
3.0
 40
3.0
 40
3.0
 40
4.0
 40
4.0
 40
4.0
 40
5.0
 40
5.0
 40
5.0
 40
6.0
 40
6.0
 40
6.0
 40
7.0
 40
7.0
 40
7.0
 40
8.0
 40
8.0
 40
8.0
 40
9.0
 40
9.0
 40
9.0
 40
9.0
 10
89.4212429470486
 20
135.6082600911458
 10
89.4212429470486
 20
135.6082600911458
 10
88.93445095486111
 20
137.3411431206597
 10
88.93445095486111
 20
137.3411431206597
 10
88.93445095486111
 20
137.3411431206597
 10
89.38954806857637
 20
137.4689561631944
 10
89.38954806857637
 20
137.4689561631944
 10
89.52356228298611
 20
137.506507703993
 10
89.6968505859375
 20
137.5378580729167
 10
89.82569715711804
 20
137.469300672743
 10
89.95695529513888
 20
137.4014322916667
 10
90.03136935763888
 20
137.2777533637153
 10
90.07029893663194
 20
137.1392605251736
 10
90.12438693576388
 20
136.9473687065972
 10
90.11921929253471
 20
136.7441080729167
 10
89.95592176649305
 20
136.6059597439236
 10
89.85015733506944
 20
136.5215549045139
 10
89.6537868923611
 20
136.4664333767361
 10
89.52218424479166
 20
136.4295708550347
 10
89.52218424479166
 20
136.4295708550347
 10
89.40642903645832
 20
136.3968424479166
 10
89.40642903645832
 20
136.3968424479166
 10
89.40642903645832
 20
136.3968424479166
 10
89.61279025607638
 20
135.6623480902778
 10
89.61279025607638
 20
135.6623480902778
 10
89.61279025607638
 20
135.6623480902778
 10
89.4212429470486
 20
135.6082600911458
 10
89.4212429470486
 20
135.6082600911458
 97
        0
 75
     0
 76
     1
 98
        1
 10
0.0
 20
0.0
  0
HATCH
  5
2E
330
A
100
AcDbEntity
  8
LAYER_1
 62
     7
100
AcDbHatch
 10
0.0
 20
0.0
 30
0.0
210
0.0
220
0.0
230
1.0
  2
SOLID
 70
     1
 71
     0
 91
        1
 92
        1
 93
        1
 72
     4
 94
        3
 73
     0
 74
     0
 95
       56
 96
       52
 40
0.0
 40
0.0
 40
0.0
 40
0.0
 40
1.0
 40
1.0
 40
1.0
 40
2.0
 40
2.0
 40
2.0
 40
3.0
 40
3.0
 40
3.0
 40
4.0
 40
4.0
 40
4.0
 40
5.0
 40
5.0
 40
5.0
 40
6.0
 40
6.0
 40
6.0
 40
7.0
 40
7.0
 40
7.0
 40
8.0
 40
8.0
 40
8.0
 40
9.0
 40
9.0
 40
9.0
 40
10.0
 40
10.0
 40
10.0
 40
11.0
 40
11.0
 40
11.0
 40
12.0
 40
12.0
 40
12.0
 40
13.0
 40
13.0
 40
13.0
 40
14.0
 40
14.0
 40
14.0
 40
15.0
 40
15.0
 40
15.0
 40
16.0
 40
16.0
 40
16.0
 40
17.0
 40
17.0
 40
17.0
 40
17.0
 10
91.26884765624999
 20
137.5058186848958
 10
91.23198513454861
 20
137.6897867838542
 10
91.09659288194443
 20
137.7989963107639
 10
90.90470106336805
 20
137.7452528211805
 10
90.62530381944444
 20
137.6667046440972
 10
90.64459635416665
 20
137.4823920355903
 10
90.68214789496527
 20
137.3487223307292
 10
90.71590983072916
 20
137.2284884982639
 10
90.78997938368055
 20
137.1695773654514
 10
90.91228027343749
 20
137.1588975694444
 10
91.014599609375
 20
137.1502848307292
 10
91.11450737847221
 20
137.1409830729166
 10
91.21648220486111
 20
137.1323703342014
 10
91.57890624999999
 20
137.1020534939236
 10
91.67157931857638
 20
137.0035237630208
 10
91.73600260416666
 20
136.7747694227431
 10
91.82798665364582
 20
136.4464518229167
 10
91.67605794270833
 20
136.1970269097222
 10
91.3436062282986
 20
136.1036648220486
 10
91.17272949218749
 20
136.0557779947916
 10
90.95568847656249
 20
136.0471652560764
 10
90.79273546006944
 20
136.2456027560764
 10
90.73175726996527
 20
136.3207058376736
 10
90.69523925781249
 20
136.4598876953125
 10
90.66698947482638
 20
136.551527235243
 10
90.66698947482638
 20
136.551527235243
 10
90.85853678385416
 20
136.605615234375
 10
90.85853678385416
 20
136.605615234375
 10
90.92123752170139
 20
136.3465440538194
 10
91.01528862847222
 20
136.1984049479167
 10
91.30398763020833
 20
136.2793646918403
 10
91.49829101562499
 20
136.3341417100695
 10
91.60646701388887
 20
136.4716010199653
 10
91.54962293836805
 20
136.6748616536458
 10
91.47555338541666
 20
136.9384114583333
 10
91.36841091579861
 20
136.9108506944444
 10
91.17410753038193
 20
136.9284206814236
 10
91.06903211805555
 20
136.938755967882
 10
90.90297851562499
 20
136.9442681206597
 10
90.79686957465277
 20
136.9670057508681
 10
90.60945638020833
 20
137.004212782118
 10
90.52884114583333
 20
137.1309922960069
 10
90.48095431857638
 20
137.3018690321181
 10
90.40033908420138
 20
137.5885009765625
 10
90.54882269965277
 20
137.8320692274305
 10
90.83063151041665
 20
137.9113064236111
 10
91.14723578559027
 20
138.0001898871528
 10
91.38735894097222
 20
137.8906358506944
 10
91.46039496527777
 20
137.5599066840278
 10
91.46039496527777
 20
137.5599066840278
 10
91.26884765624999
 20
137.5058186848958
 10
91.26884765624999
 20
137.5058186848958
 97
        0
 75
     0
 76
     1
 98
        1
 10
0.0
 20
0.0
  0
HATCH
  5
2D
330
A
100
AcDbEntity
  8
LAYER_1
 62
     7
100
AcDbHatch
 10
0.0
 20
0.0
 30
0.0
210
0.0
220
0.0
230
1.0
  2
SOLID
 70
     1
 71
     0
 91
        2
 92
       16
 93
        1
 72
     4
 94
        3
 73
     0
 74
     0
 95
       17
 96
       13
 40
0.0
 40
0.0
 40
0.0
 40
0.0
 40
1.0
 40
1.0
 40
1.0
 40
2.0
 40
2.0
 40
2.0
 40
3.0
 40
3.0
 40
3.0
 40
4.0
 40
4.0
 40
4.0
 40
4.0
 10
92.43880208333333
 20
138.1762342664931
 10
92.14321289062499
 20
138.0932074652778
 10
92.15630425347221
 20
137.7628228081597
 10
92.26689181857638
 20
137.3776611328125
 10
92.41020779079861
 20
136.876744249132
 10
92.53560926649304
 20
136.6255967881944
 10
92.85428059895833
 20
136.7151692708333
 10
93.17329644097221
 20
136.8047417534722
 10
93.14952528211805
 20
137.0844835069444
 10
93.01068793402777
 20
137.5864339192708
 10
92.90457899305555
 20
137.9729736328125
 10
92.74369303385416
 20
138.2620171440972
 10
92.43880208333333
 20
138.1762342664931
 97
        0
 92
        1
 93
        1
 72
     4
 94
        3
 73
     0
 74
     0
 95
       17
 96
       13
 40
0.0
 40
0.0
 40
0.0
 40
0.0
 40
1.0
 40
1.0
 40
1.0
 40
2.0
 40
2.0
 40
2.0
 40
3.0
 40
3.0
 40
3.0
 40
4.0
 40
4.0
 40
4.0
 40
4.0
 10
92.39952799479165
 20
138.3519341362847
 10
92.90561252170139
 20
138.4942165798611
 10
93.09888237847221
 20
138.0449761284722
 10
93.20809190538193
 20
137.6470675998264
 10
93.34107259114583
 20
137.1657877604167
 10
93.40894097222221
 20
136.6838189019097
 10
92.90320095486111
 20
136.5418809678819
 10
92.39711642795137
 20
136.3995985243055
 10
92.20660264756944
 20
136.8471164279514
 10
92.06707628038194
 20
137.3263292100695
 10
91.95545518663194
 20
137.7238932291667
 10
91.88414171006944
 20
138.2072401258681
 10
92.39952799479165
 20
138.3519341362847
 97
        0
 75
     0
 76
     1
 98
        1
 10
0.0
 20
0.0
  0
HATCH
  5
2C
330
A
100
AcDbEntity
  8
LAYER_1
 62
     7
100
AcDbHatch
 10
0.0
 20
0.0
 30
0.0
210
0.0
220
0.0
230
1.0
  2
SOLID
 70
     1
 71
     0
 91
        1
 92
        1
 93
        1
 72
     4
 94
        3
 73
     0
 74
     0
 95
       53
 96
       49
 40
0.0
 40
0.0
 40
0.0
 40
0.0
 40
1.0
 40
1.0
 40
1.0
 40
2.0
 40
2.0
 40
2.0
 40
3.0
 40
3.0
 40
3.0
 40
4.0
 40
4.0
 40
4.0
 40
5.0
 40
5.0
 40
5.0
 40
6.0
 40
6.0
 40
6.0
 40
7.0
 40
7.0
 40
7.0
 40
8.0
 40
8.0
 40
8.0
 40
9.0
 40
9.0
 40
9.0
 40
10.0
 40
10.0
 40
10.0
 40
11.0
 40
11.0
 40
11.0
 40
12.0
 40
12.0
 40
12.0
 40
13.0
 40
13.0
 40
13.0
 40
14.0
 40
14.0
 40
14.0
 40
15.0
 40
15.0
 40
15.0
 40
16.0
 40
16.0
 40
16.0
 40
16.0
 10
94.34738498263889
 20
138.8618082682291
 10
94.34738498263889
 20
138.8618082682291
 10
94.53927680121527
 20
138.9158962673611
 10
94.53927680121527
 20
138.9158962673611
 10
94.53927680121527
 20
138.9158962673611
 10
95.02606879340277
 20
137.1833577473958
 10
95.02606879340277
 20
137.1833577473958
 10
95.02606879340277
 20
137.1833577473958
 10
94.71187608506943
 20
137.0948187934028
 10
94.71187608506943
 20
137.0948187934028
 10
94.71187608506943
 20
137.0948187934028
 10
93.83716634114583
 20
138.3446994357639
 10
93.83716634114583
 20
138.3446994357639
 10
93.78755696614583
 20
138.4153238932292
 10
93.74449327256944
 20
138.4883599175347
 10
93.69936252170137
 20
138.5875786675347
 10
93.69936252170137
 20
138.5875786675347
 10
93.69453938802083
 20
138.5862006293403
 10
93.69453938802083
 20
138.5862006293403
 10
93.72141113281249
 20
138.4990397135417
 10
93.74931640624999
 20
138.4098117404514
 10
93.77377658420139
 20
138.3219618055555
 10
93.77377658420139
 20
138.3219618055555
 10
94.16203884548611
 20
136.940478515625
 10
94.16203884548611
 20
136.940478515625
 10
94.16203884548611
 20
136.940478515625
 10
93.97014702690971
 20
136.8867350260417
 10
93.97014702690971
 20
136.8867350260417
 10
93.97014702690971
 20
136.8867350260417
 10
93.48335503472221
 20
138.6192735460069
 10
93.48335503472221
 20
138.6192735460069
 10
93.48335503472221
 20
138.6192735460069
 10
93.79548068576388
 20
138.7067789713541
 10
93.79548068576388
 20
138.7067789713541
 10
93.79548068576388
 20
138.7067789713541
 10
94.68603786892361
 20
137.4265814887153
 10
94.68603786892361
 20
137.4265814887153
 10
94.72152235243054
 20
137.3793836805556
 10
94.75356174045137
 20
137.3283962673611
 10
94.79938151041665
 20
137.2539822048611
 10
94.79938151041665
 20
137.2539822048611
 10
94.8038601345486
 20
137.2553602430556
 10
94.8038601345486
 20
137.2553602430556
 10
94.78387858072915
 20
137.3170274522569
 10
94.76286349826388
 20
137.3835177951389
 10
94.74460449218749
 20
137.4482855902778
 10
94.74460449218749
 20
137.4482855902778
 10
94.34738498263889
 20
138.8618082682291
 10
94.34738498263889
 20
138.8618082682291
 97
        0
 75
     0
 76
     1
 98
        1
 10
0.0
 20
0.0
  0
HATCH
  5
2B
330
A
100
AcDbEntity
  8
LAYER_1
 62
     7
100
AcDbHatch
 10
0.0
 20
0.0
 30
0.0
210
0.0
220
0.0
230
1.0
  2
SOLID
 70
     1
 71
     0
 91
        1
 92
        1
 93
        1
 72
     4
 94
        3
 73
     0
 74
     0
 95
       56
 96
       52
 40
0.0
 40
0.0
 40
0.0
 40
0.0
 40
1.0
 40
1.0
 40
1.0
 40
2.0
 40
2.0
 40
2.0
 40
3.0
 40
3.0
 40
3.0
 40
4.0
 40
4.0
 40
4.0
 40
5.0
 40
5.0
 40
5.0
 40
6.0
 40
6.0
 40
6.0
 40
7.0
 40
7.0
 40
7.0
 40
8.0
 40
8.0
 40
8.0
 40
9.0
 40
9.0
 40
9.0
 40
10.0
 40
10.0
 40
10.0
 40
11.0
 40
11.0
 40
11.0
 40
12.0
 40
12.0
 40
12.0
 40
13.0
 40
13.0
 40
13.0
 40
14.0
 40
14.0
 40
14.0
 40
15.0
 40
15.0
 40
15.0
 40
16.0
 40
16.0
 40
16.0
 40
17.0
 40
17.0
 40
17.0
 40
17.0
 10
86.09672580295138
 20
133.6631591796875
 10
86.0602077907986
 20
133.8474717881944
 10
85.92481553819444
 20
133.9563368055555
 10
85.73292371961804
 20
133.9025933159722
 10
85.45352647569443
 20
133.8240451388889
 10
85.47281901041666
 20
133.6400770399305
 10
85.51037055121527
 20
133.5060628255208
 10
85.54413248697917
 20
133.3858289930556
 10
85.61820203993055
 20
133.326917860243
 10
85.74050292968749
 20
133.3165825737847
 10
85.84282226562499
 20
133.3076253255208
 10
85.94273003472222
 20
133.2986680772569
 10
86.0447048611111
 20
133.289710828993
 10
86.40712890624999
 20
133.2593939887153
 10
86.49980197482638
 20
133.1608642578125
 10
86.56388075086805
 20
132.9321099175347
 10
86.65620930989583
 20
132.6041368272569
 10
86.50428059895833
 20
132.3547119140625
 10
86.1718288845486
 20
132.2610053168403
 10
86.00095214843749
 20
132.2131184895833
 10
85.78391113281249
 20
132.204505750868
 10
85.62095811631944
 20
132.4029432508681
 10
85.55997992621526
 20
132.4780463324653
 10
85.52311740451388
 20
132.6172281901042
 10
85.49486762152777
 20
132.7092122395833
 10
85.49486762152777
 20
132.7092122395833
 10
85.68675944010415
 20
132.7629557291667
 10
85.68675944010415
 20
132.7629557291667
 10
85.74946017795138
 20
132.5038845486111
 10
85.84351128472221
 20
132.3557454427083
 10
86.13221028645833
 20
132.4370496961805
 10
86.32616916232638
 20
132.4914822048611
 10
86.43468967013888
 20
132.6292860243055
 10
86.37750108506944
 20
132.8325466579861
 10
86.30377604166667
 20
133.095751953125
 10
86.1966335720486
 20
133.0681911892361
 10
86.00233018663194
 20
133.0861056857639
 10
85.89725477430555
 20
133.0960964626736
 10
85.73120117187499
 20
133.101953125
 10
85.62509223090277
 20
133.1246907552083
 10
85.43767903645832
 20
133.1615532769097
 10
85.35706380208333
 20
133.2886773003472
 10
85.30917697482639
 20
133.4595540364583
 10
85.22856174045138
 20
133.7458414713542
 10
85.37704535590277
 20
133.9897542317708
 10
85.65885416666666
 20
134.0686469184028
 10
85.97545844184027
 20
134.1575303819444
 10
86.21558159722221
 20
134.0483208550347
 10
86.28861762152776
 20
133.7172471788194
 10
86.28861762152776
 20
133.7172471788194
 10
86.09672580295138
 20
133.6631591796875
 10
86.09672580295138
 20
133.6631591796875
 97
        0
 75
     0
 76
     1
 98
        1
 10
0.0
 20
0.0
  0
HATCH
  5
2A
330
A
100
AcDbEntity
  8
LAYER_1
 62
     7
100
AcDbHatch
 10
0.0
 20
0.0
 30
0.0
210
0.0
220
0.0
230
1.0
  2
SOLID
 70
     1
 71
     0
 91
        1
 92
        1
 93
        1
 72
     4
 94
        3
 73
     0
 74
     0
 95
       53
 96
       49
 40
0.0
 40
0.0
 40
0.0
 40
0.0
 40
1.0
 40
1.0
 40
1.0
 40
2.0
 40
2.0
 40
2.0
 40
3.0
 40
3.0
 40
3.0
 40
4.0
 40
4.0
 40
4.0
 40
5.0
 40
5.0
 40
5.0
 40
6.0
 40
6.0
 40
6.0
 40
7.0
 40
7.0
 40
7.0
 40
8.0
 40
8.0
 40
8.0
 40
9.0
 40
9.0
 40
9.0
 40
10.0
 40
10.0
 40
10.0
 40
11.0
 40
11.0
 40
11.0
 40
12.0
 40
12.0
 40
12.0
 40
13.0
 40
13.0
 40
13.0
 40
14.0
 40
14.0
 40
14.0
 40
15.0
 40
15.0
 40
15.0
 40
16.0
 40
16.0
 40
16.0
 40
16.0
 10
86.83432074652777
 20
133.8781331380208
 10
86.83432074652777
 20
133.8781331380208
 10
87.04895019531249
 20
133.9384223090278
 10
87.04895019531249
 20
133.9384223090278
 10
87.04895019531249
 20
133.9384223090278
 10
87.09270290798611
 20
133.7837375217014
 10
87.09270290798611
 20
133.7837375217014
 10
87.09270290798611
 20
133.7837375217014
 10
86.88014051649304
 20
133.723792860243
 10
86.88014051649304
 20
133.723792860243
 10
86.88014051649304
 20
133.723792860243
 10
87.12612033420137
 20
132.8483940972222
 10
87.12612033420137
 20
132.8483940972222
 10
87.13852267795139
 20
132.8046413845486
 10
87.13783365885416
 20
132.7443522135417
 10
87.23946397569443
 20
132.7729465060764
 10
87.23946397569443
 20
132.7729465060764
 10
87.36176486545138
 20
132.8073974609375
 10
87.36176486545138
 20
132.8073974609375
 10
87.36176486545138
 20
132.8073974609375
 10
87.40517306857637
 20
132.6527126736111
 10
87.40517306857637
 20
132.6527126736111
 10
87.40517306857637
 20
132.6527126736111
 10
87.2043240017361
 20
132.5962131076389
 10
87.2043240017361
 20
132.5962131076389
 10
87.09649251302082
 20
132.5634847005208
 10
87.01036512586805
 20
132.5590060763889
 10
86.95593261718749
 20
132.7533094618055
 10
86.95593261718749
 20
132.7533094618055
 10
86.69755045572916
 20
133.6728054470486
 10
86.69755045572916
 20
133.6728054470486
 10
86.69755045572916
 20
133.6728054470486
 10
86.51943901909722
 20
133.6225070529514
 10
86.51943901909722
 20
133.6225070529514
 10
86.51943901909722
 20
133.6225070529514
 10
86.47603081597221
 20
133.7775363498264
 10
86.47603081597221
 20
133.7775363498264
 10
86.47603081597221
 20
133.7775363498264
 10
86.65414225260416
 20
133.827490234375
 10
86.65414225260416
 20
133.827490234375
 10
86.65414225260416
 20
133.827490234375
 10
86.55595703124999
 20
134.1761338975694
 10
86.55595703124999
 20
134.1761338975694
 10
86.55595703124999
 20
134.1761338975694
 10
86.73613552517361
 20
134.2267768012153
 10
86.73613552517361
 20
134.2267768012153
 10
86.73613552517361
 20
134.2267768012153
 10
86.83432074652777
 20
133.8781331380208
 10
86.83432074652777
 20
133.8781331380208
 97
        0
 75
     0
 76
     1
 98
        1
 10
0.0
 20
0.0
  0
HATCH
  5
29
330
A
100
AcDbEntity
  8
LAYER_1
 62
     7
100
AcDbHatch
 10
0.0
 20
0.0
 30
0.0
210
0.0
220
0.0
230
1.0
  2
SOLID
 70
     1
 71
     0
 91
        1
 92
        1
 93
        1
 72
     4
 94
        3
 73
     0
 74
     0
 95
       32
 96
       28
 40
0.0
 40
0.0
 40
0.0
 40
0.0
 40
1.0
 40
1.0
 40
1.0
 40
2.0
 40
2.0
 40
2.0
 40
3.0
 40
3.0
 40
3.0
 40
4.0
 40
4.0
 40
4.0
 40
5.0
 40
5.0
 40
5.0
 40
6.0
 40
6.0
 40
6.0
 40
7.0
 40
7.0
 40
7.0
 40
8.0
 40
8.0
 40
8.0
 40
9.0
 40
9.0
 40
9.0
 40
9.0
 10
87.51920572916666
 20
133.8436821831597
 10
87.51920572916666
 20
133.8436821831597
 10
87.52368435329861
 20
133.8450602213542
 10
87.52368435329861
 20
133.8450602213542
 10
87.55262315538194
 20
134.0348849826389
 10
87.64116210937499
 20
134.1372043185764
 10
87.83718804253472
 20
134.174755859375
 10
87.83718804253472
 20
134.174755859375
 10
87.88783094618054
 20
133.9945773654514
 10
87.88783094618054
 20
133.9945773654514
 10
87.64081759982638
 20
133.9701171875
 10
87.54366590711805
 20
133.7830485026042
 10
87.60912272135415
 20
133.5498155381944
 10
87.60912272135415
 20
133.5498155381944
 10
87.82788628472221
 20
132.7712239583333
 10
87.82788628472221
 20
132.7712239583333
 10
87.82788628472221
 20
132.7712239583333
 10
87.64529622395833
 20
132.7198920355903
 10
87.64529622395833
 20
132.7198920355903
 10
87.64529622395833
 20
132.7198920355903
 10
87.28459472656249
 20
134.0045681423611
 10
87.28459472656249
 20
134.0045681423611
 10
87.28459472656249
 20
134.0045681423611
 10
87.45995008680555
 20
134.0538330078125
 10
87.45995008680555
 20
134.0538330078125
 10
87.45995008680555
 20
134.0538330078125
 10
87.51920572916666
 20
133.8436821831597
 10
87.51920572916666
 20
133.8436821831597
 97
        0
 75
     0
 76
     1
 98
        1
 10
0.0
 20
0.0
  0
HATCH
  5
28
330
A
100
AcDbEntity
  8
LAYER_1
 62
     7
100
AcDbHatch
 10
0.0
 20
0.0
 30
0.0
210
0.0
220
0.0
230
1.0
  2
SOLID
 70
     1
 71
     0
 91
        2
 92
       16
 93
        1
 72
     4
 94
        3
 73
     0
 74
     0
 95
       17
 96
       13
 40
0.0
 40
0.0
 40
0.0
 40
0.0
 40
1.0
 40
1.0
 40
1.0
 40
2.0
 40
2.0
 40
2.0
 40
3.0
 40
3.0
 40
3.0
 40
4.0
 40
4.0
 40
4.0
 40
4.0
 10
88.47763129340277
 20
134.210240342882
 10
88.29056260850693
 20
134.1575303819444
 10
88.24887695312499
 20
133.9863091362847
 10
88.3577419704861
 20
133.5983913845486
 10
88.44283582899305
 20
133.2955674913195
 10
88.55859103732638
 20
133.1060872395833
 10
88.77080891927082
 20
133.1660319010417
 10
88.98819444444443
 20
133.2270100911458
 10
88.98337131076389
 20
133.4474962022569
 10
88.89827745225693
 20
133.7499755859375
 10
88.78941243489582
 20
134.1382378472222
 10
88.66952311197916
 20
134.2639838324653
 10
88.47763129340277
 20
134.210240342882
 97
        0
 92
        1
 93
        1
 72
     4
 94
        3
 73
     0
 74
     0
 95
       17
 96
       13
 40
0.0
 40
0.0
 40
0.0
 40
0.0
 40
1.0
 40
1.0
 40
1.0
 40
2.0
 40
2.0
 40
2.0
 40
3.0
 40
3.0
 40
3.0
 40
4.0
 40
4.0
 40
4.0
 40
4.0
 10
88.81456163194444
 20
133.0113471137153
 10
88.53723144531249
 20
132.9331434461805
 10
88.3081325954861
 20
133.0482096354167
 10
88.15241427951388
 20
133.6028700086806
 10
88.04320475260415
 20
133.9907877604167
 10
88.11761881510417
 20
134.2760416666667
 10
88.43422309027777
 20
134.3649251302083
 10
88.75048285590277
 20
134.45380859375
 10
88.96270073784721
 20
134.249169921875
 10
89.07156575520833
 20
133.8612521701389
 10
89.22797309027777
 20
133.3041802300347
 10
89.09637044270832
 20
133.0902398003472
 10
88.81456163194444
 20
133.0113471137153
 97
        0
 75
     0
 76
     1
 98
        1
 10
0.0
 20
0.0
  0
HATCH
  5
27
330
A
100
AcDbEntity
  8
LAYER_1
 62
     7
100
AcDbHatch
 10
0.0
 20
0.0
 30
0.0
210
0.0
220
0.0
230
1.0
  2
SOLID
 70
     1
 71
     0
 91
        1
 92
        1
 93
        1
 72
     4
 94
        3
 73
     0
 74
     0
 95
       47
 96
       43
 40
0.0
 40
0.0
 40
0.0
 40
0.0
 40
1.0
 40
1.0
 40
1.0
 40
2.0
 40
2.0
 40
2.0
 40
3.0
 40
3.0
 40
3.0
 40
4.0
 40
4.0
 40
4.0
 40
5.0
 40
5.0
 40
5.0
 40
6.0
 40
6.0
 40
6.0
 40
7.0
 40
7.0
 40
7.0
 40
8.0
 40
8.0
 40
8.0
 40
9.0
 40
9.0
 40
9.0
 40
10.0
 40
10.0
 40
10.0
 40
11.0
 40
11.0
 40
11.0
 40
12.0
 40
12.0
 40
12.0
 40
13.0
 40
13.0
 40
13.0
 40
14.0
 40
14.0
 40
14.0
 40
14.0
 10
89.40780707465277
 20
134.4489854600694
 10
89.40780707465277
 20
134.4489854600694
 10
89.41228569878471
 20
134.4503634982639
 10
89.41228569878471
 20
134.4503634982639
 10
89.46912977430554
 20
134.585755750868
 10
89.54561089409721
 20
134.6773952907986
 10
89.68410373263887
 20
134.715980360243
 10
89.87599555121527
 20
134.770068359375
 10
90.02930230034721
 20
134.7035780164931
 10
90.09303656684027
 20
134.4768907335069
 10
90.09303656684027
 20
134.4768907335069
 10
90.37140028211805
 20
133.4860812717014
 10
90.37140028211805
 20
133.4860812717014
 10
90.37140028211805
 20
133.4860812717014
 10
90.18881022135416
 20
133.4347493489583
 10
90.18881022135416
 20
133.4347493489583
 10
90.18881022135416
 20
133.4347493489583
 10
89.92457139756944
 20
134.374915907118
 10
89.92457139756944
 20
134.374915907118
 10
89.88701985677082
 20
134.5089301215278
 10
89.81777343749999
 20
134.5867892795139
 10
89.66997884114582
 20
134.5451036241319
 10
89.60279947916666
 20
134.5265001085069
 10
89.5452663845486
 20
134.4827473958333
 10
89.50978190104166
 20
134.422802734375
 10
89.45466037326388
 20
134.3352973090278
 10
89.46637369791665
 20
134.2588161892361
 10
89.49221191406249
 20
134.1661431206597
 10
89.49221191406249
 20
134.1661431206597
 10
89.73371310763888
 20
133.3069363064236
 10
89.73371310763888
 20
133.3069363064236
 10
89.73371310763888
 20
133.3069363064236
 10
89.55112304687499
 20
133.2556043836806
 10
89.55112304687499
 20
133.2556043836806
 10
89.55112304687499
 20
133.2556043836806
 10
89.19042154947915
 20
134.5399359809028
 10
89.19042154947915
 20
134.5399359809028
 10
89.19042154947915
 20
134.5399359809028
 10
89.36818847656249
 20
134.5898898654514
 10
89.36818847656249
 20
134.5898898654514
 10
89.36818847656249
 20
134.5898898654514
 10
89.40780707465277
 20
134.4489854600694
 10
89.40780707465277
 20
134.4489854600694
 97
        0
 75
     0
 76
     1
 98
        1
 10
0.0
 20
0.0
  0
HATCH
  5
26
330
A
100
AcDbEntity
  8
LAYER_1
 62
     7
100
AcDbHatch
 10
0.0
 20
0.0
 30
0.0
210
0.0
220
0.0
230
1.0
  2
SOLID
 70
     1
 71
     0
 91
        2
 92
       16
 93
        1
 72
     4
 94
        3
 73
     0
 74
     0
 95
       17
 96
       13
 40
0.0
 40
0.0
 40
0.0
 40
0.0
 40
1.0
 40
1.0
 40
1.0
 40
2.0
 40
2.0
 40
2.0
 40
3.0
 40
3.0
 40
3.0
 40
4.0
 40
4.0
 40
4.0
 40
4.0
 10
90.65079752604166
 20
134.2574381510417
 10
90.73933648003471
 20
133.9432454427083
 10
90.8506130642361
 20
133.7503200954861
 10
91.03079155815972
 20
133.8009629991319
 10
91.30812174479166
 20
133.878822157118
 10
91.20924750434027
 20
134.2222981770833
 10
91.15136990017361
 20
134.4279703776042
 10
91.0800564236111
 20
134.6822184244792
 10
90.9591335720486
 20
134.9075276692708
 10
90.75587293836804
 20
134.8503390842014
 10
90.51333821614583
 20
134.7821261935764
 10
90.60222167968749
 20
134.430726453993
 10
90.65079752604166
 20
134.2574381510417
 97
        0
 92
        1
 93
        1
 72
     4
 94
        3
 73
     0
 74
     0
 95
       50
 96
       46
 40
0.0
 40
0.0
 40
0.0
 40
0.0
 40
1.0
 40
1.0
 40
1.0
 40
2.0
 40
2.0
 40
2.0
 40
3.0
 40
3.0
 40
3.0
 40
4.0
 40
4.0
 40
4.0
 40
5.0
 40
5.0
 40
5.0
 40
6.0
 40
6.0
 40
6.0
 40
7.0
 40
7.0
 40
7.0
 40
8.0
 40
8.0
 40
8.0
 40
9.0
 40
9.0
 40
9.0
 40
10.0
 40
10.0
 40
10.0
 40
11.0
 40
11.0
 40
11.0
 40
12.0
 40
12.0
 40
12.0
 40
13.0
 40
13.0
 40
13.0
 40
14.0
 40
14.0
 40
14.0
 40
15.0
 40
15.0
 40
15.0
 40
15.0
 10
90.97877061631944
 20
135.0425754123264
 10
90.97877061631944
 20
135.0425754123264
 10
91.16101616753471
 20
135.0939073350695
 10
91.16101616753471
 20
135.0939073350695
 10
91.16101616753471
 20
135.0939073350695
 10
91.47865397135416
 20
133.9642605251736
 10
91.47865397135416
 20
133.9642605251736
 10
91.52275119357638
 20
133.807164171007
 10
91.54479980468749
 20
133.6838297526042
 10
91.49760199652776
 20
133.5232883029514
 10
91.45247124565971
 20
133.3734266493055
 10
91.33499348958333
 20
133.2855767144097
 10
91.19408908420138
 20
133.2463026258681
 10
90.98876139322915
 20
133.1884250217014
 10
90.80961642795138
 20
133.2401014539931
 10
90.72245551215276
 20
133.4526638454861
 10
90.72245551215276
 20
133.4526638454861
 10
90.90056694878471
 20
133.5026177300347
 10
90.90056694878471
 20
133.5026177300347
 10
90.94914279513888
 20
133.3916856553819
 10
91.03527018229165
 20
133.368603515625
 10
91.14620225694443
 20
133.399609375
 10
91.44179144965277
 20
133.4826361762153
 10
91.32982584635415
 20
133.765478515625
 10
91.29261881510416
 20
133.9070719401042
 10
91.29261881510416
 20
133.9070719401042
 10
91.28814019097221
 20
133.9056939019097
 10
91.28814019097221
 20
133.9056939019097
 10
91.24886610243055
 20
133.7523871527778
 10
91.18065321180555
 20
133.6759060329861
 10
91.06283094618055
 20
133.6428331163194
 10
90.82029622395832
 20
133.574964735243
 10
90.60428873697916
 20
133.6962320963542
 10
90.45890570746526
 20
134.213685438368
 10
90.38276909722221
 20
134.4837809244792
 10
90.33832736545138
 20
134.8999484592014
 10
90.67801378038193
 20
134.9953776041667
 10
90.79583604600694
 20
135.0284505208333
 10
90.91813693576388
 20
135.0005452473958
 10
91.01494411892361
 20
134.895814344618
 10
91.01494411892361
 20
134.895814344618
 10
91.01942274305554
 20
134.8968478732639
 10
91.01942274305554
 20
134.8968478732639
 10
91.01942274305554
 20
134.8968478732639
 10
90.97877061631944
 20
135.0425754123264
 10
90.97877061631944
 20
135.0425754123264
 97
        0
 75
     0
 76
     1
 98
        1
 10
0.0
 20
0.0
  0
HATCH
  5
25
330
A
100
AcDbEntity
  8
LAYER_1
 62
     7
100
AcDbHatch
 10
0.0
 20
0.0
 30
0.0
210
0.0
220
0.0
230
1.0
  2
SOLID
 70
     1
 71
     0
 91
        1
 92
        1
 93
        1
 72
     4
 94
        3
 73
     0
 74
     0
 95
       29
 96
       25
 40
0.0
 40
0.0
 40
0.0
 40
0.0
 40
1.0
 40
1.0
 40
1.0
 40
2.0
 40
2.0
 40
2.0
 40
3.0
 40
3.0
 40
3.0
 40
4.0
 40
4.0
 40
4.0
 40
5.0
 40
5.0
 40
5.0
 40
6.0
 40
6.0
 40
6.0
 40
7.0
 40
7.0
 40
7.0
 40
8.0
 40
8.0
 40
8.0
 40
8.0
 10
91.81868489583333
 20
135.762255859375
 10
91.81868489583333
 20
135.762255859375
 10
92.90699055989583
 20
136.0678358289931
 10
92.90699055989583
 20
136.0678358289931
 10
92.90699055989583
 20
136.0678358289931
 10
92.95556640624999
 20
135.8945475260417
 10
92.95556640624999
 20
135.8945475260417
 10
92.95556640624999
 20
135.8945475260417
 10
92.50735948350693
 20
135.7688015407986
 10
92.50735948350693
 20
135.7688015407986
 10
92.50735948350693
 20
135.7688015407986
 10
92.94557562934027
 20
134.2092068142361
 10
92.94557562934027
 20
134.2092068142361
 10
92.94557562934027
 20
134.2092068142361
 10
92.75368381076387
 20
134.1554633246528
 10
92.75368381076387
 20
134.1554633246528
 10
92.75368381076387
 20
134.1554633246528
 10
92.31581217447916
 20
135.7147135416666
 10
92.31581217447916
 20
135.7147135416666
 10
92.31581217447916
 20
135.7147135416666
 10
91.86760525173611
 20
135.5889675564236
 10
91.86760525173611
 20
135.5889675564236
 10
91.86760525173611
 20
135.5889675564236
 10
91.81868489583333
 20
135.762255859375
 10
91.81868489583333
 20
135.762255859375
 97
        0
 75
     0
 76
     1
 98
        1
 10
0.0
 20
0.0
  0
HATCH
  5
24
330
A
100
AcDbEntity
  8
LAYER_1
 62
     7
100
AcDbHatch
 10
0.0
 20
0.0
 30
0.0
210
0.0
220
0.0
230
1.0
  2
SOLID
 70
     1
 71
     0
 91
        2
 92
        1
 93
        1
 72
     4
 94
        3
 73
     0
 74
     0
 95
       17
 96
       13
 40
0.0
 40
0.0
 40
0.0
 40
0.0
 40
1.0
 40
1.0
 40
1.0
 40
2.0
 40
2.0
 40
2.0
 40
3.0
 40
3.0
 40
3.0
 40
4.0
 40
4.0
 40
4.0
 40
4.0
 10
93.12885470920138
 20
135.8811116536458
 10
93.12885470920138
 20
135.8811116536458
 10
93.06408691406249
 20
136.1119330512153
 10
93.06408691406249
 20
136.1119330512153
 10
93.06408691406249
 20
136.1119330512153
 10
93.24667697482639
 20
136.1632649739583
 10
93.24667697482639
 20
136.1632649739583
 10
93.24667697482639
 20
136.1632649739583
 10
93.31144476996526
 20
135.9324435763889
 10
93.31144476996526
 20
135.9324435763889
 10
93.31144476996526
 20
135.9324435763889
 10
93.12885470920138
 20
135.8811116536458
 10
93.12885470920138
 20
135.8811116536458
 97
        0
 92
        1
 93
        1
 72
     4
 94
        3
 73
     0
 74
     0
 95
       17
 96
       13
 40
0.0
 40
0.0
 40
0.0
 40
0.0
 40
1.0
 40
1.0
 40
1.0
 40
2.0
 40
2.0
 40
2.0
 40
3.0
 40
3.0
 40
3.0
 40
4.0
 40
4.0
 40
4.0
 40
4.0
 10
93.55087890624999
 20
134.37939453125
 10
93.55087890624999
 20
134.37939453125
 10
93.19017740885415
 20
135.6637261284722
 10
93.19017740885415
 20
135.6637261284722
 10
93.19017740885415
 20
135.6637261284722
 10
93.37242296006944
 20
135.7150580512153
 10
93.37242296006944
 20
135.7150580512153
 10
93.37242296006944
 20
135.7150580512153
 10
93.73346896701388
 20
134.430726453993
 10
93.73346896701388
 20
134.430726453993
 10
93.73346896701388
 20
134.430726453993
 10
93.55087890624999
 20
134.37939453125
 10
93.55087890624999
 20
134.37939453125
 97
        0
 75
     0
 76
     1
 98
        1
 10
0.0
 20
0.0
  0
HATCH
  5
23
330
A
100
AcDbEntity
  8
LAYER_1
 62
     7
100
AcDbHatch
 10
0.0
 20
0.0
 30
0.0
210
0.0
220
0.0
230
1.0
  2
SOLID
 70
     1
 71
     0
 91
        2
 92
       16
 93
        1
 72
     4
 94
        3
 73
     0
 74
     0
 95
       14
 96
       10
 40
0.0
 40
0.0
 40
0.0
 40
0.0
 40
1.0
 40
1.0
 40
1.0
 40
2.0
 40
2.0
 40
2.0
 40
3.0
 40
3.0
 40
3.0
 40
3.0
 10
94.40250651041666
 20
135.4559868706597
 10
94.35324164496527
 20
135.6044704861111
 10
94.29570855034721
 20
135.8449381510417
 10
94.08314615885416
 20
135.7853379991319
 10
93.8705837673611
 20
135.7253933376736
 10
93.93225097656249
 20
135.4883707682292
 10
93.96807996961805
 20
135.3340304904514
 10
93.96807996961805
 20
135.3340304904514
 10
94.40250651041666
 20
135.4559868706597
 10
94.40250651041666
 20
135.4559868706597
 97
        0
 92
        1
 93
        1
 72
     4
 94
        3
 73
     0
 74
     0
 95
       29
 96
       25
 40
0.0
 40
0.0
 40
0.0
 40
0.0
 40
1.0
 40
1.0
 40
1.0
 40
2.0
 40
2.0
 40
2.0
 40
3.0
 40
3.0
 40
3.0
 40
4.0
 40
4.0
 40
4.0
 40
5.0
 40
5.0
 40
5.0
 40
6.0
 40
6.0
 40
6.0
 40
7.0
 40
7.0
 40
7.0
 40
8.0
 40
8.0
 40
8.0
 40
8.0
 10
94.68052571614582
 20
135.1579861111111
 10
94.76286349826388
 20
134.9092502170139
 10
94.69258355034721
 20
134.6629258897569
 10
94.42214355468749
 20
134.5867892795139
 10
94.17960883246526
 20
134.5189208984375
 10
93.96118977864583
 20
134.6319200303819
 10
93.81580674913194
 20
135.1493733723958
 10
93.73967013888888
 20
135.419468858507
 10
93.69763997395833
 20
135.8439046223958
 10
94.03732638888889
 20
135.9393337673611
 10
94.45314941406249
 20
136.0561225043403
 10
94.5403103298611
 20
135.6568359375
 10
94.63401692708332
 20
135.3591796875
 10
94.63401692708332
 20
135.3591796875
 10
94.01045464409721
 20
135.1838243272569
 10
94.01045464409721
 20
135.1838243272569
 10
94.06350911458333
 20
135.0119140625
 10
94.12689887152777
 20
134.670849609375
 10
94.38355848524304
 20
134.7428521050347
 10
94.5589138454861
 20
134.7924614800347
 10
94.56201443142361
 20
134.9674723307292
 10
94.50964898003471
 20
135.1100992838542
 10
94.50964898003471
 20
135.1100992838542
 10
94.68052571614582
 20
135.1579861111111
 10
94.68052571614582
 20
135.1579861111111
 97
        0
 75
     0
 76
     1
 98
        1
 10
0.0
 20
0.0
  0
HATCH
  5
22
330
A
100
AcDbEntity
  8
LAYER_1
 62
     7
100
AcDbHatch
 10
0.0
 20
0.0
 30
0.0
210
0.0
220
0.0
230
1.0
  2
SOLID
 70
     1
 71
     0
 91
        4
 92
       16
 93
        1
 72
     4
 94
        3
 73
     0
 74
     0
 95
       20
 96
       16
 40
0.0
 40
0.0
 40
0.0
 40
0.0
 40
1.0
 40
1.0
 40
1.0
 40
2.0
 40
2.0
 40
2.0
 40
3.0
 40
3.0
 40
3.0
 40
4.0
 40
4.0
 40
4.0
 40
5.0
 40
5.0
 40
5.0
 40
5.0
 10
94.86690538194443
 20
136.4089002821181
 10
94.92547200520832
 20
136.4254367404514
 10
95.01917860243054
 20
136.4423177083333
 10
94.99506293402777
 20
136.5277560763889
 10
94.9774929470486
 20
136.5911458333333
 10
94.91858181423611
 20
136.5828776041666
 10
94.86656087239582
 20
136.568408203125
 10
94.86656087239582
 20
136.568408203125
 10
94.74736056857638
 20
136.5349907769097
 10
94.74736056857638
 20
136.5349907769097
 10
94.74736056857638
 20
136.5349907769097
 10
94.78904622395832
 20
136.3871961805556
 10
94.78904622395832
 20
136.3871961805556
 10
94.78904622395832
 20
136.3871961805556
 10
94.86690538194443
 20
136.4089002821181
 10
94.86690538194443
 20
136.4089002821181
 97
        0
 92
        1
 93
        1
 72
     4
 94
        3
 73
     0
 74
     0
 95
       38
 96
       34
 40
0.0
 40
0.0
 40
0.0
 40
0.0
 40
1.0
 40
1.0
 40
1.0
 40
2.0
 40
2.0
 40
2.0
 40
3.0
 40
3.0
 40
3.0
 40
4.0
 40
4.0
 40
4.0
 40
5.0
 40
5.0
 40
5.0
 40
6.0
 40
6.0
 40
6.0
 40
7.0
 40
7.0
 40
7.0
 40
8.0
 40
8.0
 40
8.0
 40
9.0
 40
9.0
 40
9.0
 40
10.0
 40
10.0
 40
10.0
 40
11.0
 40
11.0
 40
11.0
 40
11.0
 10
95.1294216579861
 20
136.2297553168403
 10
95.1294216579861
 20
136.2297553168403
 10
95.06706542968749
 20
136.2121853298611
 10
95.06706542968749
 20
136.2121853298611
 10
95.06706542968749
 20
136.2121853298611
 10
94.89343261718749
 20
136.3727267795139
 10
94.89343261718749
 20
136.3727267795139
 10
94.89343261718749
 20
136.3727267795139
 10
94.80007052951387
 20
136.3465440538194
 10
94.80007052951387
 20
136.3465440538194
 10
94.80007052951387
 20
136.3465440538194
 10
94.85450303819444
 20
136.1525851779514
 10
94.85450303819444
 20
136.1525851779514
 10
94.85450303819444
 20
136.1525851779514
 10
94.8007595486111
 20
136.1374267578125
 10
94.8007595486111
 20
136.1374267578125
 10
94.8007595486111
 20
136.1374267578125
 10
94.68224826388888
 20
136.5604844835069
 10
94.68224826388888
 20
136.5604844835069
 10
94.68224826388888
 20
136.5604844835069
 10
94.86793891059027
 20
136.6121609157986
 10
94.86793891059027
 20
136.6121609157986
 10
94.90238986545138
 20
136.6218071831597
 10
94.93787434895833
 20
136.6317979600694
 10
94.97611490885416
 20
136.6176730685764
 10
95.01159939236111
 20
136.6090603298611
 10
95.04088270399305
 20
136.5756429036458
 10
95.04949544270832
 20
136.5408474392361
 10
95.07292209201388
 20
136.4571316189236
 10
95.02193467881943
 20
136.4099338107639
 10
94.94924316406249
 20
136.3882297092014
 10
94.94924316406249
 20
136.3882297092014
 10
95.1294216579861
 20
136.2297553168403
 10
95.1294216579861
 20
136.2297553168403
 97
        0
 92
       16
 93
        1
 72
     4
 94
        3
 73
     0
 74
     0
 95
       17
 96
       13
 40
0.0
 40
0.0
 40
0.0
 40
0.0
 40
1.0
 40
1.0
 40
1.0
 40
2.0
 40
2.0
 40
2.0
 40
3.0
 40
3.0
 40
3.0
 40
4.0
 40
4.0
 40
4.0
 40
4.0
 10
94.56201443142361
 20
136.2976236979167
 10
94.61231282552083
 20
136.1188232421875
 10
94.79524739583333
 20
136.0168484157986
 10
94.97301432291665
 20
136.0664577907986
 10
95.15078124999999
 20
136.1164116753472
 10
95.25206705729165
 20
136.2983127170139
 10
95.20211317274304
 20
136.4767686631944
 10
95.15250379774305
 20
136.6535020616319
 10
94.9712917751736
 20
136.7571994357639
 10
94.79352484809027
 20
136.7075900607639
 10
94.61575792100693
 20
136.6576361762153
 10
94.51274956597221
 20
136.4743570963541
 10
94.56201443142361
 20
136.2976236979167
 97
        0
 92
        1
 93
        1
 72
     4
 94
        3
 73
     0
 74
     0
 95
       17
 96
       13
 40
0.0
 40
0.0
 40
0.0
 40
0.0
 40
1.0
 40
1.0
 40
1.0
 40
2.0
 40
2.0
 40
2.0
 40
3.0
 40
3.0
 40
3.0
 40
4.0
 40
4.0
 40
4.0
 40
4.0
 10
95.25861273871527
 20
136.4936496310764
 10
95.31752387152777
 20
136.283154296875
 10
95.19625651041666
 20
136.0688693576389
 10
94.98851725260415
 20
136.0109917534722
 10
94.78008897569444
 20
135.9524251302083
 10
94.56408148871527
 20
136.072314453125
 10
94.50517035590276
 20
136.2828097873264
 10
94.4472927517361
 20
136.4902045355903
 10
94.56959364149304
 20
136.704833984375
 10
94.77802191840277
 20
136.7630560980903
 10
94.98541666666665
 20
136.8212782118056
 10
95.200390625
 20
136.7010443793403
 10
95.25861273871527
 20
136.4936496310764
 97
        0
 75
     0
 76
     1
 98
        1
 10
0.0
 20
0.0
  0
ENDSEC
  0
SECTION
  2
OBJECTS
  0
DICTIONARY
  5
19
330
0
100
AcDbDictionary
281
     1
  3
ACAD_COLOR
350
16F
  3
ACAD_GROUP
350
1A
  3
ACAD_LAYOUT
350
13C
  3
ACAD_MATERIAL
350
171
  3
ACAD_MLINESTYLE
350
1B
  3
ACAD_PLOTSETTINGS
350
13D
  3
ACAD_PLOTSTYLENAME
350
13A
  3
ACDBHEADERROUNDTRIPXREC
350
16E
  0
DICTIONARY
  5
16F
102
{ACAD_REACTORS
330
19
102
}
330
19
100
AcDbDictionary
281
     1
  0
DICTIONARY
  5
1A
102
{ACAD_REACTORS
330
19
102
}
330
19
100
AcDbDictionary
281
     1
  0
DICTIONARY
  5
13C
102
{ACAD_REACTORS
330
19
102
}
330
19
100
AcDbDictionary
281
     1
  3
Layout1
350
13F
  3
Model
350
13E
  0
DICTIONARY
  5
171
102
{ACAD_REACTORS
330
19
102
}
330
19
100
AcDbDictionary
281
     1
  0
DICTIONARY
  5
1B
102
{ACAD_REACTORS
330
19
102
}
330
19
100
AcDbDictionary
281
     1
  3
STANDARD
350
1C
  0
DICTIONARY
  5
13D
102
{ACAD_REACTORS
330
19
102
}
330
19
100
AcDbDictionary
281
     1
  0
ACDBDICTIONARYWDFLT
  5
13A
102
{ACAD_REACTORS
330
19
102
}
330
19
100
AcDbDictionary
281
     1
  3
Normal
350
13B
100
AcDbDictionaryWithDefault
340
13B
  0
DICTIONARY
  5
16E
102
{ACAD_REACTORS
330
19
102
}
330
19
100
AcDbDictionary
281
     1
  3
COLORDICT
350
170
  3
MATERIALDICT
350
172
  0
LAYOUT
  5
13F
102
{ACAD_REACTORS
330
13C
102
}
102
{ACAD_XDICTIONARY
360
173
102
}
330
13C
100
AcDbPlotSettings
  1

  2
Support Center HP LaserJet 4
  4

  6

 40
0.0
 41
0.0
 42
0.0
 43
0.0
 44
0.0
 45
0.0
 46
0.0
 47
0.0
 48
0.0
 49
0.0
140
0.0
141
0.0
142
1.0
143
1.0
 70
   688
 72
     0
 73
     0
 74
     5
  7

 75
    16
147
1.0
148
0.0
149
0.0
100
AcDbLayout
  1
Layout1
 70
     0
 71
     1
 10
0.0
 20
0.0
 11
12.0
 21
9.0
 12
0.0
 22
0.0
 32
0.0
 14
1.000000000000000E+20
 24
1.000000000000000E+20
 34
1.000000000000000E+20
 15
-1.000000000000000E+20
 25
-1.000000000000000E+20
 35
-1.000000000000000E+20
146
0.0
 13
0.0
 23
0.0
 33
0.0
 16
1.0
 26
0.0
 36
0.0
 17
0.0
 27
1.0
 37
0.0
 76
     0
330
B
  0
LAYOUT
  5
13E
102
{ACAD_REACTORS
330
13C
102
}
102
{ACAD_XDICTIONARY
360
175
102
}
330
13C
100
AcDbPlotSettings
  1

  2
Support Center HP LaserJet 4
  4

  6

 40
0.0
 41
0.0
 42
0.0
 43
0.0
 44
0.0
 45
0.0
 46
0.0
 47
0.0
 48
0.0
 49
0.0
140
0.0
141
0.0
142
1.0
143
1.0
 70
  1712
 72
     0
 73
     0
 74
     0
  7

 75
     0
147
1.0
148
0.0
149
0.0
100
AcDbLayout
  1
Model
 70
     1
 71
     0
 10
0.0
 20
0.0
 11
12.0
 21
9.0
 12
0.0
 22
0.0
 32
0.0
 14
0.0
 24
0.0
 34
0.0
 15
0.0
 25
0.0
 35
0.0
146
0.0
 13
0.0
 23
0.0
 33
0.0
 16
1.0
 26
0.0
 36
0.0
 17
0.0
 27
1.0
 37
0.0
 76
     0
330
A
  0
MLINESTYLE
  5
1C
102
{ACAD_REACTORS
330
1B
102
}
330
1B
100
AcDbMlineStyle
  2
STANDARD
 70
     0
  3

 62
     0
 51
90.0000000000002
 52
90.0000000000002
 71
     2
 49
0.5
 62
   256
  6
BYLAYER
 49
-0.5
 62
   256
  6
BYLAYER
  0
ACDBPLACEHOLDER
  5
13B
102
{ACAD_REACTORS
330
13A
102
}
330
13A
  0
XRECORD
  5
170
102
{ACAD_REACTORS
330
16E
102
}
330
16E
100
AcDbXrecord
340
16F
  0
XRECORD
  5
172
102
{ACAD_REACTORS
330
16E
102
}
330
16E
100
AcDbXrecord
340
171
  0
DICTIONARY
  5
173
330
13F
100
AcDbDictionary
280
     1
281
     1
  3
ACAD_XREC_ROUNDTRIP
360
174
  0
DICTIONARY
  5
175
330
13E
100
AcDbDictionary
280
     1
281
     1
  3
ACAD_XREC_ROUNDTRIP
360
176
  0
XRECORD
  5
174
102
{ACAD_REACTORS
330
173
102
}
330
173
100
AcDbXrecord
102
SHADEPLOT
 70
     0
102
SHADEPLOTRESLEVEL
 70
     0
102
SHADEPLOTCUSTOMDPI
 70
     0
  0
XRECORD
  5
176
102
{ACAD_REACTORS
330
175
102
}
330
175
100
AcDbXrecord
102
SHADEPLOT
 70
     0
102
SHADEPLOTRESLEVEL
 70
     0
102
SHADEPLOTCUSTOMDPI
 70
     0
  0
ENDSEC
  0
EOF
