  0
SECTION
  2
HEADER
  9
$ACADVER
  1
AC1015
  9
$ACADMAINTVER
 70
     6
  9
$DWGCODEPAGE
  3
ANSI_1252
  9
$INSBASE
 10
0.0
 20
0.0
 30
0.0
  9
$EXTMIN
 10
3.200317414477837
 20
3.422132728887771
 30
0.0
  9
$EXTMAX
 10
9.486328150013378
 20
11.38793594910015
 30
0.0
  9
$LIMMIN
 10
0.0
 20
0.0
  9
$LIMMAX
 10
12.0
 20
9.0
  9
$ORTHOMODE
 70
     0
  9
$REGENMODE
 70
     0
  9
$FILLMODE
 70
     1
  9
$QTEXTMODE
 70
     0
  9
$MIRRTEXT
 70
     1
  9
$LTSCALE
 40
0.25
  9
$ATTMODE
 70
     1
  9
$TEXTSIZE
 40
0.2
  9
$TRACEWID
 40
0.05
  9
$TEXTSTYLE
  7
STANDARD
  9
$CLAYER
  8
0
  9
$CELTYPE
  6
BYLAYER
  9
$CECOLOR
 62
   256
  9
$CELTSCALE
 40
1.0
  9
$DISPSILH
 70
     0
  9
$DIMSCALE
 40
1.0
  9
$DIMASZ
 40
0.18
  9
$DIMEXO
 40
0.0625
  9
$DIMDLI
 40
0.38
  9
$DIMRND
 40
0.0
  9
$DIMDLE
 40
0.0
  9
$DIMEXE
 40
0.18
  9
$DIMTP
 40
0.0
  9
$DIMTM
 40
0.0
  9
$DIMTXT
 40
0.18
  9
$DIMCEN
 40
0.09
  9
$DIMTSZ
 40
0.0
  9
$DIMTOL
 70
     0
  9
$DIMLIM
 70
     0
  9
$DIMTIH
 70
     1
  9
$DIMTOH
 70
     1
  9
$DIMSE1
 70
     0
  9
$DIMSE2
 70
     0
  9
$DIMTAD
 70
     0
  9
$DIMZIN
 70
     0
  9
$DIMBLK
  1

  9
$DIMASO
 70
     1
  9
$DIMSHO
 70
     1
  9
$DIMPOST
  1

  9
$DIMAPOST
  1

  9
$DIMALT
 70
     0
  9
$DIMALTD
 70
     2
  9
$DIMALTF
 40
25.4
  9
$DIMLFAC
 40
1.0
  9
$DIMTOFL
 70
     0
  9
$DIMTVP
 40
0.0
  9
$DIMTIX
 70
     0
  9
$DIMSOXD
 70
     0
  9
$DIMSAH
 70
     0
  9
$DIMBLK1
  1

  9
$DIMBLK2
  1

  9
$DIMSTYLE
  2
STANDARD
  9
$DIMCLRD
 70
     0
  9
$DIMCLRE
 70
     0
  9
$DIMCLRT
 70
     0
  9
$DIMTFAC
 40
1.0
  9
$DIMGAP
 40
0.09
  9
$DIMJUST
 70
     0
  9
$DIMSD1
 70
     0
  9
$DIMSD2
 70
     0
  9
$DIMTOLJ
 70
     1
  9
$DIMTZIN
 70
     0
  9
$DIMALTZ
 70
     0
  9
$DIMALTTZ
 70
     0
  9
$DIMUPT
 70
     0
  9
$DIMDEC
 70
     4
  9
$DIMTDEC
 70
     4
  9
$DIMALTU
 70
     2
  9
$DIMALTTD
 70
     2
  9
$DIMTXSTY
  7
STANDARD
  9
$DIMAUNIT
 70
     0
  9
$DIMADEC
 70
     0
  9
$DIMALTRND
 40
0.0
  9
$DIMAZIN
 70
     0
  9
$DIMDSEP
 70
    46
  9
$DIMATFIT
 70
     3
  9
$DIMFRAC
 70
     0
  9
$DIMLDRBLK
  1

  9
$DIMLUNIT
 70
     2
  9
$DIMLWD
 70
    -2
  9
$DIMLWE
 70
    -2
  9
$DIMTMOVE
 70
     0
  9
$LUNITS
 70
     2
  9
$LUPREC
 70
     4
  9
$SKETCHINC
 40
0.1
  9
$FILLETRAD
 40
0.0
  9
$AUNITS
 70
     0
  9
$AUPREC
 70
     0
  9
$MENU
  1
.
  9
$ELEVATION
 40
0.0
  9
$PELEVATION
 40
0.0
  9
$THICKNESS
 40
0.0
  9
$LIMCHECK
 70
     0
  9
$CHAMFERA
 40
0.5
  9
$CHAMFERB
 40
0.5
  9
$CHAMFERC
 40
1.0
  9
$CHAMFERD
 40
0.0
  9
$SKPOLY
 70
     1
  9
$TDCREATE
 40
2451890.587386782
  9
$TDUCREATE
 40
2451890.920720116
  9
$TDUPDATE
 40
2451893.675890856
  9
$TDUUPDATE
 40
2451894.00922419
  9
$TDINDWG
 40
0.9851162963
  9
$TDUSRTIMER
 40
0.9851162963
  9
$USRTIMER
 70
     1
  9
$ANGBASE
 50
0.0
  9
$ANGDIR
 70
     0
  9
$PDMODE
 70
     0
  9
$PDSIZE
 40
0.0
  9
$PLINEWID
 40
0.0
  9
$SPLFRAME
 70
     0
  9
$SPLINETYPE
 70
     6
  9
$SPLINESEGS
 70
     8
  9
$HANDSEED
  5
10DB
  9
$SURFTAB1
 70
     6
  9
$SURFTAB2
 70
     6
  9
$SURFTYPE
 70
     6
  9
$SURFU
 70
     6
  9
$SURFV
 70
     6
  9
$UCSBASE
  2

  9
$UCSNAME
  2

  9
$UCSORG
 10
0.0
 20
0.0
 30
0.0
  9
$UCSXDIR
 10
1.0
 20
0.0
 30
0.0
  9
$UCSYDIR
 10
0.0
 20
1.0
 30
0.0
  9
$UCSORTHOREF
  2

  9
$UCSORTHOVIEW
 70
     0
  9
$UCSORGTOP
 10
0.0
 20
0.0
 30
0.0
  9
$UCSORGBOTTOM
 10
0.0
 20
0.0
 30
0.0
  9
$UCSORGLEFT
 10
0.0
 20
0.0
 30
0.0
  9
$UCSORGRIGHT
 10
0.0
 20
0.0
 30
0.0
  9
$UCSORGFRONT
 10
0.0
 20
0.0
 30
0.0
  9
$UCSORGBACK
 10
0.0
 20
0.0
 30
0.0
  9
$PUCSBASE
  2

  9
$PUCSNAME
  2

  9
$PUCSORG
 10
0.0
 20
0.0
 30
0.0
  9
$PUCSXDIR
 10
1.0
 20
0.0
 30
0.0
  9
$PUCSYDIR
 10
0.0
 20
1.0
 30
0.0
  9
$PUCSORTHOREF
  2

  9
$PUCSORTHOVIEW
 70
     0
  9
$PUCSORGTOP
 10
0.0
 20
0.0
 30
0.0
  9
$PUCSORGBOTTOM
 10
0.0
 20
0.0
 30
0.0
  9
$PUCSORGLEFT
 10
0.0
 20
0.0
 30
0.0
  9
$PUCSORGRIGHT
 10
0.0
 20
0.0
 30
0.0
  9
$PUCSORGFRONT
 10
0.0
 20
0.0
 30
0.0
  9
$PUCSORGBACK
 10
0.0
 20
0.0
 30
0.0
  9
$USERI1
 70
     0
  9
$USERI2
 70
     0
  9
$USERI3
 70
     0
  9
$USERI4
 70
     0
  9
$USERI5
 70
     0
  9
$USERR1
 40
0.0
  9
$USERR2
 40
0.0
  9
$USERR3
 40
0.0
  9
$USERR4
 40
0.0
  9
$USERR5
 40
0.0
  9
$WORLDVIEW
 70
     1
  9
$SHADEDGE
 70
     3
  9
$SHADEDIF
 70
    70
  9
$TILEMODE
 70
     1
  9
$MAXACTVP
 70
    48
  9
$PINSBASE
 10
0.0
 20
0.0
 30
0.0
  9
$PLIMCHECK
 70
     0
  9
$PEXTMIN
 10
1.000000000000000E+20
 20
1.000000000000000E+20
 30
1.000000000000000E+20
  9
$PEXTMAX
 10
-1.000000000000000E+20
 20
-1.000000000000000E+20
 30
-1.000000000000000E+20
  9
$PLIMMIN
 10
0.0
 20
0.0
  9
$PLIMMAX
 10
12.0
 20
9.0
  9
$UNITMODE
 70
     0
  9
$VISRETAIN
 70
     1
  9
$PLINEGEN
 70
     0
  9
$PSLTSCALE
 70
     1
  9
$TREEDEPTH
 70
  3020
  9
$CMLSTYLE
  2
STANDARD
  9
$CMLJUST
 70
     0
  9
$CMLSCALE
 40
1.0
  9
$PROXYGRAPHICS
 70
     1
  9
$MEASUREMENT
 70
     0
  9
$CELWEIGHT
370
    -1
  9
$ENDCAPS
280
     0
  9
$JOINSTYLE
280
     0
  9
$LWDISPLAY
290
     0
  9
$INSUNITS
 70
     1
  9
$HYPERLINKBASE
  1

  9
$STYLESHEET
  1

  9
$XEDIT
290
     1
  9
$CEPSNTYPE
380
     0
  9
$PSTYLEMODE
290
     0
  9
$FINGERPRINTGUID
  2
{FAEB1C30-E019-11D5-929B-00C0DF256EC4}
  9
$VERSIONGUID
  2
{FAEB1C32-E019-11D5-929B-00C0DF256EC4}
  9
$EXTNAMES
290
     1
  9
$PSVPSCALE
 40
0.0
  9
$OLESTARTUP
290
     0
  0
ENDSEC
  0
SECTION
  2
CLASSES
  0
CLASS
  1
LWPOLYLINE
  2
AcDbPolyline
  3
AutoCAD 2000
 90
        0
280
     0
281
     1
  0
CLASS
  1
DICTIONARYVAR
  2
AcDbDictionaryVar
  3
AutoCAD 2000
 90
        0
280
     0
281
     0
  0
CLASS
  1
HATCH
  2
AcDbHatch
  3
AutoCAD 2000
 90
        0
280
     0
281
     1
  0
CLASS
  1
ACDBPLACEHOLDER
  2
AcDbPlaceHolder
  3
ObjectDBX Classes
 90
        0
280
     0
281
     0
  0
CLASS
  1
LAYOUT
  2
AcDbLayout
  3
ObjectDBX Classes
 90
        0
280
     0
281
     0
  0
ENDSEC
  0
SECTION
  2
TABLES
  0
TABLE
  2
VPORT
  5
8
330
0
100
AcDbSymbolTable
 70
     2
  0
VPORT
  5
10CD
330
8
100
AcDbSymbolTableRecord
100
AcDbViewportTableRecord
  2
*ACTIVE
 70
     0
 10
0.0
 20
0.0
 11
1.0
 21
1.0
 12
6.343322782245607
 22
7.405034338993959
 13
0.0
 23
0.0
 14
0.5
 24
0.5
 15
0.5
 25
0.5
 16
0.0
 26
0.0
 36
1.0
 17
0.0
 27
0.0
 37
0.0
 40
8.037891937137374
 41
1.519637462235649
 42
50.0
 43
0.0
 44
0.0
 50
0.0
 51
0.0
 71
     0
 72
  2000
 73
     1
 74
     0
 75
     0
 76
     0
 77
     0
 78
     0
281
     0
 65
     1
110
0.0
120
0.0
130
0.0
111
1.0
121
0.0
131
0.0
112
0.0
122
1.0
132
0.0
 79
     0
146
0.0
  0
ENDTAB
  0
TABLE
  2
LTYPE
  5
5
330
0
100
AcDbSymbolTable
 70
     3
  0
LTYPE
  5
13
330
5
100
AcDbSymbolTableRecord
100
AcDbLinetypeTableRecord
  2
BYBLOCK
 70
     0
  3

 72
    65
 73
     0
 40
0.0
  0
LTYPE
  5
14
330
5
100
AcDbSymbolTableRecord
100
AcDbLinetypeTableRecord
  2
BYLAYER
 70
     0
  3

 72
    65
 73
     0
 40
0.0
  0
LTYPE
  5
15
330
5
100
AcDbSymbolTableRecord
100
AcDbLinetypeTableRecord
  2
CONTINUOUS
 70
     0
  3
Solid line
 72
    65
 73
     0
 40
0.0
  0
LTYPE
  5
A96
330
5
100
AcDbSymbolTableRecord
100
AcDbLinetypeTableRecord
  2
DASHED
 70
     0
  3
Dashed __ __ __ __ __ __ __ __ __ __ __ __ __ _
 72
    65
 73
     2
 40
0.75
 49
0.5
 74
     0
 49
-0.25
 74
     0
  0
ENDTAB
  0
TABLE
  2
LAYER
  5
2
330
0
100
AcDbSymbolTable
 70
     1
  0
LAYER
  5
F
330
2
100
AcDbSymbolTableRecord
100
AcDbLayerTableRecord
  2
0
 70
     0
 62
     7
  6
CONTINUOUS
370
    -3
390
0
  0
ENDTAB
  0
TABLE
  2
STYLE
  5
3
330
0
100
AcDbSymbolTable
 70
     1
  0
STYLE
  5
10
330
3
100
AcDbSymbolTableRecord
100
AcDbTextStyleTableRecord
  2
STANDARD
 70
     0
 40
0.0
 41
1.0
 50
0.0
 71
     0
 42
0.2
  3
txt
  4

  0
ENDTAB
  0
TABLE
  2
VIEW
  5
6
330
0
100
AcDbSymbolTable
 70
     1
  0
VIEW
  5
9D4
330
6
100
AcDbSymbolTableRecord
100
AcDbViewTableRecord
  2
INITIAL
 70
     0
 40
8.037891937137374
 10
6.343322782245607
 20
7.405034338993959
 41
12.21468170507583
 11
0.0
 21
0.0
 31
1.0
 12
0.0
 22
0.0
 32
0.0
 42
50.0
 43
0.0
 44
0.0
 50
0.0
 71
     0
281
     0
 72
     0
  0
ENDTAB
  0
TABLE
  2
UCS
  5
7
330
0
100
AcDbSymbolTable
 70
     0
  0
ENDTAB
  0
TABLE
  2
APPID
  5
9
330
0
100
AcDbSymbolTable
 70
     1
  0
APPID
  5
11
330
9
100
AcDbSymbolTableRecord
100
AcDbRegAppTableRecord
  2
ACAD
 70
     0
  0
ENDTAB
  0
TABLE
  2
DIMSTYLE
  5
A
330
0
100
AcDbSymbolTable
 70
     1
100
AcDbDimStyleTable
  0
DIMSTYLE
105
1D
330
A
100
AcDbSymbolTableRecord
100
AcDbDimStyleTableRecord
  2
STANDARD
 70
     0
  3

  4

340
10
  0
ENDTAB
  0
TABLE
  2
BLOCK_RECORD
  5
1
330
0
100
AcDbSymbolTable
 70
     0
  0
BLOCK_RECORD
  5
19
330
1
100
AcDbSymbolTableRecord
100
AcDbBlockTableRecord
  2
*MODEL_SPACE
340
10CF
  0
BLOCK_RECORD
  5
16
330
1
100
AcDbSymbolTableRecord
100
AcDbBlockTableRecord
  2
*PAPER_SPACE
340
10D0
  0
ENDTAB
  0
ENDSEC
  0
SECTION
  2
BLOCKS
  0
BLOCK
  5
1A
330
19
100
AcDbEntity
  8
0
100
AcDbBlockBegin
  2
*MODEL_SPACE
 70
     0
 10
0.0
 20
0.0
 30
0.0
  3
*MODEL_SPACE
  1

  4

  0
ENDBLK
  5
1B
330
19
100
AcDbEntity
  8
0
100
AcDbBlockEnd
  0
BLOCK
  5
17
330
16
100
AcDbEntity
 67
     1
  8
0
100
AcDbBlockBegin
  2
*PAPER_SPACE
 70
     0
 10
0.0
 20
0.0
 30
0.0
  3
*PAPER_SPACE
  1

  4

  0
ENDBLK
  5
18
330
16
100
AcDbEntity
 67
     1
  8
0
100
AcDbBlockEnd
  0
ENDSEC
  0
SECTION
  2
ENTITIES
  0
LINE
  5
C64
330
19
100
AcDbEntity
  8
0
100
AcDbLine
 10
8.237118559279647
 20
7.161580790395197
 30
0.0
 11
8.237118559279647
 21
5.337668834417208
 31
0.0
  0
LINE
  5
C65
330
19
100
AcDbEntity
  8
0
100
AcDbLine
 10
8.237118559279647
 20
5.337668834417208
 30
0.0
 11
9.071535767883949
 21
5.666833416708354
 31
0.0
  0
LINE
  5
C66
330
19
100
AcDbEntity
  8
0
100
AcDbLine
 10
9.071535767883949
 20
5.666833416708354
 30
0.0
 11
9.071535767883949
 21
7.389694847423711
 31
0.0
  0
LINE
  5
C67
330
19
100
AcDbEntity
  8
0
100
AcDbLine
 10
9.071535767883949
 20
7.389694847423711
 30
0.0
 11
8.237118559279647
 21
7.161580790395197
 31
0.0
  0
LINE
  5
C68
330
19
100
AcDbEntity
  8
0
100
AcDbLine
 10
8.654327163581797
 20
5.502251125562781
 30
0.0
 11
8.654327163581797
 21
7.275637818909455
 31
0.0
  0
LINE
  5
C69
330
19
100
AcDbEntity
  8
0
100
AcDbLine
 10
8.654327163581797
 20
7.275637818909455
 30
0.0
 11
4.774387193596805
 21
11.38769384692346
 31
0.0
  0
LINE
  5
C6B
330
19
100
AcDbEntity
  8
0
100
AcDbLine
 10
5.156309010080006
 20
11.38769384692346
 30
0.0
 11
9.071535767883949
 21
7.389694847423711
 31
0.0
  0
LINE
  5
C6C
330
19
100
AcDbEntity
  8
0
100
AcDbLine
 10
8.237118559279647
 20
7.161580790395197
 30
0.0
 11
4.493246623311663
 21
11.24262131065533
 31
0.0
  0
LINE
  5
C6D
330
19
100
AcDbEntity
  8
0
100
AcDbLine
 10
4.493246623311663
 20
11.24262131065533
 30
0.0
 11
4.911270720518416
 21
11.24262131065533
 31
0.0
  0
LINE
  5
C6E
330
19
100
AcDbEntity
  8
0
100
AcDbLine
 10
4.774387193596805
 20
11.38769384692346
 30
0.0
 11
5.156309010080006
 21
11.38769384692346
 31
0.0
  0
LINE
  5
C70
330
19
100
AcDbEntity
  8
0
100
AcDbLine
 10
8.237118559279647
 20
5.337668834417208
 30
0.0
 11
6.361557399946589
 21
7.596242128275693
 31
0.0
  0
LINE
  5
C71
330
19
100
AcDbEntity
  8
0
100
AcDbLine
 10
4.009004502251132
 20
10.42921460730365
 30
0.0
 11
4.204309495919181
 21
10.75727857394027
 31
0.0
  0
LINE
  5
C72
330
19
100
AcDbEntity
  8
0
100
AcDbLine
 10
4.688021747651199
 20
11.24262131065533
 30
0.0
 11
4.774387193596805
 21
11.38769384692346
 31
0.0
  0
LINE
  5
C73
330
19
100
AcDbEntity
  8
0
100
AcDbLine
 10
4.204309495919181
 20
10.75727857394027
 30
0.0
 11
4.324162081040527
 21
10.73236618309155
 31
0.0
  0
LINE
  5
C74
330
19
100
AcDbEntity
  8
0
100
AcDbLine
 10
4.324162081040527
 20
10.73236618309155
 30
0.0
 11
4.209104552276145
 21
11.00850425212606
 31
0.0
  0
LINE
  5
C75
330
19
100
AcDbEntity
  8
0
100
AcDbLine
 10
4.209104552276145
 20
11.00850425212606
 30
0.0
 11
4.338757578403831
 21
10.98311801827916
 31
0.0
  0
LINE
  5
C76
330
19
100
AcDbEntity
  8
0
100
AcDbLine
 10
4.338757578403832
 20
10.98311801827916
 30
0.0
 11
4.493246623311663
 21
11.24262131065533
 31
0.0
  0
LINE
  5
C77
330
19
100
AcDbEntity
  8
0
100
AcDbLine
 10
4.209104552276145
 20
11.00850425212606
 30
0.0
 11
4.353870662268409
 21
11.00850425212606
 31
0.0
  0
LINE
  5
C78
330
19
100
AcDbEntity
  8
0
100
AcDbLine
 10
4.204309495919181
 20
10.75727857394027
 30
0.0
 11
4.313781918186893
 21
10.75727857394027
 31
0.0
  0
LINE
  5
C79
330
19
100
AcDbEntity
  8
0
100
AcDbLine
 10
3.517758879439726
 20
8.392196098049023
 30
0.0
 11
5.805902951475745
 21
7.641648341618466
 31
0.0
  0
LINE
  5
C7A
330
19
100
AcDbEntity
  8
0
100
AcDbLine
 10
3.517758879439726
 20
8.392196098049023
 30
0.0
 11
3.517758879439726
 21
8.939469734867434
 31
0.0
  0
LINE
  5
C7B
330
19
100
AcDbEntity
  8
0
100
AcDbLine
 10
3.517758879439726
 20
9.741870935467734
 30
0.0
 11
4.256128064032023
 21
9.804902451225612
 31
0.0
  0
LINE
  5
C7C
330
19
100
AcDbEntity
  8
0
100
AcDbLine
 10
4.256128064032023
 20
9.804902451225612
 30
0.0
 11
4.560464450825715
 21
9.765139908227443
 31
0.0
  0
LINE
  5
C7D
330
19
100
AcDbEntity
  8
0
100
AcDbLine
 10
3.517758879439726
 20
9.741870935467734
 30
0.0
 11
4.541270635317665
 21
9.506675970779845
 31
0.0
  0
LINE
  5
C7E
330
19
100
AcDbEntity
  8
0
100
AcDbLine
 10
3.975894931076943
 20
9.780980110607496
 30
0.0
 11
4.659571977457595
 21
9.645793433303247
 31
0.0
  0
LINE
  5
C7F
330
19
100
AcDbEntity
  8
0
100
AcDbLine
 10
3.517758879439726
 20
8.939469734867434
 30
0.0
 11
3.598799399699856
 21
8.992496248124061
 31
0.0
  0
LINE
  5
C80
330
19
100
AcDbEntity
  8
0
100
AcDbLine
 10
3.598799399699856
 20
8.992496248124061
 30
0.0
 11
3.414707353676844
 21
9.170585292646322
 31
0.0
  0
LINE
  5
C81
330
19
100
AcDbEntity
  8
0
100
AcDbLine
 10
3.414707353676844
 20
9.170585292646322
 30
0.0
 11
3.517758879439726
 21
9.212799170669671
 31
0.0
  0
LINE
  5
C82
330
19
100
AcDbEntity
  8
0
100
AcDbLine
 10
3.517758879439725
 20
9.212799170669669
 30
0.0
 11
3.517758879439726
 21
9.741870935467734
 31
0.0
  0
LINE
  5
C83
330
19
100
AcDbEntity
  8
0
100
AcDbLine
 10
3.789894947473743
 20
6.869434717358678
 30
0.0
 11
5.805902951475745
 21
7.354176082372876
 31
0.0
  0
LINE
  5
C84
330
19
100
AcDbEntity
  8
0
100
AcDbLine
 10
3.210605302651332
 20
8.429214607303651
 30
0.0
 11
3.517758879439725
 21
8.491945930193493
 31
0.0
  0
LINE
  5
C85
330
19
100
AcDbEntity
  8
0
100
AcDbLine
 10
4.112056028014013
 20
4.187093546773386
 30
0.0
 11
6.422211105552783
 21
4.895196946704263
 31
0.0
  0
LINE
  5
C8E
330
19
100
AcDbEntity
  8
0
100
AcDbLine
 10
3.564782391195604
 20
7.771885942971485
 30
0.0
 11
3.564782391195604
 21
7.771885942971485
 31
0.0
  0
LINE
  5
C9B
330
19
100
AcDbEntity
  8
0
100
AcDbLine
 10
4.063031515757886
 20
6.114057028514257
 30
0.0
 11
4.063031515757886
 21
6.114057028514257
 31
0.0
  0
LINE
  5
CD7
330
19
100
AcDbEntity
  8
0
100
AcDbLine
 10
3.253626813406709
 20
6.097048524262131
 30
0.0
 11
3.421092589290294
 21
6.18626609918701
 31
0.0
  0
LWPOLYLINE
  5
D74
330
19
100
AcDbEntity
  8
0
100
AcDbPolyline
 90
       31
 70
     0
 43
0.0
 10
7.888944472236125
 20
9.384692346173086
 10
7.927963981991002
 20
9.346673336668333
 10
7.951975987994004
 20
9.367683841920961
 10
7.976988494247131
 20
9.309654827413707
 10
8.050025012506261
 20
9.276638319159579
 10
8.093046523261638
 20
9.243621810905452
 10
8.203101550775395
 20
9.214607303651826
 10
8.252126063031524
 20
9.173586793396698
 10
8.246123061530772
 20
9.12456228114057
 10
8.176088044022018
 20
9.096548274137069
 10
8.187093546773394
 20
9.046523261630815
 10
8.197098549274644
 20
9.011505752876438
 10
8.106053026513264
 20
8.878439219609804
 10
8.148074037018516
 20
8.807403701850925
 10
8.236118059029522
 20
8.863431715857928
 10
8.240120060030023
 20
8.823411705852926
 10
8.470235117558786
 20
8.834417208604302
 10
8.515257628814414
 20
8.813406703351676
 10
8.53026513256629
 20
8.761380690345172
 10
8.548274137068541
 20
8.741370685342671
 10
8.573286643321668
 20
8.700350175087543
 10
8.578289144572294
 20
8.632316158079039
 10
8.628314157078547
 20
8.579289644822412
 10
8.716358179089552
 20
8.57328664332166
 10
8.759379689844929
 20
8.549274637318659
 10
8.792396198099057
 20
8.562281140570285
 10
8.875437718859438
 20
8.514257128564282
 10
8.954477238619317
 20
8.4152076038019
 10
9.121560780390203
 20
8.292146073036518
 10
9.235617808904459
 20
8.268134067033516
 10
9.304802607759893
 20
8.19547303757742
  0
LINE
  5
D90
330
19
100
AcDbEntity
  8
0
100
AcDbLine
 10
9.309654827413715
 20
5.923961980990494
 30
0.0
 11
9.301650825412713
 21
5.961980990495247
 31
0.0
  0
LINE
  5
D91
330
19
100
AcDbEntity
  8
0
100
AcDbLine
 10
9.301650825412713
 20
5.961980990495247
 30
0.0
 11
9.190595297648832
 21
6.062031015507754
 31
0.0
  0
LINE
  5
D92
330
19
100
AcDbEntity
  8
0
100
AcDbLine
 10
9.190595297648832
 20
6.062031015507754
 30
0.0
 11
9.139569784892453
 21
5.972986493246623
 31
0.0
  0
LINE
  5
D93
330
19
100
AcDbEntity
  8
0
100
AcDbLine
 10
9.139569784892453
 20
5.972986493246623
 30
0.0
 11
9.114557278639326
 21
5.844922461230614
 31
0.0
  0
LINE
  5
D94
330
19
100
AcDbEntity
  8
0
100
AcDbLine
 10
9.114557278639326
 20
5.844922461230614
 30
0.0
 11
9.109052025173824
 21
5.718761221135591
 31
0.0
  0
LWPOLYLINE
  5
D96
330
19
100
AcDbEntity
  8
0
100
AcDbPolyline
 90
       15
 70
     0
 43
0.0
 10
8.266827803499639
 20
7.169702742052461
 10
8.256128064032023
 20
7.092546273136568
 10
8.262131065532774
 20
7.022511255627813
 10
8.2831415707854
 20
6.956478239119559
 10
8.302151075537775
 20
6.88744372186093
 10
8.28114057028515
 20
6.849424712356178
 10
8.263131565782899
 20
6.817408704352175
 10
8.257128564282148
 20
6.778389194597298
 10
8.267133566783398
 20
6.675337668834416
 10
8.279139569784899
 20
6.555277638819409
 10
8.284142071035525
 20
6.450225112556278
 10
8.274137068534275
 20
6.369184592296147
 10
8.257128564282148
 20
6.32616308154077
 10
8.238119059529772
 20
6.303151575787894
 10
8.237118559279647
 20
6.298704908009559
  0
LWPOLYLINE
  5
D97
330
19
100
AcDbEntity
  8
0
100
AcDbPolyline
 90
       17
 70
     0
 43
0.0
 10
8.323279385900518
 20
7.185135548751982
 10
8.321160580290153
 20
7.110555277638818
 10
8.322161080540278
 20
7.04952476238119
 10
8.331165582791403
 20
6.971485742871435
 10
8.339169584792403
 20
6.913456728364182
 10
8.350175087543779
 20
6.873436718359179
 10
8.35617808904453
 20
6.844422211105552
 10
8.343171585792904
 20
6.81240620310155
 10
8.325162581290652
 20
6.788394197098548
 10
8.325162581290652
 20
6.746373186593296
 10
8.334167083541779
 20
6.583291645822911
 10
8.336168084042027
 20
6.448224112056027
 10
8.334167083541779
 20
6.321160580290145
 10
8.332166083041528
 20
6.233116558279139
 10
8.286143071535776
 20
6.071035517758879
 10
8.284142071035525
 20
5.92696348174087
 10
8.237118559279647
 20
5.850925462731365
  0
LWPOLYLINE
  5
D98
330
19
100
AcDbEntity
  8
0
100
AcDbPolyline
 90
       23
 70
     0
 43
0.0
 10
8.390580602123849
 20
7.20353444239577
 10
8.376188094047031
 20
7.12656328164082
 10
8.376188094047031
 20
7.016508254127063
 10
8.384192096048031
 20
6.96248124062031
 10
8.401200600300157
 20
6.901450725362681
 10
8.416208104052034
 20
6.854427213606803
 10
8.424212106053034
 20
6.805402701350674
 10
8.424212106053034
 20
6.764382191095547
 10
8.409204602301157
 20
6.716358179089544
 10
8.399199599799907
 20
6.671335667833916
 10
8.409204602301157
 20
6.469234617308653
 10
8.405202601300658
 20
6.366183091545772
 10
8.395197598799406
 20
6.265132566283141
 10
8.385192596298156
 20
6.192096048024011
 10
8.378189094547281
 20
6.067033516758379
 10
8.373186593296655
 20
5.961980990495247
 10
8.379189594797406
 20
5.893946973486743
 10
8.383191595797905
 20
5.833916958479239
 10
8.369184592296156
 20
5.763881940970484
 10
8.317158579289652
 20
5.682841420710354
 10
8.28514257128565
 20
5.596798399199599
 10
8.251125562781398
 20
5.505752876438218
 10
8.237118559279647
 20
5.474767686873739
  0
LWPOLYLINE
  5
D99
330
19
100
AcDbEntity
  8
0
100
AcDbPolyline
 90
       29
 70
     0
 43
0.0
 10
8.44389784586491
 20
7.218110379533615
 10
8.441220610305161
 20
7.119559779889944
 10
8.435217608804409
 20
7.003501750875437
 10
8.443221610805409
 20
6.940470235117558
 10
8.460230115057536
 20
6.884442221110555
 10
8.479239619809912
 20
6.8104052026013
 10
8.489244622311162
 20
6.755377688844422
 10
8.500250125062538
 20
6.701350675337668
 10
8.51825912956479
 20
6.669334667333666
 10
8.53626813406704
 20
6.640320160080039
 10
8.543271635817916
 20
6.587293646823411
 10
8.53626813406704
 20
6.509254627313656
 10
8.521260630315165
 20
6.457228614307152
 10
8.496248124062038
 20
6.400200100050024
 10
8.480240120060037
 20
6.338169084542271
 10
8.474237118559287
 20
6.277138569284642
 10
8.478239119559786
 20
6.188094047023511
 10
8.479239619809912
 20
6.114057028514257
 10
8.473236618309162
 20
6.041020510255127
 10
8.462231115557787
 20
5.937968984492246
 10
8.456228114057035
 20
5.856928464232115
 10
8.451225612806411
 20
5.768884442221109
 10
8.452226113056536
 20
5.711855927963981
 10
8.45322661330666
 20
5.656828414207102
 10
8.449224612306161
 20
5.60680340170085
 10
8.420210105052533
 20
5.536768384192095
 10
8.397198599299657
 20
5.469734867433716
 10
8.387193596798406
 20
5.407703851925962
 10
8.38793151286681
 20
5.397162193805909
  0
LWPOLYLINE
  5
D9A
330
19
100
AcDbEntity
  8
0
100
AcDbPolyline
 90
       24
 70
     0
 43
0.0
 10
8.50958501162453
 20
7.236068021971496
 10
8.502251125562788
 20
7.182591295647823
 10
8.512256128064038
 20
7.089544772386192
 10
8.53026513256629
 20
7.009504752376188
 10
8.548274137068541
 20
6.930465232616307
 10
8.570285142571294
 20
6.848424212106052
 10
8.582291145572794
 20
6.772386193096548
 10
8.589294647323669
 20
6.711355677838919
 10
8.60930465232617
 20
6.643321660830415
 10
8.630315157578796
 20
6.570285142571285
 10
8.636318159079547
 20
6.49824912456228
 10
8.618309154577295
 20
6.419209604802401
 10
8.597298649324669
 20
6.353176588294146
 10
8.585292646323168
 20
6.269134567283641
 10
8.580290145072544
 20
6.185092546273136
 10
8.575287643821918
 20
6.113056528264131
 10
8.561280640320167
 20
6.060030015007503
 10
8.549274637318666
 20
5.985992996498248
 10
8.547273636818416
 20
5.903951975987993
 10
8.548274137068541
 20
5.789894947473736
 10
8.546273136568292
 20
5.719859929964982
 10
8.555277638819417
 20
5.590795397698849
 10
8.544272136068042
 20
5.508754377188594
 10
8.537708709312886
 20
5.456246963147347
  0
LWPOLYLINE
  5
D9B
330
19
100
AcDbEntity
  8
0
100
AcDbPolyline
 90
        8
 70
     0
 43
0.0
 10
8.654327163581797
 20
6.135827913956975
 10
8.637318659329672
 20
6.097048524262131
 10
8.618309154577295
 20
6.003001500750375
 10
8.625312656328172
 20
5.899949974987493
 10
8.632316158079046
 20
5.807903951975987
 10
8.621310655327671
 20
5.68984492246123
 10
8.616308154077046
 20
5.571785892946473
 10
8.62355723896045
 20
5.490112869926781
  0
LWPOLYLINE
  5
D9C
330
19
100
AcDbEntity
  8
0
100
AcDbPolyline
 90
       10
 70
     0
 43
0.0
 10
8.581379831220636
 20
7.255695382724388
 10
8.577288644322168
 20
7.2016008004002
 10
8.581290645322669
 20
7.096548274137068
 10
8.589294647323669
 20
7.036518259129564
 10
8.602301150575295
 20
6.987493746873436
 10
8.622311155577796
 20
6.938469234617308
 10
8.627313656828422
 20
6.880440220110055
 10
8.631315657828921
 20
6.825412706353176
 10
8.644322161080547
 20
6.767383691845923
 10
8.654327163581797
 20
6.749874937468735
  0
LWPOLYLINE
  5
D9D
330
19
100
AcDbEntity
  8
0
100
AcDbPolyline
 90
        8
 70
     0
 43
0.0
 10
9.019840807098907
 20
7.375562412101182
 10
9.02051025512757
 20
7.318659329664832
 10
9.017508754377197
 20
7.257628814407203
 10
9.027513756878447
 20
7.193596798399199
 10
9.037518759379697
 20
7.105552776388193
 10
9.043521760880447
 20
7.012506253126563
 10
9.055527763881948
 20
6.929464732366182
 10
9.071535767883949
 20
6.838419209604802
  0
LWPOLYLINE
  5
D9E
330
19
100
AcDbEntity
  8
0
100
AcDbPolyline
 90
       12
 70
     0
 43
0.0
 10
8.965557616275037
 20
7.360722403098973
 10
8.967483741870943
 20
7.28064032016008
 10
8.973486743371693
 20
7.180590295147574
 10
8.975487743871943
 20
7.101550775387693
 10
8.986493246623319
 20
7.041520760380189
 10
9.001500750375195
 20
6.986493246623311
 10
9.012506253126571
 20
6.918459229614807
 10
9.019509754877445
 20
6.824412206103051
 10
9.029514757378697
 20
6.741370685342671
 10
9.040520260130073
 20
6.676338169084541
 10
9.057528764382198
 20
6.618309154577288
 10
9.071535767883949
 20
6.570285142571285
  0
LWPOLYLINE
  5
D9F
330
19
100
AcDbEntity
  8
0
100
AcDbPolyline
 90
       26
 70
     0
 43
0.0
 10
8.895557386205752
 20
7.341585649554851
 10
8.883441720860438
 20
7.292646323161581
 10
8.883441720860438
 20
7.229614807403701
 10
8.900450225112564
 20
7.177588794397198
 10
8.914457228614314
 20
7.12656328164082
 10
8.922461230615316
 20
7.05952976488244
 10
8.932466233116566
 20
6.988494247123561
 10
8.940470235117566
 20
6.909454727363682
 10
8.942471235617816
 20
6.792396198099049
 10
8.947473736868442
 20
6.728364182091045
 10
8.960480240120067
 20
6.646323161580789
 10
8.977488744372193
 20
6.594297148574286
 10
8.99249624812407
 20
6.554277138569284
 10
9.00050025012507
 20
6.352176088044021
 10
9.001500750375195
 20
6.238119059529764
 10
9.00250125062532
 20
6.187093546773386
 10
8.984492246123068
 20
6.133066533266633
 10
8.945472736368192
 20
6.066033016508253
 10
8.890445222611312
 20
6.001000500250124
 10
8.843421710855434
 20
5.935967983991995
 10
8.818409204602308
 20
5.881940970485242
 10
8.800400200100057
 20
5.788894447223611
 10
8.795397698849431
 20
5.731865932966483
 10
8.788394197098556
 20
5.651825912956477
 10
8.784392196098056
 20
5.587793896948473
 10
8.786139327726017
 20
5.554248969691616
  0
LWPOLYLINE
  5
DA0
330
19
100
AcDbEntity
  8
0
100
AcDbPolyline
 90
       29
 70
     0
 43
0.0
 10
8.838509743675122
 20
7.325989891165183
 10
8.831415707853934
 20
7.281640820410204
 10
8.826413206603309
 20
7.224612306153076
 10
8.82841420710356
 20
7.167583791895948
 10
8.834417208604309
 20
7.131565782891445
 10
8.85642821410706
 20
7.092546273136568
 10
8.865432716358185
 20
7.058529264632315
 10
8.867433716858436
 20
6.990495247623811
 10
8.871435717858937
 20
6.921460730365182
 10
8.879439719859937
 20
6.857428714357178
 10
8.898449224612314
 20
6.780390195097549
 10
8.908454227113564
 20
6.635317658829414
 10
8.918459229614815
 20
6.538269134567283
 10
8.923461730865441
 20
6.466233116558279
 10
8.925462731365689
 20
6.392196098049023
 10
8.896448224112064
 20
6.341170585292645
 10
8.85642821410706
 20
6.288144072036017
 10
8.824412206103059
 20
6.226113056528264
 10
8.794397198599308
 20
6.182091045522761
 10
8.768384192096056
 20
6.152076038019009
 10
8.745372686343179
 20
6.097048524262131
 10
8.733366683341679
 20
6.034017008504251
 10
8.727363681840927
 20
5.941970985492746
 10
8.724362181090552
 20
5.878939469734867
 10
8.720360180090053
 20
5.801900950475237
 10
8.715357678839427
 20
5.708854427213606
 10
8.709354677338677
 20
5.625812906453226
 10
8.699349674837427
 20
5.564782391195597
 10
8.699856161039929
 20
5.5202116053754
  0
LWPOLYLINE
  5
DA1
330
19
100
AcDbEntity
  8
0
100
AcDbPolyline
 90
       13
 70
     0
 43
0.0
 10
8.778240697521897
 20
7.309513461281568
 10
8.779389694847431
 20
7.194597298649324
 10
8.788394197098556
 20
7.090545272636318
 10
8.794397198599308
 20
6.96648324162081
 10
8.807403701850932
 20
6.862431215607804
 10
8.816408204102059
 20
6.804402201100549
 10
8.827413706853434
 20
6.733366683341671
 10
8.832416208104059
 20
6.651325662831415
 10
8.816408204102059
 20
6.557278639319659
 10
8.78339169584793
 20
6.481240620310154
 10
8.736368184092052
 20
6.421210605302651
 10
8.693346673336675
 20
6.365182591295647
 10
8.654327163581797
 20
6.333257537859837
  0
LWPOLYLINE
  5
DA2
330
19
100
AcDbEntity
  8
0
100
AcDbPolyline
 90
       12
 70
     0
 43
0.0
 10
8.719244139286122
 20
7.293384905792651
 10
8.719359679839927
 20
7.200600300150074
 10
8.724362181090552
 20
7.12856428214107
 10
8.734367183591804
 20
7.061530765382691
 10
8.742371185592804
 20
6.994497248624311
 10
8.741370685342679
 20
6.936468234117058
 10
8.751375687843929
 20
6.877438719359679
 10
8.758379189594805
 20
6.823411705852926
 10
8.753376688344179
 20
6.761380690345172
 10
8.732366183091553
 20
6.691345672836418
 10
8.706353176588301
 20
6.651325662831415
 10
8.654327163581797
 20
6.552750059240146
  0
LINE
  5
DA3
330
19
100
AcDbEntity
  8
0
100
AcDbLine
 10
9.071535767883949
 20
5.707261824580818
 30
0.0
 11
9.4847423711856
 21
5.833916958479239
 31
0.0
  0
LINE
  5
DA4
330
19
100
AcDbEntity
  8
0
100
AcDbLine
 10
7.107553776888452
 20
4.758714695693711
 30
0.0
 11
7.107553776888452
 21
4.202847692502967
 31
0.0
  0
LWPOLYLINE
  5
DA5
330
19
100
AcDbEntity
  8
0
100
AcDbPolyline
 90
       58
 70
     0
 43
0.0
 10
4.364182091045529
 20
3.623811905952975
 10
4.423211605802908
 20
3.468734367183591
 10
4.477238619309661
 20
3.422711355677838
 10
4.703351675837926
 20
3.522761380690344
 10
4.85242621310656
 20
3.560780390195097
 10
4.879439719859937
 20
3.600800400200099
 10
4.916458229114564
 20
3.617808904452225
 10
4.980490245122568
 20
3.680840420210104
 10
5.329664832416214
 20
3.755877938969483
 10
5.363681840920467
 20
3.77488744372186
 10
5.425712856428221
 20
3.800900450225111
 10
5.449724862431222
 20
3.802901450725362
 10
5.595797898949481
 20
3.876938469234616
 10
5.636818409204609
 20
3.875937968984491
 10
5.662831415707861
 20
3.865932966483241
 10
5.759879939969991
 20
3.847923961980989
 10
5.857928964482248
 20
3.840920460230114
 10
5.979989994997506
 20
3.839919959979989
 10
6.049024512256135
 20
3.852926463231615
 10
6.188094047023519
 20
3.977988994497248
 10
6.275137568784399
 20
4.016008004002
 10
6.478239119559786
 20
3.991995997998998
 10
6.497248624312163
 20
4.004002001000499
 10
6.535267633816916
 20
3.995997998999498
 10
6.640320160080047
 20
4.047023511755877
 10
6.6903451725863
 20
4.057028514257127
 10
6.761380690345179
 20
4.100050025012505
 10
6.888444222111063
 20
4.111055527763881
 10
6.985492746373193
 20
4.125062531265632
 10
7.0815407703852
 20
4.188094047023511
 10
7.148574287143579
 20
4.226113056528263
 10
7.261630815407711
 20
4.275137568784391
 10
7.477738869434725
 20
4.290145072536268
 10
7.477738869434725
 20
4.290145072536268
 10
7.72986493246624
 20
4.432216108054026
 10
7.837918959479747
 20
4.483241620810404
 10
8.385192596298156
 20
4.485242621310654
 10
8.512256128064038
 20
4.586293146573286
 10
8.531265632816416
 20
4.641320660330164
 10
8.615307653826921
 20
4.741370685342671
 10
8.77538769384693
 20
4.908454227113555
 10
8.779389694847431
 20
4.941470735367683
 10
8.807403701850932
 20
4.977488744372185
 10
8.811405702851433
 20
5.040520260130064
 10
8.831415707853934
 20
5.097548774387192
 10
8.880440220110062
 20
5.109554777388693
 10
8.92746373186594
 20
5.077538769384692
 10
9.043521760880447
 20
5.098549274637318
 10
9.074537268634325
 20
5.135567783891945
 10
9.296648324162089
 20
5.243621810905452
 10
9.337668834417215
 20
5.258629314657328
 10
9.372686343171592
 20
5.275637818909454
 10
9.424712356178096
 20
5.280640320160079
 10
9.453726863431724
 20
5.304652326163081
 10
9.456728364182098
 20
5.729864932466232
 10
9.477738869434724
 20
5.717858929464732
 10
9.485742871435726
 20
5.755877938969484
 10
9.4847423711856
 20
5.833916958479239
  0
LINE
  5
DA6
330
19
100
AcDbEntity
  8
0
100
AcDbLine
 10
7.270635317658836
 20
4.912969305165403
 30
0.0
 11
7.270635317658837
 21
4.275762881440719
 31
0.0
  0
LINE
  5
DA7
330
19
100
AcDbEntity
  8
0
100
AcDbLine
 10
8.477292231052369
 20
7.996501352558148
 30
0.0
 11
9.304802607759893
 21
8.19547303757742
 31
0.0
  0
LINE
  5
DA8
330
19
100
AcDbEntity
  8
0
100
AcDbLine
 10
7.246361924690296
 20
9.253454892600315
 30
0.0
 11
7.888944472236125
 21
9.384692346173086
 31
0.0
  0
LINE
  5
DAC
330
19
100
AcDbEntity
  8
0
100
AcDbLine
 10
4.541270635317665
 20
9.531765882941471
 30
0.0
 11
4.541270635317665
 21
8.496248124062031
 31
0.0
  0
LINE
  5
DAD
330
19
100
AcDbEntity
  8
0
100
AcDbLine
 10
4.541270635317665
 20
8.496248124062031
 30
0.0
 11
5.805902951475745
 21
8.128902546511352
 31
0.0
  0
LINE
  5
DAE
330
19
100
AcDbEntity
  8
0
100
AcDbLine
 10
4.541270635317665
 20
9.531765882941471
 30
0.0
 11
5.877938969484749
 21
9.251625812906452
 31
0.0
  0
LINE
  5
DAF
330
19
100
AcDbEntity
  8
0
100
AcDbLine
 10
5.877938969484749
 20
9.251625812906452
 30
0.0
 11
5.877938969484749
 21
8.788530537813999
 31
0.0
  0
LINE
  5
DB0
330
19
100
AcDbEntity
  8
0
100
AcDbLine
 10
4.574287143571793
 20
9.561780890445224
 30
0.0
 11
5.910955477738876
 21
9.281640820410205
 31
0.0
  0
LINE
  5
DB1
330
19
100
AcDbEntity
  8
0
100
AcDbLine
 10
5.910955477738876
 20
9.281640820410205
 30
0.0
 11
5.910955477738876
 21
8.79302978142378
 31
0.0
  0
LINE
  5
DB2
330
19
100
AcDbEntity
  8
0
100
AcDbLine
 10
5.877938969484749
 20
9.251625812906452
 30
0.0
 11
5.910955477738876
 21
9.281640820410205
 31
0.0
  0
LINE
  5
DB4
330
19
100
AcDbEntity
  8
0
100
AcDbLine
 10
4.762008550563998
 20
9.522438080596556
 30
0.0
 11
4.009004502251132
 21
10.42921460730365
 31
0.0
  0
LINE
  5
DB5
330
19
100
AcDbEntity
  8
0
100
AcDbLine
 10
4.541270635317665
 20
9.531765882941471
 30
0.0
 11
4.574287143571793
 21
9.561780890445224
 31
0.0
  0
LWPOLYLINE
  5
DB6
330
19
100
AcDbEntity
  8
0
100
AcDbPolyline
 90
       25
 70
     0
 43
0.0
 10
9.304802607759893
 20
8.19547303757742
 10
9.227613806903459
 20
7.879939969984992
 10
9.265632816408211
 20
7.783891945972986
 10
9.281640820410212
 20
7.720860430215107
 10
9.261630815407711
 20
7.69184592296148
 10
9.25562781390696
 20
7.655827913956978
 10
9.220610305152583
 20
7.614807403701851
 10
9.266633316658336
 20
7.278639319659829
 10
9.266633316658336
 20
7.219609804902451
 10
9.249624812406211
 20
7.154577288644322
 10
9.251625812906461
 20
7.044522261130565
 10
9.214607303651833
 20
6.974487243621811
 10
9.16458229114558
 20
6.870435217608804
 10
9.136568284142077
 20
6.805402701350674
 10
9.151575787893954
 20
6.698349174587293
 10
9.201600800400207
 20
6.630315157578789
 10
9.236618309154585
 20
6.58129064532266
 10
9.303651825912963
 20
6.546273136568283
 10
9.303651825912963
 20
6.517258629314656
 10
9.270635317658837
 20
6.477238619309654
 10
9.230615307653833
 20
6.384192096048023
 10
9.217608804402209
 20
6.227113556778389
 10
9.171585792896455
 20
6.129064532266132
 10
9.121560780390203
 20
6.030015007503751
 10
9.071535767883949
 20
5.924406647768327
  0
LWPOLYLINE
  5
DB7
330
19
100
AcDbEntity
  8
0
100
AcDbPolyline
 90
       78
 70
     1
 43
0.0
 10
4.175087543771893
 20
4.909454727363681
 10
4.126063031515765
 20
4.97248624312156
 10
3.972986493246629
 20
5.008504252126063
 10
3.883941970985499
 20
5.077538769384692
 10
3.853926963481747
 20
5.230615307653826
 10
3.870935467733873
 20
5.317658829414707
 10
3.809904952476244
 20
5.362681340670334
 10
3.733866933466739
 20
5.507753876938469
 10
3.693846923461737
 20
5.597798899449724
 10
3.672836418209111
 20
5.643821910955477
 10
3.603801900950481
 20
5.671835917958979
 10
3.593796898449231
 20
5.773886943471736
 10
3.604802401200606
 20
5.872936468234117
 10
3.584792396198105
 20
5.945972986493246
 10
3.520760380190101
 20
6.064032016008003
 10
3.361680840420216
 20
6.25912956478239
 10
3.386693346673343
 20
6.48024012006003
 10
3.410705352676344
 20
6.708354177088544
 10
3.381690845422718
 20
6.764382191095547
 10
3.410705352676344
 20
6.804402201100549
 10
3.414707353676844
 20
6.844422211105552
 10
3.393696848424218
 20
6.876438219109554
 10
3.361680840420216
 20
6.88944472236118
 10
3.297648824412212
 20
6.995497748874437
 10
3.284642321160586
 20
7.058529264632315
 10
3.297648824412212
 20
7.110555277638818
 10
3.313656828414213
 20
7.173586793396698
 10
3.274637318659336
 20
7.270635317658829
 10
3.256628314157084
 20
7.36168084042021
 10
3.289644822411212
 20
7.44872436218109
 10
3.322661330665339
 20
7.532766383191595
 10
3.321660830415214
 20
7.595797898949474
 10
3.26963481740871
 20
7.698849424712356
 10
3.200600300150081
 20
7.792896448224112
 10
3.209604802401207
 20
8.129064532266133
 10
3.240620310155084
 20
8.160080040020009
 10
3.260630315157585
 20
8.182091045522761
 10
3.235617808904458
 20
8.239119559779889
 10
3.210605302651332
 20
8.429214607303651
 10
3.300650325162587
 20
8.310155077538768
 10
3.300650325162587
 20
8.310155077538768
 10
3.345672836418215
 20
8.189094547273637
 10
3.345672836418215
 20
8.189094547273637
 10
3.333666833416714
 20
7.890945472736368
 10
3.333666833416714
 20
7.890945472736368
 10
3.446723361680847
 20
7.837918959479739
 10
3.564782391195604
 20
7.771885942971485
 10
3.676838419209611
 20
7.600800400200099
 10
3.766883441720867
 20
7.480740370185092
 10
3.789894947473743
 20
6.869434717358678
 10
3.789894947473743
 20
6.869434717358678
 10
3.946973486743378
 20
6.713356678339169
 10
3.935967983992002
 20
6.57328664332166
 10
3.935967983992002
 20
6.57328664332166
 10
3.962981490745379
 20
6.472236118059029
 10
3.943971985993003
 20
6.370185092546272
 10
3.993996998499255
 20
6.264132066033016
 10
4.063031515757886
 20
6.114057028514257
 10
4.031015507753883
 20
5.85792896448224
 10
4.114057028514264
 20
5.669834917458728
 10
4.114057028514264
 20
5.669834917458728
 10
4.114057028514264
 20
5.669834917458728
 10
4.114057028514264
 20
5.669834917458728
 10
4.300150075037525
 20
5.393696848424211
 10
4.265132566283148
 20
5.237618809404702
 10
4.241120560280146
 20
5.120560280140069
 10
4.254127063531772
 20
5.040520260130064
 10
4.29314657328665
 20
5.001500750375187
 10
4.414207103551783
 20
4.863431715857928
 10
4.471235617808911
 20
4.776388194097048
 10
4.557278639319667
 20
4.655327663831915
 10
4.574287143571793
 20
4.516258129064531
 10
4.628548759682301
 20
4.34540770623819
 10
4.564282141070541
 20
4.469234617308653
 10
4.514257128564289
 20
4.539269634817408
 10
4.433216608304159
 20
4.638319159579789
 10
4.331165582791402
 20
4.716358179089544
 10
4.229114557278646
 20
4.730365182591295
  0
LWPOLYLINE
  5
DB8
330
19
100
AcDbEntity
  8
0
100
AcDbPolyline
 90
       66
 70
     1
 43
0.0
 10
3.933966983491752
 20
4.547273636818408
 10
3.987993996998505
 20
4.473236618309153
 10
3.983991995998005
 20
4.426213106553275
 10
3.98099049524763
 20
4.347173586793396
 10
4.034017008504259
 20
4.293146573286642
 10
4.112056028014013
 20
4.187093546773386
 10
4.106053026513263
 20
4.120060030015006
 10
4.13706853426714
 20
4.120060030015006
 10
4.202101050525269
 20
4.055027513756877
 10
4.250125062531272
 20
3.994997498749374
 10
4.296148074037025
 20
3.952976488244121
 10
4.332166083041527
 20
3.916958479239619
 10
4.364182091045529
 20
3.623811905952975
 10
4.289144572286149
 20
3.671835917958978
 10
4.170085042521267
 20
3.732866433216607
 10
4.117058529264638
 20
3.845922961480739
 10
4.079039519759887
 20
3.895947973986992
 10
4.005002501250631
 20
3.926963481740869
 10
3.778889444722367
 20
4.035017508754376
 10
3.760880440220116
 20
4.08904452226113
 10
3.776888444222117
 20
4.17008504252126
 10
3.738869434717365
 20
4.277138569284642
 10
3.735867933966989
 20
4.34017008504252
 10
3.725862931465739
 20
4.412206103051525
 10
3.685842921460736
 20
4.49424712356178
 10
3.555777888944478
 20
4.804402201100549
 10
3.541770885442727
 20
4.852426213106552
 10
3.57578789394698
 20
4.993496748374186
 10
3.57578789394698
 20
5.048524262131065
 10
3.554777388694353
 20
5.086543271635817
 10
3.527763881940977
 20
5.112556278139069
 10
3.370685342671342
 20
5.339669834917458
 10
3.397698849424718
 20
5.418709354677338
 10
3.393696848424218
 20
5.451725862931465
 10
3.371685842921467
 20
5.493746873436717
 10
3.308654327163588
 20
5.584792396198099
 10
3.303651825912962
 20
5.607803901950975
 10
3.274637318659336
 20
5.609804902451224
 10
3.280640320160086
 20
5.879939969984992
 10
3.280640320160086
 20
5.919959979989995
 10
3.253626813406709
 20
6.097048524262131
 10
3.301650825412712
 20
6.01000500250125
 10
3.322661330665339
 20
5.954977488744372
 10
3.33866933466734
 20
5.888944472236117
 10
3.361680840420216
 20
5.877938969484742
 10
3.391695847923968
 20
5.773886943471736
 10
3.389694847423718
 20
5.707853926963481
 10
3.406703351675844
 20
5.681840920460229
 10
3.464732366183097
 20
5.633816908454226
 10
3.50275137568785
 20
5.481740870435217
 10
3.520760380190101
 20
5.421710855427713
 10
3.550775387693853
 20
5.376688344172085
 10
3.611805902951482
 20
5.319659829914957
 10
3.669834917458736
 20
5.250625312656327
 10
3.693846923461737
 20
5.165582791395697
 10
3.718859429714863
 20
5.06353176588294
 10
3.726863431715864
 20
4.995497748874437
 10
3.704852426213113
 20
4.954477238619309
 10
3.790895447723868
 20
4.880440220110054
 10
3.83091545772887
 20
4.830415207603801
 10
3.869934967483748
 20
4.769384692346172
 10
3.892946473236624
 20
4.722361180590294
 10
3.898949474737375
 20
4.691345672836417
 10
3.921960980490251
 20
4.666333166583291
 10
3.933966983491752
 20
4.626313156578288
 10
3.952976488244128
 20
4.588294147073536
  0
LINE
  5
DB9
330
19
100
AcDbEntity
  8
0
100
AcDbLine
 10
7.273636818409212
 20
6.497905128617318
 30
0.0
 11
7.27363681840921
 21
4.918433575762238
 31
0.0
  0
LINE
  5
DBA
330
19
100
AcDbEntity
  8
0
100
AcDbLine
 10
6.541270635317666
 20
4.543271635817908
 30
0.0
 11
7.206603301650833
 21
4.796398199099549
 31
0.0
  0
LINE
  5
DBB
330
19
100
AcDbEntity
  8
0
100
AcDbLine
 10
7.206603301650833
 20
4.796398199099549
 30
0.0
 11
7.27363681840921
 21
4.918433575762238
 31
0.0
  0
LINE
  5
DBC
330
19
100
AcDbEntity
  8
0
100
AcDbLine
 10
6.541270635317666
 20
4.543271635817908
 30
0.0
 11
6.458229114557286
 21
4.607303651825912
 31
0.0
  0
LINE
  5
DBD
330
19
100
AcDbEntity
  8
0
100
AcDbLine
 10
6.458229114557286
 20
4.607303651825912
 30
0.0
 11
6.458229114557286
 21
6.302324002865091
 31
0.0
  0
LINE
  5
DBE
330
19
100
AcDbEntity
  8
0
100
AcDbLine
 10
6.422211105552784
 20
4.612306153076538
 30
0.0
 11
6.422211105552785
 21
6.347173586793407
 31
0.0
  0
LINE
  5
DBF
330
19
100
AcDbEntity
  8
0
100
AcDbLine
 10
6.505252626313165
 20
4.548274137068535
 30
0.0
 11
6.422211105552784
 21
4.612306153076538
 31
0.0
  0
LINE
  5
DC0
330
19
100
AcDbEntity
  8
0
100
AcDbLine
 10
6.458229114557286
 20
4.607303651825912
 30
0.0
 11
6.422211105552784
 21
4.612306153076538
 31
0.0
  0
LINE
  5
DC1
330
19
100
AcDbEntity
  8
0
100
AcDbLine
 10
6.541270635317666
 20
4.543271635817908
 30
0.0
 11
6.505252626313165
 21
4.548274137068535
 31
0.0
  0
LINE
  5
DC2
330
19
100
AcDbEntity
  8
0
100
AcDbLine
 10
7.27363681840921
 20
5.156173990160814
 30
0.0
 11
8.161771292806899
 21
5.428402918439883
 31
0.0
  0
LINE
  5
DC3
330
19
100
AcDbEntity
  8
0
100
AcDbLine
 10
6.338967958870357
 20
6.485302796770259
 30
0.0
 11
5.955179114666424
 21
6.654648473829067
 31
0.0
  0
LINE
  5
DC4
330
19
100
AcDbEntity
  8
0
100
AcDbLine
 10
5.835917958979496
 20
8.653326663331665
 30
0.0
 11
5.835917958979495
 21
6.837627267734233
 31
0.0
  0
LINE
  5
DC5
330
19
100
AcDbEntity
  8
0
100
AcDbLine
 10
5.835917958979496
 20
8.653326663331665
 30
0.0
 11
5.906953476738376
 21
8.781390695347673
 31
0.0
  0
LINE
  5
DC6
330
19
100
AcDbEntity
  8
0
100
AcDbLine
 10
5.906953476738376
 20
8.781390695347673
 30
0.0
 11
6.431662893904197
 21
8.852894183057645
 31
0.0
  0
LINE
  5
DC7
330
19
100
AcDbEntity
  8
0
100
AcDbLine
 10
5.876938469234625
 20
8.788394197098549
 30
0.0
 11
6.425677361718223
 21
8.863172242567259
 31
0.0
  0
LINE
  5
DC8
330
19
100
AcDbEntity
  8
0
100
AcDbLine
 10
5.805902951475745
 20
8.660330165082542
 30
0.0
 11
5.876938469234625
 21
8.788394197098549
 31
0.0
  0
LINE
  5
DC9
330
19
100
AcDbEntity
  8
0
100
AcDbLine
 10
5.805902951475745
 20
8.660330165082542
 30
0.0
 11
5.805902951475746
 21
6.807450305305401
 31
0.0
  0
LINE
  5
DCA
330
19
100
AcDbEntity
  8
0
100
AcDbLine
 10
5.835917958979496
 20
8.653326663331665
 30
0.0
 11
5.805902951475745
 21
8.660330165082542
 31
0.0
  0
LINE
  5
DCB
330
19
100
AcDbEntity
  8
0
100
AcDbLine
 10
5.906953476738376
 20
8.781390695347673
 30
0.0
 11
5.876938469234625
 21
8.788394197098549
 31
0.0
  0
ARC
  5
DCE
330
19
100
AcDbEntity
  8
0
100
AcDbCircle
 10
6.035917958979495
 20
6.837627267734233
 30
0.0
 40
0.2
100
AcDbArc
 50
180.0
 51
246.1906738047536
  0
ARC
  5
DD0
330
19
100
AcDbEntity
  8
0
100
AcDbCircle
 10
6.007687752606572
 20
6.853092690492542
 30
0.0
 40
0.2052736324653273
100
AcDbArc
 50
190.5785968165102
 51
255.1791090751032
  0
ARC
  5
DD1
330
19
100
AcDbEntity
  8
0
100
AcDbCircle
 10
6.258229114557286
 20
6.302324002865091
 30
0.0
 40
0.2
100
AcDbArc
 50
0.0
 51
66.19067380475379
  0
ARC
  5
DD2
330
19
100
AcDbEntity
  8
0
100
AcDbCircle
 10
6.211259458062272
 20
6.316081654442212
 30
0.0
 40
0.2120029626902832
100
AcDbArc
 50
5.708378624170321
 51
52.95872653354206
  0
LINE
  5
DD3
330
19
100
AcDbEntity
  8
0
100
AcDbLine
 10
6.657328664332172
 20
8.739117180774059
 30
0.0
 11
6.657328664332173
 21
7.68984492246123
 31
0.0
  0
LINE
  5
DD4
330
19
100
AcDbEntity
  8
0
100
AcDbLine
 10
6.481093431714893
 20
8.860366366942571
 30
0.0
 11
6.580770251516006
 21
8.836330821742303
 31
0.0
  0
LINE
  5
DD5
330
19
100
AcDbEntity
  8
0
100
AcDbLine
 10
6.468606940568644
 20
8.851023599307851
 30
0.0
 11
6.548037194470057
 21
8.831870204750064
 31
0.0
  0
ARC
  5
DDB
330
19
100
AcDbEntity
  8
0
100
AcDbCircle
 10
6.557328664332172
 20
8.739117180774059
 30
0.0
 40
0.1
100
AcDbArc
 50
0.0000000000000509
 51
76.44280707046364
  0
ARC
  5
DDC
330
19
100
AcDbEntity
  8
0
100
AcDbCircle
 10
6.534609261870866
 20
8.733112125351427
 30
0.0
 40
0.0996667829339132
100
AcDbArc
 50
1.643231134576401
 51
82.25709301417614
  0
LINE
  5
DDF
330
19
100
AcDbEntity
  8
0
100
AcDbLine
 10
6.634235058126659
 20
8.735970156281121
 30
0.0
 11
6.634235058126659
 21
7.657876970039737
 31
0.0
  0
LINE
  5
DE0
330
19
100
AcDbEntity
  8
0
100
AcDbLine
 10
6.445165353384811
 20
8.853809958339607
 30
0.0
 11
6.445165353384812
 21
7.658323820832793
 31
0.0
  0
ARC
  5
DE1
330
19
100
AcDbEntity
  8
0
100
AcDbCircle
 10
6.445165353384811
 20
8.753809958339607
 30
0.0
 40
0.1
100
AcDbArc
 50
76.44280707046404
 51
97.76004208895283
  0
ARC
  5
DE2
330
19
100
AcDbEntity
  8
0
100
AcDbCircle
 10
6.445931050939145
 20
8.714545905490205
 30
0.0
 40
0.15
100
AcDbArc
 50
76.44280707046448
 51
97.76004208895334
  0
ARC
  5
DE4
330
19
100
AcDbEntity
  8
0
100
AcDbCircle
 10
6.443336509754944
 20
7.573446828528775
 30
0.0
 40
0.0848966930545521
100
AcDbArc
 50
88.76563946510994
 51
274.9891432778225
  0
ARC
  5
DE5
330
19
100
AcDbEntity
  8
0
100
AcDbCircle
 10
6.487397791866812
 20
7.659469716902228
 30
0.0
 40
0.0597672036397754
100
AcDbArc
 50
17.89935222559187
 51
134.9602141805289
  0
ARC
  5
DE6
330
19
100
AcDbEntity
  8
0
100
AcDbCircle
 10
6.598210927140094
 20
7.708226125608944
 30
0.0
 40
0.06190941349964
100
AcDbArc
 50
209.395371386164
 51
342.7282061912931
  0
LINE
  5
DE7
330
19
100
AcDbEntity
  8
0
100
AcDbLine
 10
7.457524175079922
 20
9.037828437732255
 30
0.0
 11
7.624812406203109
 21
9.071535767883942
 31
0.0
  0
LINE
  5
DE8
330
19
100
AcDbEntity
  8
0
100
AcDbLine
 10
7.495406754255605
 20
8.999144978762487
 30
0.0
 11
7.684736395138069
 21
9.037293488492535
 31
0.0
  0
LINE
  5
DE9
330
19
100
AcDbEntity
  8
0
100
AcDbLine
 10
7.624812406203109
 20
9.071535767883942
 30
0.0
 11
7.684736395138069
 21
9.037293488492535
 31
0.0
  0
LINE
  5
DEA
330
19
100
AcDbEntity
  8
0
100
AcDbLine
 10
7.684736395138069
 20
9.037293488492535
 30
0.0
 11
7.753876938469242
 21
8.945472736368183
 31
0.0
  0
LINE
  5
DEB
330
19
100
AcDbEntity
  8
0
100
AcDbLine
 10
7.753876938469242
 20
8.945472736368183
 30
0.0
 11
7.753876938469243
 21
8.735210447811779
 31
0.0
  0
LWPOLYLINE
  5
DEC
330
19
100
AcDbEntity
  8
0
100
AcDbPolyline
 90
        7
 70
     0
 43
0.0
 10
8.246123061530772
 20
9.12456228114057
 10
8.234117058529272
 20
9.066533266633316
 10
8.227113556778397
 20
9.020510255127563
 10
8.22011005502752
 20
8.976488244122061
 10
8.222111055527771
 20
8.934467233616807
 10
8.225112556278146
 20
8.913456728364182
 10
8.236118059029522
 20
8.863431715857928
  0
ARC
  5
DF5
330
19
100
AcDbEntity
  8
0
  6
DASHED
100
AcDbCircle
 10
6.451586533902599
 20
7.549213809515427
 30
0.0
 40
0.1992285975662141
100
AcDbArc
 50
141.2790324858111
 51
252.0524825479398
  0
ARC
  5
DF6
330
19
100
AcDbEntity
  8
0
  6
DASHED
100
AcDbCircle
 10
6.451586533902599
 20
7.549213809515427
 30
0.0
 40
0.2792285975662142
100
AcDbArc
 50
141.2790324858111
 51
252.0524825479398
  0
ARC
  5
DF8
330
19
100
AcDbEntity
  8
0
  6
DASHED
100
AcDbCircle
 10
6.264940012189596
 20
7.698858047045427
 30
0.0
 40
0.0400000000000002
100
AcDbArc
 50
321.2790324858103
 51
141.2790324858102
  0
ARC
  5
DFA
330
19
100
AcDbEntity
  8
0
  6
DASHED
100
AcDbCircle
 10
6.377869269408889
 20
7.321626272929914
 30
0.0
 40
0.0400000000000004
100
AcDbArc
 50
252.0524825479386
 51
72.052482547941
  0
ARC
  5
DFC
330
19
100
AcDbEntity
  8
0
  6
DASHED
100
AcDbCircle
 10
6.050525262631322
 20
8.662714122592359
 30
0.0
 40
0.0398850170068959
100
AcDbArc
 50
7.760042088951392
 51
187.7600420889564
  0
ARC
  5
DFE
330
19
100
AcDbEntity
  8
0
  6
DASHED
100
AcDbCircle
 10
6.394445692552717
 20
7.05668955652092
 30
0.0
 40
0.041816730220257
100
AcDbArc
 50
244.8670450070863
 51
64.86704500708626
  0
LWPOLYLINE
  5
E02
330
19
100
AcDbEntity
  8
0
  6
DASHED
100
AcDbPolyline
 90
        4
 70
   128
 43
0.0
 10
6.412206103051533
 20
7.094547273636818
 10
6.159078597144376
 20
7.213298449247586
 42
-0.2908441147418461
 10
6.090045022511262
 20
7.321937408582262
 10
6.090045022511262
 20
8.668099580852552
  0
LWPOLYLINE
  5
E03
330
19
100
AcDbEntity
  8
0
  6
DASHED
100
AcDbPolyline
 90
        4
 70
   128
 43
0.0
 10
6.3766852820539
 20
7.018831839405023
 10
6.126061460473238
 20
7.13640844706015
 42
-0.290844114741845
 10
6.011005502751383
 20
7.317473379284611
 10
6.011005502751383
 20
8.657328664332166
  0
LINE
  5
E06
330
19
100
AcDbEntity
  8
0
100
AcDbLine
 10
9.4847423711856
 20
5.833916958479239
 30
0.0
 11
9.358679339669843
 21
5.898949474737368
 31
0.0
  0
LINE
  5
E07
330
19
100
AcDbEntity
  8
0
100
AcDbLine
 10
9.358679339669843
 20
5.898949474737368
 30
0.0
 11
9.309654827413715
 21
5.923961980990494
 31
0.0
  0
LWPOLYLINE
  5
E08
330
19
100
AcDbEntity
  8
0
100
AcDbPolyline
 90
        7
 70
     0
 43
0.0
 10
9.303651825912963
 20
6.546273136568283
 10
9.296648324162089
 20
6.582291145572786
 10
9.284642321160588
 20
6.657328664332165
 10
9.259629814907461
 20
6.718359179589794
 10
9.212606303151583
 20
6.770385192596297
 10
9.178589294647331
 20
6.8104052026013
 10
9.148591134127374
 20
6.83331288881654
  0
LWPOLYLINE
  5
E0F
330
19
100
AcDbEntity
  8
0
100
AcDbPolyline
 90
        3
 70
     1
 43
0.0
 10
6.192096048024019
 20
6.941470735367683
 10
6.256128064032023
 20
6.958479239619809
 10
6.218109054527271
 20
7.011505752876437
  0
LWPOLYLINE
  5
E10
330
19
100
AcDbEntity
  8
0
100
AcDbPolyline
 90
        3
 70
     1
 43
0.0
 10
6.820410205102558
 20
6.631315657828914
 10
6.884442221110562
 20
6.64832416208104
 10
6.84642321160581
 20
6.701350675337668
  0
LWPOLYLINE
  5
E11
330
19
100
AcDbEntity
  8
0
100
AcDbPolyline
 90
        3
 70
     1
 43
0.0
 10
6.574287143571793
 20
5.636818409204602
 10
6.638319159579797
 20
5.653826913456728
 10
6.600300150075045
 20
5.706853426713356
  0
LWPOLYLINE
  5
E12
330
19
100
AcDbEntity
  8
0
100
AcDbPolyline
 90
        3
 70
     1
 43
0.0
 10
7.005502751375694
 20
5.420710355177588
 10
7.069534767383698
 20
5.437718859429714
 10
7.031515757878946
 20
5.490745372686343
  0
LWPOLYLINE
  5
E13
330
19
100
AcDbEntity
  8
0
100
AcDbPolyline
 90
        3
 70
     1
 43
0.0
 10
6.845422711355685
 20
4.750375187593796
 10
6.909454727363689
 20
4.767383691845922
 10
6.871435717858937
 20
4.82041020510255
  0
LINE
  5
E18
330
19
100
AcDbEntity
  8
0
100
AcDbLine
 10
5.772886443221617
 20
9.21560780390195
 30
0.0
 11
5.571698021943144
 21
9.258530355588226
 31
0.0
  0
LINE
  5
E19
330
19
100
AcDbEntity
  8
0
100
AcDbLine
 10
5.772886443221617
 20
8.945472736368183
 30
0.0
 11
5.571698021943143
 21
8.992874082745574
 31
0.0
  0
LINE
  5
E1A
330
19
100
AcDbEntity
  8
0
100
AcDbLine
 10
5.772886443221617
 20
8.69859466361601
 30
0.0
 11
5.571698021943143
 21
8.74902494750223
 31
0.0
  0
LINE
  5
E1B
330
19
100
AcDbEntity
  8
0
100
AcDbLine
 10
5.772886443221617
 20
8.42515056654965
 30
0.0
 11
5.571698021943144
 21
8.478566531675114
 31
0.0
  0
LINE
  5
E1C
330
19
100
AcDbEntity
  8
0
100
AcDbLine
 10
5.772886443221617
 20
9.21560780390195
 30
0.0
 11
5.772886443221617
 21
9.163581790895446
 31
0.0
  0
LINE
  5
E1E
330
19
100
AcDbEntity
  8
0
100
AcDbLine
 10
5.772886443221617
 20
9.163581790895448
 30
0.0
 11
5.571698021943143
 21
9.207602807502076
 31
0.0
  0
LINE
  5
E1F
330
19
100
AcDbEntity
  8
0
100
AcDbLine
 10
5.458867699957316
 20
9.282602145090031
 30
0.0
 11
5.458867699957317
 21
9.232290637180871
 31
0.0
  0
LINE
  5
E20
330
19
100
AcDbEntity
  8
0
100
AcDbLine
 10
5.144848956693014
 20
9.349596486278113
 30
0.0
 11
5.144848956693014
 21
9.300999483466294
 31
0.0
  0
LINE
  5
E21
330
19
100
AcDbEntity
  8
0
100
AcDbLine
 10
4.830830213428713
 20
9.416590827466195
 30
0.0
 11
4.830830213428713
 21
9.369708329751713
 31
0.0
  0
LINE
  5
E22
330
19
100
AcDbEntity
  8
0
100
AcDbLine
 10
5.772886443221617
 20
8.896448224112056
 30
0.0
 11
5.574272106447213
 21
8.944018441136695
 31
0.0
  0
LINE
  5
E23
330
19
100
AcDbEntity
  8
0
100
AcDbLine
 10
5.772886443221617
 20
8.651325662831415
 30
0.0
 11
5.571698021943144
 21
8.702017427216315
 31
0.0
  0
LINE
  5
E24
330
19
100
AcDbEntity
  8
0
100
AcDbLine
 10
5.772886443221617
 20
8.378189094547274
 30
0.0
 11
5.571698021943145
 21
8.432050561661198
 31
0.0
  0
LINE
  5
E26
330
19
100
AcDbEntity
  8
0
100
AcDbLine
 10
5.458867699957317
 20
8.462257104555039
 30
0.0
 11
5.25767927867884
 21
8.516118571668962
 31
0.0
  0
LINE
  5
E27
330
19
100
AcDbEntity
  8
0
100
AcDbLine
 10
5.458867699957317
 20
8.730446340079354
 30
0.0
 11
5.257679278678841
 21
8.781138104464251
 31
0.0
  0
LINE
  5
E28
330
19
100
AcDbEntity
  8
0
100
AcDbLine
 10
5.458867699957317
 20
8.508523228516765
 30
0.0
 11
5.25767927867884
 21
8.56193919364223
 31
0.0
  0
LINE
  5
E29
330
19
100
AcDbEntity
  8
0
100
AcDbLine
 10
5.458867699957316
 20
8.777307217090911
 30
0.0
 11
5.257679278678841
 21
8.827737500977131
 31
0.0
  0
LINE
  5
E2A
330
19
100
AcDbEntity
  8
0
100
AcDbLine
 10
5.458867699957316
 20
8.971659007026757
 30
0.0
 11
5.257679278678841
 21
9.019845744291008
 31
0.0
  0
LINE
  5
E2B
330
19
100
AcDbEntity
  8
0
100
AcDbLine
 10
5.458867699957316
 20
9.232290637180871
 30
0.0
 11
5.25767927867884
 21
9.276311653787497
 31
0.0
  0
LINE
  5
E2C
330
19
100
AcDbEntity
  8
0
100
AcDbLine
 10
5.458867699957316
 20
9.019457666136388
 30
0.0
 11
5.257679278678841
 21
9.066859012513779
 31
0.0
  0
LINE
  5
E2D
330
19
100
AcDbEntity
  8
0
100
AcDbLine
 10
5.458867699957316
 20
9.282602145090031
 30
0.0
 11
5.257679278678841
 21
9.325524696776309
 31
0.0
  0
LINE
  5
E2F
330
19
100
AcDbEntity
  8
0
100
AcDbLine
 10
5.144848956693013
 20
9.349596486278113
 30
0.0
 11
4.943660535414539
 21
9.392519037964393
 31
0.0
  0
LINE
  5
E30
330
19
100
AcDbEntity
  8
0
100
AcDbLine
 10
5.144848956693014
 20
9.093442595904595
 30
0.0
 11
4.943660535414539
 21
9.140843942281988
 31
0.0
  0
LINE
  5
E31
330
19
100
AcDbEntity
  8
0
100
AcDbLine
 10
5.144848956693014
 20
9.300999483466294
 30
0.0
 11
4.94366053541454
 21
9.345020500072918
 31
0.0
  0
LINE
  5
E32
330
19
100
AcDbEntity
  8
0
100
AcDbLine
 10
5.144848956693014
 20
9.046869789941459
 30
0.0
 11
4.94366053541454
 21
9.095056527205708
 31
0.0
  0
LINE
  5
E33
330
19
100
AcDbEntity
  8
0
100
AcDbLine
 10
5.144848956693014
 20
8.856019770565812
 30
0.0
 11
4.943660535414539
 21
8.90645005445203
 31
0.0
  0
LINE
  5
E34
330
19
100
AcDbEntity
  8
0
100
AcDbLine
 10
5.144848956693013
 20
8.59189589048388
 30
0.0
 11
4.943660535414539
 21
8.645311855609343
 31
0.0
  0
LINE
  5
E35
330
19
100
AcDbEntity
  8
0
100
AcDbLine
 10
5.144848956693014
 20
8.809567017327289
 30
0.0
 11
4.943660535414539
 21
8.86025878171219
 31
0.0
  0
LINE
  5
E36
330
19
100
AcDbEntity
  8
0
100
AcDbLine
 10
5.144848956693014
 20
8.546325114562805
 30
0.0
 11
4.94366053541454
 21
8.600186581676729
 31
0.0
  0
LINE
  5
E38
330
19
100
AcDbEntity
  8
0
100
AcDbLine
 10
4.830830213428714
 20
8.630393124570572
 30
0.0
 11
4.629314657328671
 21
8.684342171085543
 31
0.0
  0
LINE
  5
E39
330
19
100
AcDbEntity
  8
0
100
AcDbLine
 10
4.830830213428714
 20
8.888687694575225
 30
0.0
 11
4.629641792150238
 21
8.939379458960126
 31
0.0
  0
LINE
  5
E3A
330
19
100
AcDbEntity
  8
0
100
AcDbLine
 10
4.830830213428713
 20
8.675268552450994
 30
0.0
 11
4.629641792150239
 21
8.728684517576459
 31
0.0
  0
LINE
  5
E3B
330
19
100
AcDbEntity
  8
0
100
AcDbLine
 10
4.830830213428714
 20
8.934732324040709
 30
0.0
 11
4.629641792150238
 21
8.985162607926927
 31
0.0
  0
LINE
  5
E3C
330
19
100
AcDbEntity
  8
0
100
AcDbLine
 10
4.830830213428714
 20
9.122080572856161
 30
0.0
 11
4.628314157078546
 21
9.170585292646322
 31
0.0
  0
LINE
  5
E3D
330
19
100
AcDbEntity
  8
0
100
AcDbLine
 10
4.830830213428713
 20
9.369708329751713
 30
0.0
 11
4.629641792150238
 21
9.413729346358341
 31
0.0
  0
LINE
  5
E3E
330
19
100
AcDbEntity
  8
0
100
AcDbLine
 10
4.830830213428714
 20
9.167427525672801
 30
0.0
 11
4.629641792150238
 21
9.214828872050193
 31
0.0
  0
LINE
  5
E3F
330
19
100
AcDbEntity
  8
0
100
AcDbLine
 10
4.830830213428713
 20
9.416590827466196
 30
0.0
 11
4.629641792150238
 21
9.459513379152472
 31
0.0
  0
LINE
  5
E44
330
19
100
AcDbEntity
  8
0
100
AcDbLine
 10
4.830830213428713
 20
8.675268552450993
 30
0.0
 11
4.830830213428713
 21
8.630393124570572
 31
0.0
  0
LINE
  5
E45
330
19
100
AcDbEntity
  8
0
100
AcDbLine
 10
4.830830213428713
 20
8.934732324040709
 30
0.0
 11
4.830830213428713
 21
8.888687694575227
 31
0.0
  0
LINE
  5
E46
330
19
100
AcDbEntity
  8
0
100
AcDbLine
 10
4.830830213428713
 20
9.167427525672801
 30
0.0
 11
4.830830213428713
 21
9.122080572856161
 31
0.0
  0
LINE
  5
E49
330
19
100
AcDbEntity
  8
0
100
AcDbLine
 10
5.144848956693014
 20
8.591895890483878
 30
0.0
 11
5.144848956693014
 21
8.546325114562805
 31
0.0
  0
LINE
  5
E4A
330
19
100
AcDbEntity
  8
0
100
AcDbLine
 10
5.144848956693014
 20
8.856019770565812
 30
0.0
 11
5.144848956693014
 21
8.809567017327289
 31
0.0
  0
LINE
  5
E4C
330
19
100
AcDbEntity
  8
0
100
AcDbLine
 10
5.458867699957316
 20
9.019457666136388
 30
0.0
 11
5.458867699957316
 21
8.971659007026759
 31
0.0
  0
LINE
  5
E4D
330
19
100
AcDbEntity
  8
0
100
AcDbLine
 10
5.458867699957316
 20
8.777307217090909
 30
0.0
 11
5.458867699957315
 21
8.730446340079354
 31
0.0
  0
LINE
  5
E4F
330
19
100
AcDbEntity
  8
0
100
AcDbLine
 10
5.458867699957315
 20
8.508523228516767
 30
0.0
 11
5.458867699957316
 21
8.462257104555039
 31
0.0
  0
LINE
  5
E51
330
19
100
AcDbEntity
  8
0
100
AcDbLine
 10
5.772886443221617
 20
8.42515056654965
 30
0.0
 11
5.772886443221617
 21
8.375187593796898
 31
0.0
  0
LINE
  5
E52
330
19
100
AcDbEntity
  8
0
100
AcDbLine
 10
5.772886443221617
 20
8.69859466361601
 30
0.0
 11
5.772886443221617
 21
8.651325662831415
 31
0.0
  0
LINE
  5
E55
330
19
100
AcDbEntity
  8
0
100
AcDbLine
 10
5.772886443221616
 20
8.945472736368185
 30
0.0
 11
5.772886443221617
 21
8.896448224112056
 31
0.0
  0
LINE
  5
E59
330
19
100
AcDbEntity
  8
0
100
AcDbLine
 10
5.144848956693015
 20
9.093442595904596
 30
0.0
 11
5.144848956693014
 21
9.046869789941457
 31
0.0
  0
LINE
  5
E5A
330
19
100
AcDbEntity
  8
0
100
AcDbLine
 10
5.571698021943142
 20
9.207602807502076
 30
0.0
 11
5.603684362326302
 21
9.251706228535454
 31
0.0
  0
LINE
  5
E5B
330
19
100
AcDbEntity
  8
0
100
AcDbLine
 10
5.257679278678842
 20
9.2763116537875
 30
0.0
 11
5.28858878057884
 21
9.318930307872272
 31
0.0
  0
LINE
  5
E5D
330
19
100
AcDbEntity
  8
0
100
AcDbLine
 10
4.943660535414541
 20
9.345020500072923
 30
0.0
 11
4.973493198831377
 21
9.386154387209086
 31
0.0
  0
LINE
  5
E5E
330
19
100
AcDbEntity
  8
0
100
AcDbLine
 10
4.629641792150239
 20
9.413729346358343
 30
0.0
 11
4.658397617083916
 21
9.453378466545901
 31
0.0
  0
LINE
  5
E5F
330
19
100
AcDbEntity
  8
0
100
AcDbLine
 10
5.574272106447213
 20
8.944018441136695
 30
0.0
 11
5.603684362326302
 21
8.984572661752063
 31
0.0
  0
LINE
  5
E60
330
19
100
AcDbEntity
  8
0
100
AcDbLine
 10
5.257679278678841
 20
9.019845744291008
 30
0.0
 11
5.286799989749962
 21
9.059997976955838
 31
0.0
  0
LINE
  5
E61
330
19
100
AcDbEntity
  8
0
100
AcDbLine
 10
4.94366053541454
 20
9.095056527205708
 30
0.0
 11
4.972021934983951
 21
9.134161805625245
 31
0.0
  0
LINE
  5
E62
330
19
100
AcDbEntity
  8
0
100
AcDbLine
 10
4.628314157078546
 20
9.170585292646322
 30
0.0
 11
4.655913034864683
 21
9.208639190418623
 31
0.0
  0
LINE
  5
E63
330
19
100
AcDbEntity
  8
0
100
AcDbLine
 10
5.571698021943144
 20
8.702017427216315
 30
0.0
 11
5.60054615144738
 21
8.741793818835676
 31
0.0
  0
LINE
  5
E64
330
19
100
AcDbEntity
  8
0
100
AcDbLine
 10
5.257679278678841
 20
8.781138104464251
 30
0.0
 11
5.28627694597221
 21
8.820569153659109
 31
0.0
  0
LINE
  5
E65
330
19
100
AcDbEntity
  8
0
100
AcDbLine
 10
4.943660535414539
 20
8.86025878171219
 30
0.0
 11
4.972007740497036
 21
8.899344488482543
 31
0.0
  0
LINE
  5
E66
330
19
100
AcDbEntity
  8
0
100
AcDbLine
 10
4.629641792150238
 20
8.939379458960126
 30
0.0
 11
4.657738535021864
 21
8.978119823305972
 31
0.0
  0
LINE
  5
E67
330
19
100
AcDbEntity
  8
0
100
AcDbLine
 10
4.629314657328671
 20
8.684342171085543
 30
0.0
 11
4.656334416059901
 21
8.721597567647605
 31
0.0
  0
LINE
  5
E68
330
19
100
AcDbEntity
  8
0
100
AcDbLine
 10
4.94366053541454
 20
8.600186581676729
 30
0.0
 11
4.97110361278633
 21
8.638025658647749
 31
0.0
  0
LINE
  5
E69
330
19
100
AcDbEntity
  8
0
100
AcDbLine
 10
5.25767927867884
 20
8.516118571668962
 30
0.0
 11
5.285545234150131
 21
8.554540721621905
 31
0.0
  0
LINE
  5
E6A
330
19
100
AcDbEntity
  8
0
100
AcDbLine
 10
5.571698021943145
 20
8.432050561661198
 30
0.0
 11
5.59998685551393
 21
8.471055784596059
 31
0.0
  0
LINE
  5
E90
330
19
100
AcDbEntity
  8
0
100
AcDbLine
 10
5.643821910955484
 20
9.12856428214107
 30
0.0
 11
5.442725354270496
 21
9.171971709620635
 31
0.0
  0
LINE
  5
E91
330
19
100
AcDbEntity
  8
0
100
AcDbLine
 10
5.643821910955484
 20
9.082541270635318
 30
0.0
 11
5.442725354270497
 21
9.1258430839361
 31
0.0
  0
LINE
  5
E92
330
19
100
AcDbEntity
  8
0
100
AcDbLine
 10
5.643821910955484
 20
9.12856428214107
 30
0.0
 11
5.643821910955484
 21
9.082541270635318
 31
0.0
  0
LINE
  5
E93
330
19
100
AcDbEntity
  8
0
100
AcDbLine
 10
5.327989239138418
 20
9.196737919838169
 30
0.0
 11
5.327989239138419
 21
9.150549035734617
 31
0.0
  0
LINE
  5
E94
330
19
100
AcDbEntity
  8
0
100
AcDbLine
 10
5.012156567321352
 20
9.264911557535267
 30
0.0
 11
5.012156567321351
 21
9.218556800833907
 31
0.0
  0
LINE
  5
E95
330
19
100
AcDbEntity
  8
0
100
AcDbLine
 10
5.643821910955484
 20
8.852426213106552
 30
0.0
 11
5.442725354270497
 21
8.897827445171366
 31
0.0
  0
LINE
  5
E96
330
19
100
AcDbEntity
  8
0
100
AcDbLine
 10
5.643821910955484
 20
8.801400700350175
 30
0.0
 11
5.442725354270497
 21
8.848007784664226
 31
0.0
  0
LINE
  5
E97
330
19
100
AcDbEntity
  8
0
100
AcDbLine
 10
5.643821910955484
 20
8.607303651825912
 30
0.0
 11
5.442725354270497
 21
8.654900469976203
 31
0.0
  0
LINE
  5
E98
330
19
100
AcDbEntity
  8
0
100
AcDbLine
 10
5.643821910955484
 20
8.550275137568784
 30
0.0
 11
5.442725354270497
 21
8.600312134574127
 31
0.0
  0
LINE
  5
E99
330
19
100
AcDbEntity
  8
0
100
AcDbLine
 10
5.643821910955484
 20
8.314157078539269
 30
0.0
 11
5.442725354270497
 21
8.366836678914881
 31
0.0
  0
LINE
  5
E9A
330
19
100
AcDbEntity
  8
0
100
AcDbLine
 10
5.643821910955484
 20
8.261225618899582
 30
0.0
 11
5.442725354270497
 21
8.317317106696002
 31
0.0
  0
LINE
  5
E9C
330
19
100
AcDbEntity
  8
0
100
AcDbLine
 10
5.327989239138418
 20
8.396893149266466
 30
0.0
 11
5.12689268245343
 21
8.449572749642078
 31
0.0
  0
LINE
  5
E9D
330
19
100
AcDbEntity
  8
0
100
AcDbLine
 10
5.327989239138418
 20
8.628860861334587
 30
0.0
 11
5.12689268245343
 21
8.678897858339932
 31
0.0
  0
LINE
  5
E9E
330
19
100
AcDbEntity
  8
0
100
AcDbLine
 10
5.327989239138418
 20
8.682056946930544
 30
0.0
 11
5.12689268245343
 21
8.729653765080837
 31
0.0
  0
LINE
  5
E9F
330
19
100
AcDbEntity
  8
0
100
AcDbLine
 10
5.327989239138418
 20
8.874599566641896
 30
0.0
 11
5.12689268245343
 21
8.921206650955947
 31
0.0
  0
LINE
  5
EA0
330
19
100
AcDbEntity
  8
0
100
AcDbLine
 10
5.327989239138418
 20
8.923731225301658
 30
0.0
 11
5.12689268245343
 21
8.969132457366472
 31
0.0
  0
LINE
  5
EA1
330
19
100
AcDbEntity
  8
0
100
AcDbLine
 10
5.327989239138418
 20
9.150549035734615
 30
0.0
 11
5.12689268245343
 21
9.193850849035398
 31
0.0
  0
LINE
  5
EA2
330
19
100
AcDbEntity
  8
0
100
AcDbLine
 10
5.327989239138418
 20
9.196737919838169
 30
0.0
 11
5.12689268245343
 21
9.240145347317732
 31
0.0
  0
LINE
  5
EA5
330
19
100
AcDbEntity
  8
0
100
AcDbLine
 10
5.012156567321351
 20
8.479629219993663
 30
0.0
 11
4.807403701850932
 21
8.533266633316657
 31
0.0
  0
LINE
  5
EA6
330
19
100
AcDbEntity
  8
0
100
AcDbLine
 10
5.012156567321352
 20
8.437414856039915
 30
0.0
 11
4.811060010636364
 21
8.493506343836335
 31
0.0
  0
LINE
  5
EA7
330
19
100
AcDbEntity
  8
0
100
AcDbLine
 10
5.327989239138418
 20
8.349320237469746
 30
0.0
 11
5.12689268245343
 21
8.405411725266168
 31
0.0
  0
LINE
  5
EA8
330
19
100
AcDbEntity
  8
0
100
AcDbLine
 10
5.012156567321352
 20
8.995036237496763
 30
0.0
 11
4.811060010636364
 21
9.04043746956158
 31
0.0
  0
LINE
  5
EA9
330
19
100
AcDbEntity
  8
0
100
AcDbLine
 10
5.012156567321351
 20
8.947798432933617
 30
0.0
 11
4.811060010636363
 21
8.994405517247666
 31
0.0
  0
LINE
  5
EAA
330
19
100
AcDbEntity
  8
0
100
AcDbLine
 10
5.012156567321357
 20
8.707446585100389
 30
0.0
 11
4.811060010636364
 21
8.757483582105737
 31
0.0
  0
LINE
  5
EAB
330
19
100
AcDbEntity
  8
0
100
AcDbLine
 10
5.012156567321352
 20
8.756810242035176
 30
0.0
 11
4.811060010636364
 21
8.804407060185469
 31
0.0
  0
LINE
  5
EAC
330
19
100
AcDbEntity
  8
0
100
AcDbLine
 10
5.012156567321351
 20
9.218556800833909
 30
0.0
 11
4.811060010636363
 21
9.26185861413469
 31
0.0
  0
LINE
  5
EAD
330
19
100
AcDbEntity
  8
0
100
AcDbLine
 10
5.012156567321352
 20
9.264911557535269
 30
0.0
 11
4.811060010636364
 21
9.308318985014832
 31
0.0
  0
LINE
  5
EAF
330
19
100
AcDbEntity
  8
0
100
AcDbLine
 10
5.327989239138419
 20
8.923731225301658
 30
0.0
 11
5.327989239138418
 21
8.874599566641896
 31
0.0
  0
LINE
  5
EB2
330
19
100
AcDbEntity
  8
0
100
AcDbLine
 10
5.643821910955484
 20
8.852426213106552
 30
0.0
 11
5.643821910955484
 21
8.801400700350174
 31
0.0
  0
LINE
  5
EB3
330
19
100
AcDbEntity
  8
0
100
AcDbLine
 10
5.012156567321351
 20
8.995036237496763
 30
0.0
 11
5.012156567321353
 21
8.947798432933617
 31
0.0
  0
LINE
  5
EB5
330
19
100
AcDbEntity
  8
0
100
AcDbLine
 10
5.643821910955484
 20
8.607303651825911
 30
0.0
 11
5.643821910955484
 21
8.550275137568784
 31
0.0
  0
LINE
  5
EB8
330
19
100
AcDbEntity
  8
0
100
AcDbLine
 10
5.012156567321352
 20
8.479629219993665
 30
0.0
 11
5.012156567321352
 21
8.437414856039915
 31
0.0
  0
LINE
  5
EB9
330
19
100
AcDbEntity
  8
0
100
AcDbLine
 10
5.327989239138418
 20
8.682056946930542
 30
0.0
 11
5.327989239138419
 21
8.628860861334587
 31
0.0
  0
LINE
  5
EBC
330
19
100
AcDbEntity
  8
0
100
AcDbLine
 10
5.643821910955484
 20
8.314157078539267
 30
0.0
 11
5.643821910955484
 21
8.261225618899582
 31
0.0
  0
LINE
  5
EBD
330
19
100
AcDbEntity
  8
0
100
AcDbLine
 10
5.327989239138419
 20
8.396893149266466
 30
0.0
 11
5.327989239138418
 21
8.349320237469749
 31
0.0
  0
LINE
  5
EBF
330
19
100
AcDbEntity
  8
0
100
AcDbLine
 10
5.012156567321357
 20
8.756810242035177
 30
0.0
 11
5.012156567321357
 21
8.707446585100389
 31
0.0
  0
LINE
  5
EC0
330
19
100
AcDbEntity
  8
0
100
AcDbLine
 10
5.442725354270497
 20
9.1258430839361
 30
0.0
 11
5.47423021202767
 21
9.165171270812076
 31
0.0
  0
LINE
  5
EC1
330
19
100
AcDbEntity
  8
0
100
AcDbLine
 10
5.12689268245343
 20
9.193850849035398
 30
0.0
 11
5.158510827622095
 21
9.233320455006938
 31
0.0
  0
LINE
  5
EC2
330
19
100
AcDbEntity
  8
0
100
AcDbLine
 10
4.811060010636363
 20
9.26185861413469
 30
0.0
 11
4.842791443216525
 21
9.301469639201798
 31
0.0
  0
LINE
  5
EC3
330
19
100
AcDbEntity
  8
0
100
AcDbLine
 10
5.442725354270497
 20
8.848007784664226
 30
0.0
 11
5.476522253562616
 21
8.89019717594584
 31
0.0
  0
LINE
  5
EC4
330
19
100
AcDbEntity
  8
0
100
AcDbLine
 10
5.12689268245343
 20
8.921206650955947
 30
0.0
 11
5.159404819956214
 21
8.961792246653669
 31
0.0
  0
LINE
  5
EC5
330
19
100
AcDbEntity
  8
0
100
AcDbLine
 10
4.811060010636363
 20
8.994405517247666
 30
0.0
 11
4.842287386349814
 21
9.033387317361498
 31
0.0
  0
LINE
  5
EC6
330
19
100
AcDbEntity
  8
0
100
AcDbLine
 10
5.442725354270497
 20
8.600312134574127
 30
0.0
 11
5.479484984238474
 21
8.64619996584177
 31
0.0
  0
LINE
  5
EC7
330
19
100
AcDbEntity
  8
0
100
AcDbLine
 10
5.12689268245343
 20
8.678897858339932
 30
0.0
 11
5.161071565849347
 21
8.721564088537422
 31
0.0
  0
LINE
  5
EC8
330
19
100
AcDbEntity
  8
0
100
AcDbLine
 10
4.811060010636364
 20
8.757483582105737
 30
0.0
 11
4.842658147460224
 21
8.796928211233078
 31
0.0
  0
LINE
  5
EC9
330
19
100
AcDbEntity
  8
0
100
AcDbLine
 10
5.442725354270497
 20
8.317317106696002
 30
0.0
 11
5.47551362608482
 21
8.358247406752994
 31
0.0
  0
LINE
  5
ECA
330
19
100
AcDbEntity
  8
0
100
AcDbLine
 10
5.12689268245343
 20
8.405411725266168
 30
0.0
 11
5.156132912244517
 21
8.441912928680059
 31
0.0
  0
LINE
  5
ECB
330
19
100
AcDbEntity
  8
0
100
AcDbLine
 10
4.811060010636364
 20
8.493506343836335
 30
0.0
 11
4.836752198404215
 21
8.525578450607128
 31
0.0
  0
ELLIPSE
  5
ECD
330
19
100
AcDbEntity
  8
0
100
AcDbEllipse
 10
7.151575787893954
 20
6.385692846423211
 30
0.0
 11
0.0
 21
0.0575287643821909
 31
0.0
210
0.0
220
0.0
230
1.0
 40
0.6956521739130428
 41
0.0
 42
6.283185307179586
  0
ELLIPSE
  5
ECF
330
19
100
AcDbEntity
  8
0
100
AcDbEllipse
 10
7.131565782891452
 20
6.390695347673836
 30
0.0
 11
0.0
 21
0.0575287643821909
 31
0.0
210
0.0
220
0.0
230
1.0
 40
0.6956521739130428
 41
6.106447509121838
 42
9.256454053271114
  0
LINE
  5
ED0
330
19
100
AcDbEntity
  8
0
100
AcDbLine
 10
7.155920954999231
 20
6.442881516588803
 30
0.0
 11
7.138602066221164
 21
6.447327957002024
 31
0.0
  0
LINE
  5
ED1
330
19
100
AcDbEntity
  8
0
100
AcDbLine
 10
7.147354965489622
 20
6.328484936150553
 30
0.0
 11
7.124861223373203
 21
6.333979640330347
 31
0.0
  0
LINE
  5
ED2
330
19
100
AcDbEntity
  8
0
100
AcDbLine
 10
7.147354965489622
 20
5.781711549457206
 30
0.0
 11
7.124861223373203
 21
5.787206253637
 31
0.0
  0
ELLIPSE
  5
ED3
330
19
100
AcDbEntity
  8
0
100
AcDbEllipse
 10
7.151575787893954
 20
5.838919459729864
 30
0.0
 11
0.0
 21
0.0575287643821909
 31
0.0
210
0.0
220
0.0
230
1.0
 40
0.6956521739130428
 41
0.0
 42
6.283185307179586
  0
LINE
  5
ED4
330
19
100
AcDbEntity
  8
0
100
AcDbLine
 10
7.155920954999231
 20
5.896108129895455
 30
0.0
 11
7.138602066221164
 21
5.900554570308676
 31
0.0
  0
ELLIPSE
  5
ED5
330
19
100
AcDbEntity
  8
0
100
AcDbEllipse
 10
7.131565782891452
 20
5.843921960980489
 30
0.0
 11
0.0
 21
0.0575287643821909
 31
0.0
210
0.0
220
0.0
230
1.0
 40
0.6956521739130428
 41
6.106447509121838
 42
9.256454053271114
  0
ELLIPSE
  5
ED6
330
19
100
AcDbEntity
  8
0
100
AcDbEllipse
 10
7.151575787893954
 20
5.398699349674836
 30
0.0
 11
0.0
 21
0.0575287643821909
 31
0.0
210
0.0
220
0.0
230
1.0
 40
0.6956521739130428
 41
0.0
 42
6.283185307179586
  0
LINE
  5
ED7
330
19
100
AcDbEntity
  8
0
100
AcDbLine
 10
7.147354965489622
 20
5.341491439402178
 30
0.0
 11
7.124861223373203
 21
5.346986143581972
 31
0.0
  0
LINE
  5
ED8
330
19
100
AcDbEntity
  8
0
100
AcDbLine
 10
7.155920954999231
 20
5.455888019840428
 30
0.0
 11
7.138602066221164
 21
5.460334460253649
 31
0.0
  0
ELLIPSE
  5
ED9
330
19
100
AcDbEntity
  8
0
100
AcDbEllipse
 10
7.131565782891452
 20
5.403701850925462
 30
0.0
 11
0.0
 21
0.0575287643821909
 31
0.0
210
0.0
220
0.0
230
1.0
 40
0.6956521739130428
 41
6.106447509121838
 42
9.256454053271114
  0
ELLIPSE
  5
EDA
330
19
100
AcDbEntity
  8
0
100
AcDbEllipse
 10
7.131565782891452
 20
4.918459229614807
 30
0.0
 11
0.0
 21
0.0575287643821909
 31
0.0
210
0.0
220
0.0
230
1.0
 40
0.6956521739130428
 41
6.106447509121838
 42
9.256454053271114
  0
ELLIPSE
  5
EDB
330
19
100
AcDbEntity
  8
0
100
AcDbEllipse
 10
7.151575787893954
 20
4.913456728364182
 30
0.0
 11
0.0
 21
0.0575287643821909
 31
0.0
210
0.0
220
0.0
230
1.0
 40
0.6956521739130428
 41
0.0
 42
6.283185307179586
  0
LINE
  5
EDC
330
19
100
AcDbEntity
  8
0
100
AcDbLine
 10
7.147354965489622
 20
4.856248818091523
 30
0.0
 11
7.124861223373203
 21
4.861743522271318
 31
0.0
  0
LINE
  5
EDD
330
19
100
AcDbEntity
  8
0
100
AcDbLine
 10
7.155920954999231
 20
4.970645398529773
 30
0.0
 11
7.138602066221164
 21
4.975091838942994
 31
0.0
  0
LINE
  5
EDE
330
19
100
AcDbEntity
  8
0
100
AcDbLine
 10
6.746154365189471
 20
6.20942540638567
 30
0.0
 11
6.723660623073053
 21
6.214920110565465
 31
0.0
  0
ELLIPSE
  5
EDF
330
19
100
AcDbEntity
  8
0
100
AcDbEllipse
 10
6.750375187593804
 20
6.266633316658329
 30
0.0
 11
0.0
 21
0.0575287643821909
 31
0.0
210
0.0
220
0.0
230
1.0
 40
0.6956521739130428
 41
0.0
 42
6.283185307179586
  0
LINE
  5
EE0
330
19
100
AcDbEntity
  8
0
100
AcDbLine
 10
6.754720354699081
 20
6.32382198682392
 30
0.0
 11
6.737401465921014
 21
6.328268427237141
 31
0.0
  0
ELLIPSE
  5
EE1
330
19
100
AcDbEntity
  8
0
100
AcDbEllipse
 10
6.730365182591302
 20
6.271635817908954
 30
0.0
 11
0.0
 21
0.0575287643821909
 31
0.0
210
0.0
220
0.0
230
1.0
 40
0.6956521739130428
 41
6.106447509121838
 42
9.256454053271114
  0
ELLIPSE
  5
EE2
330
19
100
AcDbEntity
  8
0
100
AcDbEllipse
 10
6.750375187593804
 20
5.719859929964981
 30
0.0
 11
0.0
 21
0.0575287643821909
 31
0.0
210
0.0
220
0.0
230
1.0
 40
0.6956521739130428
 41
0.0
 42
6.283185307179586
  0
LINE
  5
EE3
330
19
100
AcDbEntity
  8
0
100
AcDbLine
 10
6.746154365189471
 20
5.662652019692323
 30
0.0
 11
6.723660623073053
 21
5.668146723872117
 31
0.0
  0
LINE
  5
EE4
330
19
100
AcDbEntity
  8
0
100
AcDbLine
 10
6.754720354699081
 20
5.777048600130573
 30
0.0
 11
6.737401465921014
 21
5.781495040543794
 31
0.0
  0
ELLIPSE
  5
EE5
330
19
100
AcDbEntity
  8
0
100
AcDbEllipse
 10
6.730365182591302
 20
5.724862431215606
 30
0.0
 11
0.0
 21
0.0575287643821909
 31
0.0
210
0.0
220
0.0
230
1.0
 40
0.6956521739130428
 41
6.106447509121838
 42
9.256454053271114
  0
ELLIPSE
  5
EE6
330
19
100
AcDbEntity
  8
0
100
AcDbEllipse
 10
6.730365182591302
 20
5.284642321160579
 30
0.0
 11
0.0
 21
0.0575287643821909
 31
0.0
210
0.0
220
0.0
230
1.0
 40
0.6956521739130428
 41
6.106447509121838
 42
9.256454053271114
  0
ELLIPSE
  5
EE7
330
19
100
AcDbEntity
  8
0
100
AcDbEllipse
 10
6.750375187593804
 20
5.279639819909954
 30
0.0
 11
0.0
 21
0.0575287643821909
 31
0.0
210
0.0
220
0.0
230
1.0
 40
0.6956521739130428
 41
0.0
 42
6.283185307179586
  0
LINE
  5
EE8
330
19
100
AcDbEntity
  8
0
100
AcDbLine
 10
6.746154365189471
 20
5.222431909637296
 30
0.0
 11
6.723660623073053
 21
5.22792661381709
 31
0.0
  0
LINE
  5
EE9
330
19
100
AcDbEntity
  8
0
100
AcDbLine
 10
6.754720354699081
 20
5.336828490075545
 30
0.0
 11
6.737401465921014
 21
5.341274930488766
 31
0.0
  0
ELLIPSE
  5
EEA
330
19
100
AcDbEntity
  8
0
100
AcDbEllipse
 10
6.730365182591302
 20
4.799399699849924
 30
0.0
 11
0.0
 21
0.0575287643821909
 31
0.0
210
0.0
220
0.0
230
1.0
 40
0.6956521739130428
 41
6.106447509121838
 42
9.256454053271114
  0
ELLIPSE
  5
EEB
330
19
100
AcDbEntity
  8
0
100
AcDbEllipse
 10
6.750375187593804
 20
4.794397198599299
 30
0.0
 11
0.0
 21
0.0575287643821909
 31
0.0
210
0.0
220
0.0
230
1.0
 40
0.6956521739130428
 41
0.0
 42
6.283185307179586
  0
LINE
  5
EEC
330
19
100
AcDbEntity
  8
0
100
AcDbLine
 10
6.746154365189471
 20
4.737189288326641
 30
0.0
 11
6.723660623073053
 21
4.742683992506435
 31
0.0
  0
LINE
  5
EED
330
19
100
AcDbEntity
  8
0
100
AcDbLine
 10
6.754720354699081
 20
4.85158586876489
 30
0.0
 11
6.737401465921014
 21
4.856032309178112
 31
0.0
  0
ELLIPSE
  5
EEE
330
19
100
AcDbEntity
  8
0
100
AcDbEllipse
 10
7.039519759879947
 20
6.081040520260129
 30
0.0
 11
0.0
 21
0.0575287643821909
 31
0.0
210
0.0
220
0.0
230
1.0
 40
0.6956521739130428
 41
0.0
 42
6.283185307179586
  0
LINE
  5
EEF
330
19
100
AcDbEntity
  8
0
100
AcDbLine
 10
7.035298937475615
 20
6.023832609987471
 30
0.0
 11
7.012805195359196
 21
6.029327314167265
 31
0.0
  0
LINE
  5
EF0
330
19
100
AcDbEntity
  8
0
100
AcDbLine
 10
7.043864926985224
 20
6.138229190425721
 30
0.0
 11
7.026546038207157
 21
6.142675630838942
 31
0.0
  0
ELLIPSE
  5
EF1
330
19
100
AcDbEntity
  8
0
100
AcDbEllipse
 10
7.019509754877445
 20
6.086043021510754
 30
0.0
 11
0.0
 21
0.0575287643821909
 31
0.0
210
0.0
220
0.0
230
1.0
 40
0.6956521739130428
 41
6.106447509121838
 42
9.256454053271114
  0
ELLIPSE
  5
EF2
330
19
100
AcDbEntity
  8
0
100
AcDbEllipse
 10
7.019509754877445
 20
5.645822911455727
 30
0.0
 11
0.0
 21
0.0575287643821909
 31
0.0
210
0.0
220
0.0
230
1.0
 40
0.6956521739130428
 41
6.106447509121838
 42
9.256454053271114
  0
ELLIPSE
  5
EF3
330
19
100
AcDbEntity
  8
0
100
AcDbEllipse
 10
7.039519759879947
 20
5.640820410205102
 30
0.0
 11
0.0
 21
0.0575287643821909
 31
0.0
210
0.0
220
0.0
230
1.0
 40
0.6956521739130428
 41
0.0
 42
6.283185307179586
  0
LINE
  5
EF4
330
19
100
AcDbEntity
  8
0
100
AcDbLine
 10
7.035298937475615
 20
5.583612499932444
 30
0.0
 11
7.012805195359196
 21
5.589107204112238
 31
0.0
  0
LINE
  5
EF5
330
19
100
AcDbEntity
  8
0
100
AcDbLine
 10
7.043864926985224
 20
5.698009080370693
 30
0.0
 11
7.026546038207157
 21
5.702455520783914
 31
0.0
  0
ELLIPSE
  5
EF6
330
19
100
AcDbEntity
  8
0
100
AcDbEllipse
 10
7.019509754877445
 20
5.160580290145072
 30
0.0
 11
0.0
 21
0.0575287643821909
 31
0.0
210
0.0
220
0.0
230
1.0
 40
0.6956521739130428
 41
6.106447509121838
 42
9.256454053271114
  0
ELLIPSE
  5
EF7
330
19
100
AcDbEntity
  8
0
100
AcDbEllipse
 10
7.039519759879947
 20
5.155577788894447
 30
0.0
 11
0.0
 21
0.0575287643821909
 31
0.0
210
0.0
220
0.0
230
1.0
 40
0.6956521739130428
 41
0.0
 42
6.283185307179586
  0
LINE
  5
EF8
330
19
100
AcDbEntity
  8
0
100
AcDbLine
 10
7.035298937475615
 20
5.098369878621789
 30
0.0
 11
7.012805195359196
 21
5.103864582801583
 31
0.0
  0
LINE
  5
EF9
330
19
100
AcDbEntity
  8
0
100
AcDbLine
 10
7.043864926985224
 20
5.212766459060038
 30
0.0
 11
7.026546038207157
 21
5.217212899473259
 31
0.0
  0
ELLIPSE
  5
EFA
330
19
100
AcDbEntity
  8
0
100
AcDbEllipse
 10
6.618309154577295
 20
5.966983491745872
 30
0.0
 11
0.0
 21
0.0575287643821909
 31
0.0
210
0.0
220
0.0
230
1.0
 40
0.6956521739130428
 41
6.106447509121838
 42
9.256454053271114
  0
LINE
  5
EFB
330
19
100
AcDbEntity
  8
0
100
AcDbLine
 10
6.642664326685074
 20
6.019169660660838
 30
0.0
 11
6.625345437907007
 21
6.023616101074059
 31
0.0
  0
LINE
  5
EFC
330
19
100
AcDbEntity
  8
0
100
AcDbLine
 10
6.634098337175464
 20
5.904773080222588
 30
0.0
 11
6.611604595059045
 21
5.910267784402382
 31
0.0
  0
ELLIPSE
  5
EFD
330
19
100
AcDbEntity
  8
0
100
AcDbEllipse
 10
6.638319159579797
 20
5.961980990495246
 30
0.0
 11
0.0
 21
0.0575287643821909
 31
0.0
210
0.0
220
0.0
230
1.0
 40
0.6956521739130428
 41
0.0
 42
6.283185307179586
  0
ELLIPSE
  5
EFE
330
19
100
AcDbEntity
  8
0
100
AcDbEllipse
 10
6.618309154577295
 20
5.526763381690844
 30
0.0
 11
0.0
 21
0.0575287643821909
 31
0.0
210
0.0
220
0.0
230
1.0
 40
0.6956521739130428
 41
6.106447509121838
 42
9.256454053271114
  0
ELLIPSE
  5
EFF
330
19
100
AcDbEntity
  8
0
100
AcDbEllipse
 10
6.638319159579797
 20
5.521760880440219
 30
0.0
 11
0.0
 21
0.0575287643821909
 31
0.0
210
0.0
220
0.0
230
1.0
 40
0.6956521739130428
 41
0.0
 42
6.283185307179586
  0
LINE
  5
F00
330
19
100
AcDbEntity
  8
0
100
AcDbLine
 10
6.634098337175464
 20
5.464552970167561
 30
0.0
 11
6.611604595059045
 21
5.470047674347355
 31
0.0
  0
LINE
  5
F01
330
19
100
AcDbEntity
  8
0
100
AcDbLine
 10
6.642664326685074
 20
5.57894955060581
 30
0.0
 11
6.625345437907007
 21
5.583395991019032
 31
0.0
  0
ELLIPSE
  5
F02
330
19
100
AcDbEntity
  8
0
100
AcDbEllipse
 10
6.618309154577295
 20
5.041520760380189
 30
0.0
 11
0.0
 21
0.0575287643821909
 31
0.0
210
0.0
220
0.0
230
1.0
 40
0.6956521739130428
 41
6.106447509121838
 42
9.256454053271114
  0
LINE
  5
F03
330
19
100
AcDbEntity
  8
0
100
AcDbLine
 10
6.642664326685074
 20
5.093706929295156
 30
0.0
 11
6.625345437907007
 21
5.098153369708377
 31
0.0
  0
LINE
  5
F04
330
19
100
AcDbEntity
  8
0
100
AcDbLine
 10
6.634098337175464
 20
4.979310348856906
 30
0.0
 11
6.611604595059045
 21
4.9848050530367
 31
0.0
  0
ELLIPSE
  5
F05
330
19
100
AcDbEntity
  8
0
100
AcDbEllipse
 10
6.638319159579797
 20
5.036518259129564
 30
0.0
 11
0.0
 21
0.0575287643821909
 31
0.0
210
0.0
220
0.0
230
1.0
 40
0.6956521739130428
 41
0.0
 42
6.283185307179586
  0
ELLIPSE
  5
F06
330
19
100
AcDbEntity
  8
0
100
AcDbEllipse
 10
6.439219609804909
 20
6.871935967983991
 30
0.0
 11
0.0
 21
0.0575287643821909
 31
0.0
210
0.0
220
0.0
230
1.0
 40
0.6956521739130428
 41
0.0
 42
6.283185307179586
  0
ELLIPSE
  5
F07
330
19
100
AcDbEntity
  8
0
100
AcDbEllipse
 10
6.428214107053534
 20
6.875937968984491
 30
0.0
 11
0.0
 21
0.0575287643821909
 31
0.0
210
0.0
220
0.0
230
1.0
 40
0.6956521739130428
 41
3.036136931608947
 42
5.893107509176381
  0
ELLIPSE
  5
F09
330
19
100
AcDbEntity
  8
0
100
AcDbEllipse
 10
6.562281140570292
 20
8.722361180590294
 30
0.0
 11
0.0
 21
-0.03901950975487623
 31
0.0
210
0.0
220
0.0
230
1.0
 40
0.4615384615384773
 41
0.0
 42
6.283185307179586
  0
ELLIPSE
  5
F0A
330
19
100
AcDbEntity
  8
0
100
AcDbEllipse
 10
6.580290145072543
 20
8.725362681340672
 30
0.0
 11
0.0
 21
-0.03901950975487623
 31
0.0
210
0.0
220
0.0
230
1.0
 40
0.4615384615384773
 41
0.0682682091523218
 42
3.226749330788051
  0
LINE
  5
F0B
330
19
100
AcDbEntity
  8
0
100
AcDbLine
 10
6.561050516635535
 20
8.761289482753076
 30
0.0
 11
6.579059521137786
 21
8.764290983503454
 31
0.0
  0
LINE
  5
F0C
330
19
100
AcDbEntity
  8
0
100
AcDbLine
 10
6.563509628299442
 20
8.683432561683599
 30
0.0
 11
6.581518632801693
 21
8.686434062433976
 31
0.0
  0
ELLIPSE
  5
F0D
330
19
100
AcDbEntity
  8
0
100
AcDbEllipse
 10
6.580290145072543
 20
8.457228614307155
 30
0.0
 11
0.0
 21
-0.03901950975487623
 31
0.0
210
0.0
220
0.0
230
1.0
 40
0.4615384615384773
 41
0.0682682091523218
 42
3.226749330788051
  0
LINE
  5
F0E
330
19
100
AcDbEntity
  8
0
100
AcDbLine
 10
6.563509628299442
 20
8.415298494650083
 30
0.0
 11
6.581518632801693
 21
8.41829999540046
 31
0.0
  0
LINE
  5
F0F
330
19
100
AcDbEntity
  8
0
100
AcDbLine
 10
6.561050516635535
 20
8.49315541571956
 30
0.0
 11
6.579059521137786
 21
8.496156916469937
 31
0.0
  0
ELLIPSE
  5
F10
330
19
100
AcDbEntity
  8
0
100
AcDbEllipse
 10
6.562281140570292
 20
8.454227113556778
 30
0.0
 11
0.0
 21
-0.03901950975487623
 31
0.0
210
0.0
220
0.0
230
1.0
 40
0.4615384615384773
 41
0.0
 42
6.283185307179586
  0
ELLIPSE
  5
F11
330
19
100
AcDbEntity
  8
0
100
AcDbEllipse
 10
6.580290145072543
 20
8.189094547273639
 30
0.0
 11
0.0
 21
-0.03901950975487623
 31
0.0
210
0.0
220
0.0
230
1.0
 40
0.4615384615384773
 41
0.0682682091523218
 42
3.226749330788051
  0
ELLIPSE
  5
F12
330
19
100
AcDbEntity
  8
0
100
AcDbEllipse
 10
6.562281140570292
 20
8.186093046523261
 30
0.0
 11
0.0
 21
-0.03901950975487623
 31
0.0
210
0.0
220
0.0
230
1.0
 40
0.4615384615384773
 41
0.0
 42
6.283185307179586
  0
LINE
  5
F13
330
19
100
AcDbEntity
  8
0
100
AcDbLine
 10
6.561050516635535
 20
8.225021348686044
 30
0.0
 11
6.579059521137786
 21
8.228022849436421
 31
0.0
  0
LINE
  5
F14
330
19
100
AcDbEntity
  8
0
100
AcDbLine
 10
6.563509628299442
 20
8.147164427616566
 30
0.0
 11
6.581518632801693
 21
8.150165928366944
 31
0.0
  0
ELLIPSE
  5
F15
330
19
100
AcDbEntity
  8
0
100
AcDbEllipse
 10
6.580290145072543
 20
7.920960480240122
 30
0.0
 11
0.0
 21
-0.03901950975487623
 31
0.0
210
0.0
220
0.0
230
1.0
 40
0.4615384615384773
 41
0.0682682091523218
 42
3.226749330788051
  0
LINE
  5
F16
330
19
100
AcDbEntity
  8
0
100
AcDbLine
 10
6.563509628299442
 20
7.87903036058305
 30
0.0
 11
6.581518632801693
 21
7.882031861333427
 31
0.0
  0
LINE
  5
F17
330
19
100
AcDbEntity
  8
0
100
AcDbLine
 10
6.561050516635535
 20
7.956887281652527
 30
0.0
 11
6.579059521137786
 21
7.959888782402905
 31
0.0
  0
ELLIPSE
  5
F18
330
19
100
AcDbEntity
  8
0
100
AcDbEllipse
 10
6.562281140570292
 20
7.917958979489745
 30
0.0
 11
0.0
 21
-0.03901950975487623
 31
0.0
210
0.0
220
0.0
230
1.0
 40
0.4615384615384773
 41
0.0
 42
6.283185307179586
  0
ELLIPSE
  5
F19
330
19
100
AcDbEntity
  8
0
100
AcDbEllipse
 10
6.485242621310662
 20
7.811905952976488
 30
0.0
 11
0.0
 21
-0.03901950975487623
 31
0.0
210
0.0
220
0.0
230
1.0
 40
0.4615384615384773
 41
0.0
 42
6.283185307179586
  0
ELLIPSE
  5
F1A
330
19
100
AcDbEntity
  8
0
100
AcDbEllipse
 10
6.503251625812913
 20
7.814907453726866
 30
0.0
 11
0.0
 21
-0.03901950975487623
 31
0.0
210
0.0
220
0.0
230
1.0
 40
0.4615384615384773
 41
0.0682682091523218
 42
3.226749330788051
  0
LINE
  5
F1B
330
19
100
AcDbEntity
  8
0
100
AcDbLine
 10
6.486471109039812
 20
7.772977334069793
 30
0.0
 11
6.504480113542063
 21
7.775978834820171
 31
0.0
  0
LINE
  5
F1C
330
19
100
AcDbEntity
  8
0
100
AcDbLine
 10
6.484011997375905
 20
7.850834255139271
 30
0.0
 11
6.502021001878156
 21
7.853835755889648
 31
0.0
  0
ELLIPSE
  5
F1D
330
19
100
AcDbEntity
  8
0
100
AcDbEllipse
 10
6.503251625812913
 20
8.083041520760382
 30
0.0
 11
0.0
 21
-0.03901950975487623
 31
0.0
210
0.0
220
0.0
230
1.0
 40
0.4615384615384773
 41
0.0682682091523218
 42
3.226749330788051
  0
LINE
  5
F1E
330
19
100
AcDbEntity
  8
0
100
AcDbLine
 10
6.486471109039812
 20
8.04111140110331
 30
0.0
 11
6.504480113542063
 21
8.044112901853687
 31
0.0
  0
LINE
  5
F1F
330
19
100
AcDbEntity
  8
0
100
AcDbLine
 10
6.484011997375905
 20
8.118968322172787
 30
0.0
 11
6.502021001878156
 21
8.121969822923164
 31
0.0
  0
ELLIPSE
  5
F20
330
19
100
AcDbEntity
  8
0
100
AcDbEllipse
 10
6.485242621310662
 20
8.080040020010005
 30
0.0
 11
0.0
 21
-0.03901950975487623
 31
0.0
210
0.0
220
0.0
230
1.0
 40
0.4615384615384773
 41
0.0
 42
6.283185307179586
  0
ELLIPSE
  5
F21
330
19
100
AcDbEntity
  8
0
100
AcDbEllipse
 10
6.503251625812913
 20
8.351175587793899
 30
0.0
 11
0.0
 21
-0.03901950975487623
 31
0.0
210
0.0
220
0.0
230
1.0
 40
0.4615384615384773
 41
0.0682682091523218
 42
3.226749330788051
  0
ELLIPSE
  5
F22
330
19
100
AcDbEntity
  8
0
100
AcDbEllipse
 10
6.485242621310662
 20
8.348174087043521
 30
0.0
 11
0.0
 21
-0.03901950975487623
 31
0.0
210
0.0
220
0.0
230
1.0
 40
0.4615384615384773
 41
0.0
 42
6.283185307179586
  0
LINE
  5
F23
330
19
100
AcDbEntity
  8
0
100
AcDbLine
 10
6.484011997375905
 20
8.387102389206303
 30
0.0
 11
6.502021001878156
 21
8.390103889956681
 31
0.0
  0
LINE
  5
F24
330
19
100
AcDbEntity
  8
0
100
AcDbLine
 10
6.486471109039812
 20
8.309245468136826
 30
0.0
 11
6.504480113542063
 21
8.312246968887203
 31
0.0
  0
ELLIPSE
  5
F25
330
19
100
AcDbEntity
  8
0
100
AcDbEllipse
 10
6.503251625812913
 20
8.619309654827415
 30
0.0
 11
0.0
 21
-0.03901950975487623
 31
0.0
210
0.0
220
0.0
230
1.0
 40
0.4615384615384773
 41
0.0682682091523218
 42
3.226749330788051
  0
LINE
  5
F26
330
19
100
AcDbEntity
  8
0
100
AcDbLine
 10
6.486471109039812
 20
8.577379535170342
 30
0.0
 11
6.504480113542063
 21
8.58038103592072
 31
0.0
  0
LINE
  5
F27
330
19
100
AcDbEntity
  8
0
100
AcDbLine
 10
6.484011997375905
 20
8.65523645623982
 30
0.0
 11
6.502021001878156
 21
8.658237956990197
 31
0.0
  0
ELLIPSE
  5
F28
330
19
100
AcDbEntity
  8
0
100
AcDbEllipse
 10
6.485242621310662
 20
8.616308154077037
 30
0.0
 11
0.0
 21
-0.03901950975487623
 31
0.0
210
0.0
220
0.0
230
1.0
 40
0.4615384615384773
 41
0.0
 42
6.283185307179586
  0
LINE
  5
F2A
330
19
100
AcDbEntity
  8
0
100
AcDbLine
 10
6.408204102051032
 20
4.271135567783891
 30
0.0
 11
6.448224112056034
 21
4.299149574787393
 31
0.0
  0
LINE
  5
F2B
330
19
100
AcDbEntity
  8
0
100
AcDbLine
 10
6.264132066033024
 20
4.405202601300649
 30
0.0
 11
6.299149574787401
 21
4.428214107053526
 31
0.0
  0
LINE
  5
F2C
330
19
100
AcDbEntity
  8
0
100
AcDbLine
 10
7.531765882941477
 20
4.949474737368684
 30
0.0
 11
7.574787393696855
 21
4.97248624312156
 31
0.0
  0
LINE
  5
F2D
330
19
100
AcDbEntity
  8
0
100
AcDbLine
 10
4.877438719359686
 20
6.487243621810904
 30
0.0
 11
4.85642821410706
 21
6.443221610805402
 31
0.0
  0
LINE
  5
FC1
330
19
100
AcDbEntity
  8
0
100
AcDbLine
 10
5.289644822411212
 20
5.342671335667833
 30
0.0
 11
5.313656828414214
 21
5.37968984492246
 31
0.0
  0
LINE
  5
FC2
330
19
100
AcDbEntity
  8
0
100
AcDbLine
 10
5.72386193096549
 20
5.557778889444721
 30
0.0
 11
5.747873936968491
 21
5.587793896948473
 31
0.0
  0
LINE
  5
FC4
330
19
100
AcDbEntity
  8
0
100
AcDbLine
 10
5.668834417208611
 20
7.13056528264132
 30
0.0
 11
5.72186093046524
 21
7.161580790395197
 31
0.0
  0
LINE
  5
FC5
330
19
100
AcDbEntity
  8
0
100
AcDbLine
 10
5.514757378689351
 20
4.444222111055526
 30
0.0
 11
5.564782391195605
 21
4.471235617808904
 31
0.0
  0
LINE
  5
FC6
330
19
100
AcDbEntity
  8
0
100
AcDbLine
 10
5.214607303651833
 20
4.760380190095047
 30
0.0
 11
5.248624312156085
 21
4.813406703351675
 31
0.0
  0
LINE
  5
FC7
330
19
100
AcDbEntity
  8
0
100
AcDbLine
 10
3.985992996498255
 20
4.023011505752876
 30
0.0
 11
3.99299649824913
 21
3.978989494747373
 31
0.0
  0
LINE
  5
FC8
330
19
100
AcDbEntity
  8
0
100
AcDbLine
 10
3.99299649824913
 20
3.978989494747373
 30
0.0
 11
4.021010505252633
 21
4.007003501750875
 31
0.0
  0
LINE
  5
FC9
330
19
100
AcDbEntity
  8
0
100
AcDbLine
 10
3.846850957406241
 20
4.002540325701905
 30
0.0
 11
3.871935967983998
 21
4.027013506753375
 31
0.0
  0
LINE
  5
FCA
330
19
100
AcDbEntity
  8
0
100
AcDbLine
 10
3.871935967983998
 20
4.027013506753375
 30
0.0
 11
3.868030168930625
 21
3.992419286566359
 31
0.0
  0
HATCH
  5
FCF
330
19
100
AcDbEntity
  8
0
100
AcDbHatch
 10
0.0
 20
0.0
 30
0.0
210
0.0
220
0.0
230
1.0
  2
SOLID
 70
     1
 71
     1
 91
        1
 92
        7
 72
     1
 73
     1
 93
        2
 10
3.775881692798311
 20
8.219109554777388
 42
1.0
 10
3.795904200148174
 20
8.219109554777388
 42
1.0
 97
        1
330
FD0
 75
     0
 76
     1
 47
0.0003724939392773
 98
        1
 10
3.785892946473243
 20
8.225862931465732
  0
CIRCLE
  5
FD0
102
{ACAD_REACTORS
330
FCF
102
}
330
19
100
AcDbEntity
  8
0
100
AcDbCircle
 10
3.785892946473243
 20
8.219109554777388
 30
0.0
 40
0.0100112536749318
  0
HATCH
  5
FD1
330
19
100
AcDbEntity
  8
0
100
AcDbHatch
 10
0.0
 20
0.0
 30
0.0
210
0.0
220
0.0
230
1.0
  2
SOLID
 70
     1
 71
     1
 91
        1
 92
        7
 72
     1
 73
     1
 93
        2
 10
4.069028266084954
 20
8.177088544272136
 42
1.0
 10
4.089050773434818
 20
8.177088544272136
 42
1.0
 97
        1
330
FD2
 75
     0
 76
     1
 47
0.0003724939392773
 98
        1
 10
4.079039519759887
 20
8.183841920960481
  0
CIRCLE
  5
FD2
102
{ACAD_REACTORS
330
FD1
102
}
330
19
100
AcDbEntity
  8
0
100
AcDbCircle
 10
4.079039519759887
 20
8.177088544272136
 30
0.0
 40
0.0100112536749318
  0
HATCH
  5
FD3
330
19
100
AcDbEntity
  8
0
100
AcDbHatch
 10
0.0
 20
0.0
 30
0.0
210
0.0
220
0.0
230
1.0
  2
SOLID
 70
     1
 71
     1
 91
        1
 92
        7
 72
     1
 73
     1
 93
        2
 10
3.975981742823323
 20
8.120060030015008
 42
1.0
 10
3.996004250173187
 20
8.120060030015008
 42
1.0
 97
        1
330
FD4
 75
     0
 76
     1
 47
0.0003724939392773
 98
        1
 10
3.985992996498255
 20
8.126813406703352
  0
CIRCLE
  5
FD4
102
{ACAD_REACTORS
330
FD3
102
}
330
19
100
AcDbEntity
  8
0
100
AcDbCircle
 10
3.985992996498255
 20
8.120060030015008
 30
0.0
 40
0.0100112536749318
  0
HATCH
  5
FD5
330
19
100
AcDbEntity
  8
0
100
AcDbHatch
 10
0.0
 20
0.0
 30
0.0
210
0.0
220
0.0
230
1.0
  2
SOLID
 70
     1
 71
     1
 91
        1
 92
        7
 72
     1
 73
     1
 93
        2
 10
4.267127315609717
 20
7.765882941470735
 42
1.0
 10
4.28714982295958
 20
7.765882941470735
 42
1.0
 97
        1
330
FD6
 75
     0
 76
     1
 47
0.0003724939392773
 98
        1
 10
4.277138569284649
 20
7.772636318159079
  0
CIRCLE
  5
FD6
102
{ACAD_REACTORS
330
FD5
102
}
330
19
100
AcDbEntity
  8
0
100
AcDbCircle
 10
4.277138569284649
 20
7.765882941470735
 30
0.0
 40
0.0100112536749318
  0
HATCH
  5
FD7
330
19
100
AcDbEntity
  8
0
100
AcDbHatch
 10
0.0
 20
0.0
 30
0.0
210
0.0
220
0.0
230
1.0
  2
SOLID
 70
     1
 71
     1
 91
        1
 92
        7
 72
     1
 73
     1
 93
        2
 10
4.312149826865345
 20
7.751875937968984
 42
1.0
 10
4.332172334215208
 20
7.751875937968984
 42
1.0
 97
        1
330
FD8
 75
     0
 76
     1
 47
0.0003724939392773
 98
        1
 10
4.322161080540277
 20
7.758629314657329
  0
CIRCLE
  5
FD8
102
{ACAD_REACTORS
330
FD7
102
}
330
19
100
AcDbEntity
  8
0
100
AcDbCircle
 10
4.322161080540277
 20
7.751875937968984
 30
0.0
 40
0.0100112536749318
  0
HATCH
  5
FD9
330
19
100
AcDbEntity
  8
0
100
AcDbHatch
 10
0.0
 20
0.0
 30
0.0
210
0.0
220
0.0
230
1.0
  2
SOLID
 70
     1
 71
     1
 91
        1
 92
        7
 72
     1
 73
     1
 93
        2
 10
4.425206355129476
 20
7.788894447223611
 42
1.0
 10
4.44522886247934
 20
7.788894447223611
 42
1.0
 97
        1
330
FDA
 75
     0
 76
     1
 47
0.0003724939392773
 98
        1
 10
4.435217608804408
 20
7.795647823911955
  0
CIRCLE
  5
FDA
102
{ACAD_REACTORS
330
FD9
102
}
330
19
100
AcDbEntity
  8
0
100
AcDbCircle
 10
4.435217608804408
 20
7.788894447223611
 30
0.0
 40
0.0100112536749318
  0
HATCH
  5
FDB
330
19
100
AcDbEntity
  8
0
100
AcDbHatch
 10
0.0
 20
0.0
 30
0.0
210
0.0
220
0.0
230
1.0
  2
SOLID
 70
     1
 71
     1
 91
        1
 92
        7
 72
     1
 73
     1
 93
        2
 10
4.647317410657241
 20
7.631815907953977
 42
1.0
 10
4.667339918007104
 20
7.631815907953977
 42
1.0
 97
        1
330
FDC
 75
     0
 76
     1
 47
0.0003724939392773
 98
        1
 10
4.657328664332173
 20
7.638569284642321
  0
CIRCLE
  5
FDC
102
{ACAD_REACTORS
330
FDB
102
}
330
19
100
AcDbEntity
  8
0
100
AcDbCircle
 10
4.657328664332173
 20
7.631815907953977
 30
0.0
 40
0.0100112536749318
  0
HATCH
  5
FDD
330
19
100
AcDbEntity
  8
0
100
AcDbHatch
 10
0.0
 20
0.0
 30
0.0
210
0.0
220
0.0
230
1.0
  2
SOLID
 70
     1
 71
     1
 91
        1
 92
        7
 72
     1
 73
     1
 93
        2
 10
4.930458981442634
 20
7.67983991995998
 42
1.0
 10
4.950481488792497
 20
7.67983991995998
 42
1.0
 97
        1
330
FDE
 75
     0
 76
     1
 47
0.0003724939392773
 98
        1
 10
4.940470235117566
 20
7.686593296648324
  0
CIRCLE
  5
FDE
102
{ACAD_REACTORS
330
FDD
102
}
330
19
100
AcDbEntity
  8
0
100
AcDbCircle
 10
4.940470235117566
 20
7.67983991995998
 30
0.0
 40
0.0100112536749318
  0
HATCH
  5
FDF
330
19
100
AcDbEntity
  8
0
100
AcDbHatch
 10
0.0
 20
0.0
 30
0.0
210
0.0
220
0.0
230
1.0
  2
SOLID
 70
     1
 71
     1
 91
        1
 92
        7
 72
     1
 73
     1
 93
        2
 10
4.656321912908366
 20
7.35767883941971
 42
1.0
 10
4.676344420258229
 20
7.35767883941971
 42
1.0
 97
        1
330
FE0
 75
     0
 76
     1
 47
0.0003724939392773
 98
        1
 10
4.666333166583298
 20
7.364432216108053
  0
CIRCLE
  5
FE0
102
{ACAD_REACTORS
330
FDF
102
}
330
19
100
AcDbEntity
  8
0
100
AcDbCircle
 10
4.666333166583298
 20
7.35767883941971
 30
0.0
 40
0.0100112536749318
  0
HATCH
  5
FE1
330
19
100
AcDbEntity
  8
0
100
AcDbHatch
 10
0.0
 20
0.0
 30
0.0
210
0.0
220
0.0
230
1.0
  2
SOLID
 70
     1
 71
     1
 91
        1
 92
        7
 72
     1
 73
     1
 93
        2
 10
3.952970237070447
 20
7.38169084542271
 42
1.0
 10
3.97299274442031
 20
7.38169084542271
 42
1.0
 97
        1
330
FE2
 75
     0
 76
     1
 47
0.0003724939392773
 98
        1
 10
3.962981490745379
 20
7.388444222111055
  0
CIRCLE
  5
FE2
102
{ACAD_REACTORS
330
FE1
102
}
330
19
100
AcDbEntity
  8
0
100
AcDbCircle
 10
3.962981490745379
 20
7.38169084542271
 30
0.0
 40
0.0100112536749318
  0
HATCH
  5
FE4
330
19
100
AcDbEntity
  8
0
100
AcDbHatch
 10
0.0
 20
0.0
 30
0.0
210
0.0
220
0.0
230
1.0
  2
SOLID
 70
     1
 71
     1
 91
        1
 92
        7
 72
     1
 73
     1
 93
        2
 10
3.419703603753789
 20
7.700850425212606
 42
1.0
 10
3.439726111103652
 20
7.700850425212606
 42
1.0
 97
        1
330
FE5
 75
     0
 76
     1
 47
0.0003724939392773
 98
        1
 10
3.42971485742872
 20
7.707603801900949
  0
CIRCLE
  5
FE5
102
{ACAD_REACTORS
330
FE4
102
}
330
19
100
AcDbEntity
  8
0
100
AcDbCircle
 10
3.42971485742872
 20
7.700850425212606
 30
0.0
 40
0.0100112536749318
  0
HATCH
  5
FE6
330
19
100
AcDbEntity
  8
0
100
AcDbHatch
 10
0.0
 20
0.0
 30
0.0
210
0.0
220
0.0
230
1.0
  2
SOLID
 70
     1
 71
     1
 91
        1
 92
        7
 72
     1
 73
     1
 93
        2
 10
3.299643573738781
 20
7.963981990995498
 42
1.0
 10
3.319666081088645
 20
7.963981990995498
 42
1.0
 97
        1
330
FE7
 75
     0
 76
     1
 47
0.0003724939392773
 98
        1
 10
3.309654827413713
 20
7.970735367683841
  0
CIRCLE
  5
FE7
102
{ACAD_REACTORS
330
FE6
102
}
330
19
100
AcDbEntity
  8
0
100
AcDbCircle
 10
3.309654827413713
 20
7.963981990995498
 30
0.0
 40
0.0100112536749318
  0
HATCH
  5
FE8
330
19
100
AcDbEntity
  8
0
100
AcDbHatch
 10
0.0
 20
0.0
 30
0.0
210
0.0
220
0.0
230
1.0
  2
SOLID
 70
     1
 71
     1
 91
        1
 92
        7
 72
     1
 73
     1
 93
        2
 10
3.470729116510167
 20
7.549774887443721
 42
1.0
 10
3.49075162386003
 20
7.549774887443721
 42
1.0
 97
        1
330
FE9
 75
     0
 76
     1
 47
0.0003724939392773
 98
        1
 10
3.480740370185099
 20
7.556528264132065
  0
CIRCLE
  5
FE9
102
{ACAD_REACTORS
330
FE8
102
}
330
19
100
AcDbEntity
  8
0
100
AcDbCircle
 10
3.480740370185099
 20
7.549774887443721
 30
0.0
 40
0.0100112536749318
  0
CIRCLE
  5
FEA
102
{ACAD_REACTORS
330
FEB
102
}
330
19
100
AcDbEntity
  8
0
100
AcDbCircle
 10
3.690845422711362
 20
7.456728364182091
 30
0.0
 40
0.0100112536749318
  0
HATCH
  5
FEB
330
19
100
AcDbEntity
  8
0
100
AcDbHatch
 10
0.0
 20
0.0
 30
0.0
210
0.0
220
0.0
230
1.0
  2
SOLID
 70
     1
 71
     1
 91
        1
 92
        7
 72
     1
 73
     1
 93
        2
 10
3.68083416903643
 20
7.456728364182091
 42
1.0
 10
3.700856676386294
 20
7.456728364182091
 42
1.0
 97
        1
330
FEA
 75
     0
 76
     1
 47
0.0003724939392773
 98
        1
 10
3.690845422711362
 20
7.463481740870434
  0
CIRCLE
  5
FEC
102
{ACAD_REACTORS
330
FED
102
}
330
19
100
AcDbEntity
  8
0
100
AcDbCircle
 10
3.573786893446729
 20
7.314657328664332
 30
0.0
 40
0.0100112536749318
  0
HATCH
  5
FED
330
19
100
AcDbEntity
  8
0
100
AcDbHatch
 10
0.0
 20
0.0
 30
0.0
210
0.0
220
0.0
230
1.0
  2
SOLID
 70
     1
 71
     1
 91
        1
 92
        7
 72
     1
 73
     1
 93
        2
 10
3.563775639771798
 20
7.314657328664332
 42
1.0
 10
3.583798147121661
 20
7.314657328664332
 42
1.0
 97
        1
330
FEC
 75
     0
 76
     1
 47
0.0003724939392773
 98
        1
 10
3.573786893446729
 20
7.321410705352675
  0
CIRCLE
  5
FEE
102
{ACAD_REACTORS
330
FEF
102
}
330
19
100
AcDbEntity
  8
0
100
AcDbCircle
 10
3.409704852426219
 20
7.386693346673336
 30
0.0
 40
0.0100112536749318
  0
HATCH
  5
FEF
330
19
100
AcDbEntity
  8
0
100
AcDbHatch
 10
0.0
 20
0.0
 30
0.0
210
0.0
220
0.0
230
1.0
  2
SOLID
 70
     1
 71
     1
 91
        1
 92
        7
 72
     1
 73
     1
 93
        2
 10
3.399693598751287
 20
7.386693346673336
 42
1.0
 10
3.419716106101151
 20
7.386693346673336
 42
1.0
 97
        1
330
FEE
 75
     0
 76
     1
 47
0.0003724939392773
 98
        1
 10
3.409704852426219
 20
7.39344672336168
  0
CIRCLE
  5
FF0
102
{ACAD_REACTORS
330
FF1
102
}
330
19
100
AcDbEntity
  8
0
100
AcDbCircle
 10
3.540770385192603
 20
7.178589294647323
 30
0.0
 40
0.0100112536749318
  0
HATCH
  5
FF1
330
19
100
AcDbEntity
  8
0
100
AcDbHatch
 10
0.0
 20
0.0
 30
0.0
210
0.0
220
0.0
230
1.0
  2
SOLID
 70
     1
 71
     1
 91
        1
 92
        7
 72
     1
 73
     1
 93
        2
 10
3.530759131517671
 20
7.178589294647323
 42
1.0
 10
3.550781638867534
 20
7.178589294647323
 42
1.0
 97
        1
330
FF0
 75
     0
 76
     1
 47
0.0003724939392773
 98
        1
 10
3.540770385192603
 20
7.185342671335667
  0
CIRCLE
  5
FF2
102
{ACAD_REACTORS
330
FF3
102
}
330
19
100
AcDbEntity
  8
0
100
AcDbCircle
 10
3.534767383691852
 20
7.086543271635818
 30
0.0
 40
0.0100112536749318
  0
HATCH
  5
FF3
330
19
100
AcDbEntity
  8
0
100
AcDbHatch
 10
0.0
 20
0.0
 30
0.0
210
0.0
220
0.0
230
1.0
  2
SOLID
 70
     1
 71
     1
 91
        1
 92
        7
 72
     1
 73
     1
 93
        2
 10
3.52475613001692
 20
7.086543271635818
 42
1.0
 10
3.544778637366784
 20
7.086543271635818
 42
1.0
 97
        1
330
FF2
 75
     0
 76
     1
 47
0.0003724939392773
 98
        1
 10
3.534767383691852
 20
7.093296648324161
  0
LINE
  5
FF4
330
19
100
AcDbEntity
  8
0
100
AcDbLine
 10
3.766883441720867
 20
7.171585792896448
 30
0.0
 11
3.748874437218615
 21
7.13656828414207
 31
0.0
  0
HATCH
  5
FF5
330
19
100
AcDbEntity
  8
0
100
AcDbHatch
 10
0.0
 20
0.0
 30
0.0
210
0.0
220
0.0
230
1.0
  2
SOLID
 70
     1
 71
     1
 91
        1
 92
        7
 72
     1
 73
     1
 93
        2
 10
3.694841172538181
 20
7.044522261130565
 42
1.0
 10
3.714863679888044
 20
7.044522261130565
 42
1.0
 97
        1
330
FF6
 75
     0
 76
     1
 47
0.0003724939392773
 98
        1
 10
3.704852426213113
 20
7.051275637818908
  0
CIRCLE
  5
FF6
102
{ACAD_REACTORS
330
FF5
102
}
330
19
100
AcDbEntity
  8
0
100
AcDbCircle
 10
3.704852426213113
 20
7.044522261130565
 30
0.0
 40
0.0100112536749318
  0
HATCH
  5
FF7
330
19
100
AcDbEntity
  8
0
100
AcDbHatch
 10
0.0
 20
0.0
 30
0.0
210
0.0
220
0.0
230
1.0
  2
SOLID
 70
     1
 71
     1
 91
        1
 92
        7
 72
     1
 73
     1
 93
        2
 10
3.712850177040432
 20
6.955477738869434
 42
1.0
 10
3.732872684390296
 20
6.955477738869434
 42
1.0
 97
        1
330
FF8
 75
     0
 76
     1
 47
0.0003724939392773
 98
        1
 10
3.722861430715364
 20
6.962231115557778
  0
CIRCLE
  5
FF8
102
{ACAD_REACTORS
330
FF7
102
}
330
19
100
AcDbEntity
  8
0
100
AcDbCircle
 10
3.722861430715364
 20
6.955477738869434
 30
0.0
 40
0.0100112536749318
  0
HATCH
  5
FF9
330
19
100
AcDbEntity
  8
0
100
AcDbHatch
 10
0.0
 20
0.0
 30
0.0
210
0.0
220
0.0
230
1.0
  2
SOLID
 70
     1
 71
     1
 91
        1
 92
        7
 72
     1
 73
     1
 93
        2
 10
3.427707605754789
 20
6.88544272136068
 42
1.0
 10
3.447730113104653
 20
6.88544272136068
 42
1.0
 97
        1
330
FFA
 75
     0
 76
     1
 47
0.0003724939392773
 98
        1
 10
3.437718859429721
 20
6.892196098049023
  0
CIRCLE
  5
FFA
102
{ACAD_REACTORS
330
FF9
102
}
330
19
100
AcDbEntity
  8
0
100
AcDbCircle
 10
3.437718859429721
 20
6.88544272136068
 30
0.0
 40
0.0100112536749318
  0
HATCH
  5
FFB
330
19
100
AcDbEntity
  8
0
100
AcDbHatch
 10
0.0
 20
0.0
 30
0.0
210
0.0
220
0.0
230
1.0
  2
SOLID
 70
     1
 71
     1
 91
        1
 92
        7
 72
     1
 73
     1
 93
        2
 10
3.735861682793308
 20
6.763381690845422
 42
1.0
 10
3.755884190143172
 20
6.763381690845422
 42
1.0
 97
        1
330
FFC
 75
     0
 76
     1
 47
0.0003724939392773
 98
        1
 10
3.74587293646824
 20
6.770135067533765
  0
CIRCLE
  5
FFC
102
{ACAD_REACTORS
330
FFB
102
}
330
19
100
AcDbEntity
  8
0
100
AcDbCircle
 10
3.74587293646824
 20
6.763381690845422
 30
0.0
 40
0.0100112536749318
  0
HATCH
  5
FFD
330
19
100
AcDbEntity
  8
0
100
AcDbHatch
 10
0.0
 20
0.0
 30
0.0
210
0.0
220
0.0
230
1.0
  2
SOLID
 70
     1
 71
     1
 91
        1
 92
        7
 72
     1
 73
     1
 93
        2
 10
3.851919711807815
 20
6.740370185092545
 42
1.0
 10
3.871942219157679
 20
6.740370185092545
 42
1.0
 97
        1
330
FFE
 75
     0
 76
     1
 47
0.0003724939392773
 98
        1
 10
3.861930965482747
 20
6.747123561780889
  0
CIRCLE
  5
FFE
102
{ACAD_REACTORS
330
FFD
102
}
330
19
100
AcDbEntity
  8
0
100
AcDbCircle
 10
3.861930965482747
 20
6.740370185092545
 30
0.0
 40
0.0100112536749318
  0
HATCH
  5
FFF
330
19
100
AcDbEntity
  8
0
100
AcDbHatch
 10
0.0
 20
0.0
 30
0.0
210
0.0
220
0.0
230
1.0
  2
SOLID
 70
     1
 71
     1
 91
        1
 92
        7
 72
     1
 73
     1
 93
        2
 10
3.777882693298561
 20
6.793396698349174
 42
1.0
 10
3.797905200648425
 20
6.793396698349174
 42
1.0
 97
        1
330
1000
 75
     0
 76
     1
 47
0.0003724939392773
 98
        1
 10
3.787893946973493
 20
6.800150075037517
  0
CIRCLE
  5
1000
102
{ACAD_REACTORS
330
FFF
102
}
330
19
100
AcDbEntity
  8
0
100
AcDbCircle
 10
3.787893946973493
 20
6.793396698349174
 30
0.0
 40
0.0100112536749318
  0
LINE
  5
1001
330
19
100
AcDbEntity
  8
0
100
AcDbLine
 10
3.67083541770886
 20
6.325162581290645
 30
0.0
 11
3.685842921460736
 21
6.287143571785892
 31
0.0
  0
LINE
  5
1002
330
19
100
AcDbEntity
  8
0
100
AcDbLine
 10
3.527763881940977
 20
6.280140070035017
 30
0.0
 11
3.576788394197104
 21
6.280140070035017
 31
0.0
  0
HATCH
  5
1003
330
19
100
AcDbEntity
  8
0
100
AcDbHatch
 10
0.0
 20
0.0
 30
0.0
210
0.0
220
0.0
230
1.0
  2
SOLID
 70
     1
 71
     1
 91
        1
 92
        7
 72
     1
 73
     1
 93
        2
 10
3.819903703803814
 20
6.623311655827913
 42
1.0
 10
3.839926211153677
 20
6.623311655827913
 42
1.0
 97
        1
330
1004
 75
     0
 76
     1
 47
0.0003724939392773
 98
        1
 10
3.829914957478745
 20
6.630065032516257
  0
CIRCLE
  5
1004
102
{ACAD_REACTORS
330
1003
102
}
330
19
100
AcDbEntity
  8
0
100
AcDbCircle
 10
3.829914957478745
 20
6.623311655827913
 30
0.0
 40
0.0100112536749318
  0
HATCH
  5
1005
330
19
100
AcDbEntity
  8
0
100
AcDbHatch
 10
0.0
 20
0.0
 30
0.0
210
0.0
220
0.0
230
1.0
  2
SOLID
 70
     1
 71
     1
 91
        1
 92
        7
 72
     1
 73
     1
 93
        2
 10
3.855921712808316
 20
6.57528764382191
 42
1.0
 10
3.875944220158179
 20
6.57528764382191
 42
1.0
 97
        1
330
1006
 75
     0
 76
     1
 47
0.0003724939392773
 98
        1
 10
3.865932966483248
 20
6.582041020510253
  0
CIRCLE
  5
1006
102
{ACAD_REACTORS
330
1005
102
}
330
19
100
AcDbEntity
  8
0
100
AcDbCircle
 10
3.865932966483248
 20
6.57528764382191
 30
0.0
 40
0.0100112536749318
  0
LINE
  5
1007
330
19
100
AcDbEntity
  8
0
100
AcDbLine
 10
3.864932466233122
 20
6.427213606803401
 30
0.0
 11
3.864932466233122
 21
6.384192096048023
 31
0.0
  0
LINE
  5
1008
330
19
100
AcDbEntity
  8
0
100
AcDbLine
 10
3.734867433716865
 20
5.987993996998498
 30
0.0
 11
3.729864932466239
 21
5.950975487743871
 31
0.0
  0
LINE
  5
1009
330
19
100
AcDbEntity
  8
0
100
AcDbLine
 10
3.617808904452232
 20
6.049024512256128
 30
0.0
 11
3.616808404202107
 21
6.009004502251125
 31
0.0
  0
HATCH
  5
100A
330
19
100
AcDbEntity
  8
0
100
AcDbHatch
 10
0.0
 20
0.0
 30
0.0
210
0.0
220
0.0
230
1.0
  2
SOLID
 70
     1
 71
     1
 91
        1
 92
        7
 72
     1
 73
     1
 93
        2
 10
3.593790647275549
 20
6.41320660330165
 42
1.0
 10
3.613813154625413
 20
6.41320660330165
 42
1.0
 97
        1
330
100B
 75
     0
 76
     1
 47
0.0003724939392773
 98
        1
 10
3.603801900950481
 20
6.419959979989994
  0
CIRCLE
  5
100B
102
{ACAD_REACTORS
330
100A
102
}
330
19
100
AcDbEntity
  8
0
100
AcDbCircle
 10
3.603801900950481
 20
6.41320660330165
 30
0.0
 40
0.0100112536749318
  0
HATCH
  5
100C
330
19
100
AcDbEntity
  8
0
100
AcDbHatch
 10
0.0
 20
0.0
 30
0.0
210
0.0
220
0.0
230
1.0
  2
SOLID
 70
     1
 71
     1
 91
        1
 92
        7
 72
     1
 73
     1
 93
        2
 10
3.507747625764794
 20
6.543271635817908
 42
1.0
 10
3.527770133114657
 20
6.543271635817908
 42
1.0
 97
        1
330
100D
 75
     0
 76
     1
 47
0.0003724939392773
 98
        1
 10
3.517758879439726
 20
6.550025012506252
  0
CIRCLE
  5
100D
102
{ACAD_REACTORS
330
100C
102
}
330
19
100
AcDbEntity
  8
0
100
AcDbCircle
 10
3.517758879439726
 20
6.543271635817908
 30
0.0
 40
0.0100112536749318
  0
HATCH
  5
100E
330
19
100
AcDbEntity
  8
0
100
AcDbHatch
 10
0.0
 20
0.0
 30
0.0
210
0.0
220
0.0
230
1.0
  2
SOLID
 70
     1
 71
     1
 91
        1
 92
        7
 72
     1
 73
     1
 93
        2
 10
3.945966735319572
 20
6.211105552776387
 42
1.0
 10
3.965989242669435
 20
6.211105552776387
 42
1.0
 97
        1
330
100F
 75
     0
 76
     1
 47
0.0003724939392773
 98
        1
 10
3.955977988994504
 20
6.217858929464731
  0
CIRCLE
  5
100F
102
{ACAD_REACTORS
330
100E
102
}
330
19
100
AcDbEntity
  8
0
100
AcDbCircle
 10
3.955977988994504
 20
6.211105552776387
 30
0.0
 40
0.0100112536749318
  0
HATCH
  5
1010
330
19
100
AcDbEntity
  8
0
100
AcDbHatch
 10
0.0
 20
0.0
 30
0.0
210
0.0
220
0.0
230
1.0
  2
SOLID
 70
     1
 71
     1
 91
        1
 92
        7
 72
     1
 73
     1
 93
        2
 10
3.926957230567195
 20
6.101050525262631
 42
1.0
 10
3.946979737917059
 20
6.101050525262631
 42
1.0
 97
        1
330
1011
 75
     0
 76
     1
 47
0.0003724939392773
 98
        1
 10
3.936968484242127
 20
6.107803901950974
  0
CIRCLE
  5
1011
102
{ACAD_REACTORS
330
1010
102
}
330
19
100
AcDbEntity
  8
0
100
AcDbCircle
 10
3.936968484242127
 20
6.101050525262631
 30
0.0
 40
0.0100112536749318
  0
HATCH
  5
1012
330
19
100
AcDbEntity
  8
0
100
AcDbHatch
 10
0.0
 20
0.0
 30
0.0
210
0.0
220
0.0
230
1.0
  2
SOLID
 70
     1
 71
     1
 91
        1
 92
        7
 72
     1
 73
     1
 93
        2
 10
3.900944224063944
 20
5.978989494747373
 42
1.0
 10
3.920966731413807
 20
5.978989494747373
 42
1.0
 97
        1
330
1013
 75
     0
 76
     1
 47
0.0003724939392773
 98
        1
 10
3.910955477738876
 20
5.985742871435717
  0
CIRCLE
  5
1013
102
{ACAD_REACTORS
330
1012
102
}
330
19
100
AcDbEntity
  8
0
100
AcDbCircle
 10
3.910955477738876
 20
5.978989494747373
 30
0.0
 40
0.0100112536749318
  0
HATCH
  5
1014
330
19
100
AcDbEntity
  8
0
100
AcDbHatch
 10
0.0
 20
0.0
 30
0.0
210
0.0
220
0.0
230
1.0
  2
SOLID
 70
     1
 71
     1
 91
        1
 92
        7
 72
     1
 73
     1
 93
        2
 10
3.695841672788306
 20
5.836918459229614
 42
1.0
 10
3.715864180138169
 20
5.836918459229614
 42
1.0
 97
        1
330
1015
 75
     0
 76
     1
 47
0.0003724939392773
 98
        1
 10
3.705852926463237
 20
5.843671835917958
  0
CIRCLE
  5
1015
102
{ACAD_REACTORS
330
1014
102
}
330
19
100
AcDbEntity
  8
0
100
AcDbCircle
 10
3.705852926463237
 20
5.836918459229614
 30
0.0
 40
0.0100112536749318
  0
HATCH
  5
1016
330
19
100
AcDbEntity
  8
0
100
AcDbHatch
 10
0.0
 20
0.0
 30
0.0
210
0.0
220
0.0
230
1.0
  2
SOLID
 70
     1
 71
     1
 91
        1
 92
        7
 72
     1
 73
     1
 93
        2
 10
3.946967235569697
 20
5.753876938469234
 42
1.0
 10
3.96698974291956
 20
5.753876938469234
 42
1.0
 97
        1
330
1017
 75
     0
 76
     1
 47
0.0003724939392773
 98
        1
 10
3.956978489244628
 20
5.760630315157577
  0
CIRCLE
  5
1017
102
{ACAD_REACTORS
330
1016
102
}
330
19
100
AcDbEntity
  8
0
100
AcDbCircle
 10
3.956978489244628
 20
5.753876938469234
 30
0.0
 40
0.0100112536749318
  0
HATCH
  5
1018
330
19
100
AcDbEntity
  8
0
100
AcDbHatch
 10
0.0
 20
0.0
 30
0.0
210
0.0
220
0.0
230
1.0
  2
SOLID
 70
     1
 71
     1
 91
        1
 92
        7
 72
     1
 73
     1
 93
        2
 10
3.942965234569197
 20
5.576788394197098
 42
1.0
 10
3.96298774191906
 20
5.576788394197098
 42
1.0
 97
        1
330
1019
 75
     0
 76
     1
 47
0.0003724939392773
 98
        1
 10
3.952976488244128
 20
5.583541770885441
  0
CIRCLE
  5
1019
102
{ACAD_REACTORS
330
1018
102
}
330
19
100
AcDbEntity
  8
0
100
AcDbCircle
 10
3.952976488244128
 20
5.576788394197098
 30
0.0
 40
0.0100112536749318
  0
HATCH
  5
101A
330
19
100
AcDbEntity
  8
0
100
AcDbHatch
 10
0.0
 20
0.0
 30
0.0
210
0.0
220
0.0
230
1.0
  2
SOLID
 70
     1
 71
     1
 91
        1
 92
        7
 72
     1
 73
     1
 93
        2
 10
3.868928216059942
 20
5.523761880940469
 42
1.0
 10
3.888950723409805
 20
5.523761880940469
 42
1.0
 97
        1
330
101B
 75
     0
 76
     1
 47
0.0003724939392773
 98
        1
 10
3.878939469734874
 20
5.530515257628813
  0
CIRCLE
  5
101B
102
{ACAD_REACTORS
330
101A
102
}
330
19
100
AcDbEntity
  8
0
100
AcDbCircle
 10
3.878939469734874
 20
5.523761880940469
 30
0.0
 40
0.0100112536749318
  0
HATCH
  5
101C
330
19
100
AcDbEntity
  8
0
100
AcDbHatch
 10
0.0
 20
0.0
 30
0.0
210
0.0
220
0.0
230
1.0
  2
SOLID
 70
     1
 71
     1
 91
        1
 92
        7
 72
     1
 73
     1
 93
        2
 10
3.946967235569697
 20
5.327663831915957
 42
1.0
 10
3.96698974291956
 20
5.327663831915957
 42
1.0
 97
        1
330
101D
 75
     0
 76
     1
 47
0.0003724939392773
 98
        1
 10
3.956978489244628
 20
5.3344172086043
  0
CIRCLE
  5
101D
102
{ACAD_REACTORS
330
101C
102
}
330
19
100
AcDbEntity
  8
0
100
AcDbCircle
 10
3.956978489244628
 20
5.327663831915957
 30
0.0
 40
0.0100112536749318
  0
HATCH
  5
101E
330
19
100
AcDbEntity
  8
0
100
AcDbHatch
 10
0.0
 20
0.0
 30
0.0
210
0.0
220
0.0
230
1.0
  2
SOLID
 70
     1
 71
     1
 91
        1
 92
        7
 72
     1
 73
     1
 93
        2
 10
3.980984244073949
 20
5.434717358679339
 42
1.0
 10
4.001006751423812
 20
5.434717358679339
 42
1.0
 97
        1
330
101F
 75
     0
 76
     1
 47
0.0003724939392773
 98
        1
 10
3.990995497748881
 20
5.441470735367682
  0
CIRCLE
  5
101F
102
{ACAD_REACTORS
330
101E
102
}
330
19
100
AcDbEntity
  8
0
100
AcDbCircle
 10
3.990995497748881
 20
5.434717358679339
 30
0.0
 40
0.0100112536749318
  0
HATCH
  5
1020
330
19
100
AcDbEntity
  8
0
100
AcDbHatch
 10
0.0
 20
0.0
 30
0.0
210
0.0
220
0.0
230
1.0
  2
SOLID
 70
     1
 71
     1
 91
        1
 92
        7
 72
     1
 73
     1
 93
        2
 10
4.031009256580202
 20
5.412706353176588
 42
1.0
 10
4.051031763930066
 20
5.412706353176588
 42
1.0
 97
        1
330
1021
 75
     0
 76
     1
 47
0.0003724939392773
 98
        1
 10
4.041020510255134
 20
5.419459729864931
  0
CIRCLE
  5
1021
102
{ACAD_REACTORS
330
1020
102
}
330
19
100
AcDbEntity
  8
0
100
AcDbCircle
 10
4.041020510255134
 20
5.412706353176588
 30
0.0
 40
0.0100112536749318
  0
HATCH
  5
1022
330
19
100
AcDbEntity
  8
0
100
AcDbHatch
 10
0.0
 20
0.0
 30
0.0
210
0.0
220
0.0
230
1.0
  2
SOLID
 70
     1
 71
     1
 91
        1
 92
        7
 72
     1
 73
     1
 93
        2
 10
4.112049776840333
 20
5.507753876938469
 42
1.0
 10
4.132072284190196
 20
5.507753876938469
 42
1.0
 97
        1
330
1023
 75
     0
 76
     1
 47
0.0003724939392773
 98
        1
 10
4.122061030515265
 20
5.514507253626812
  0
CIRCLE
  5
1023
102
{ACAD_REACTORS
330
1022
102
}
330
19
100
AcDbEntity
  8
0
100
AcDbCircle
 10
4.122061030515265
 20
5.507753876938469
 30
0.0
 40
0.0100112536749318
  0
HATCH
  5
1024
330
19
100
AcDbEntity
  8
0
100
AcDbHatch
 10
0.0
 20
0.0
 30
0.0
210
0.0
220
0.0
230
1.0
  2
SOLID
 70
     1
 71
     1
 91
        1
 92
        7
 72
     1
 73
     1
 93
        2
 10
4.148067785844834
 20
5.45672836418209
 42
1.0
 10
4.168090293194698
 20
5.45672836418209
 42
1.0
 97
        1
330
1025
 75
     0
 76
     1
 47
0.0003724939392773
 98
        1
 10
4.158079039519766
 20
5.463481740870433
  0
CIRCLE
  5
1025
102
{ACAD_REACTORS
330
1024
102
}
330
19
100
AcDbEntity
  8
0
100
AcDbCircle
 10
4.158079039519766
 20
5.45672836418209
 30
0.0
 40
0.0100112536749318
  0
HATCH
  5
1026
330
19
100
AcDbEntity
  8
0
100
AcDbHatch
 10
0.0
 20
0.0
 30
0.0
210
0.0
220
0.0
230
1.0
  2
SOLID
 70
     1
 71
     1
 91
        1
 92
        7
 72
     1
 73
     1
 93
        2
 10
4.194090797350588
 20
5.437718859429714
 42
1.0
 10
4.214113304700451
 20
5.437718859429714
 42
1.0
 97
        1
330
1027
 75
     0
 76
     1
 47
0.0003724939392773
 98
        1
 10
4.20410205102552
 20
5.444472236118058
  0
CIRCLE
  5
1027
102
{ACAD_REACTORS
330
1026
102
}
330
19
100
AcDbEntity
  8
0
100
AcDbCircle
 10
4.20410205102552
 20
5.437718859429714
 30
0.0
 40
0.0100112536749318
  0
HATCH
  5
1028
330
19
100
AcDbEntity
  8
0
100
AcDbHatch
 10
0.0
 20
0.0
 30
0.0
210
0.0
220
0.0
230
1.0
  2
SOLID
 70
     1
 71
     1
 91
        1
 92
        7
 72
     1
 73
     1
 93
        2
 10
4.116051777840832
 20
5.331665832916458
 42
1.0
 10
4.136074285190697
 20
5.331665832916458
 42
1.0
 97
        1
330
1029
 75
     0
 76
     1
 47
0.0003724939392773
 98
        1
 10
4.126063031515765
 20
5.338419209604801
  0
CIRCLE
  5
1029
102
{ACAD_REACTORS
330
1028
102
}
330
19
100
AcDbEntity
  8
0
100
AcDbCircle
 10
4.126063031515765
 20
5.331665832916458
 30
0.0
 40
0.0100112536749318
  0
HATCH
  5
102A
330
19
100
AcDbEntity
  8
0
100
AcDbHatch
 10
0.0
 20
0.0
 30
0.0
210
0.0
220
0.0
230
1.0
  2
SOLID
 70
     1
 71
     1
 91
        1
 92
        7
 72
     1
 73
     1
 93
        2
 10
4.164075789846836
 20
5.323661830915457
 42
1.0
 10
4.1840982971967
 20
5.323661830915457
 42
1.0
 97
        1
330
102B
 75
     0
 76
     1
 47
0.0003724939392773
 98
        1
 10
4.174087043521768
 20
5.3304152076038
  0
CIRCLE
  5
102B
102
{ACAD_REACTORS
330
102A
102
}
330
19
100
AcDbEntity
  8
0
100
AcDbCircle
 10
4.174087043521768
 20
5.323661830915457
 30
0.0
 40
0.0100112536749318
  0
HATCH
  5
102C
330
19
100
AcDbEntity
  8
0
100
AcDbHatch
 10
0.0
 20
0.0
 30
0.0
210
0.0
220
0.0
230
1.0
  2
SOLID
 70
     1
 71
     1
 91
        1
 92
        7
 72
     1
 73
     1
 93
        2
 10
4.175081292598211
 20
5.276638319159579
 42
1.0
 10
4.195103799948075
 20
5.276638319159579
 42
1.0
 97
        1
330
102D
 75
     0
 76
     1
 47
0.0003724939392773
 98
        1
 10
4.185092546273143
 20
5.283391695847922
  0
CIRCLE
  5
102D
102
{ACAD_REACTORS
330
102C
102
}
330
19
100
AcDbEntity
  8
0
100
AcDbCircle
 10
4.185092546273143
 20
5.276638319159579
 30
0.0
 40
0.0100112536749318
  0
HATCH
  5
102E
330
19
100
AcDbEntity
  8
0
100
AcDbHatch
 10
0.0
 20
0.0
 30
0.0
210
0.0
220
0.0
230
1.0
  2
SOLID
 70
     1
 71
     1
 91
        1
 92
        7
 72
     1
 73
     1
 93
        2
 10
4.144065784844335
 20
5.171585792896448
 42
1.0
 10
4.164088292194197
 20
5.171585792896448
 42
1.0
 97
        1
330
102F
 75
     0
 76
     1
 47
0.0003724939392773
 98
        1
 10
4.154077038519266
 20
5.178339169584791
  0
CIRCLE
  5
102F
102
{ACAD_REACTORS
330
102E
102
}
330
19
100
AcDbEntity
  8
0
100
AcDbCircle
 10
4.154077038519266
 20
5.171585792896448
 30
0.0
 40
0.0100112536749318
  0
HATCH
  5
1030
330
19
100
AcDbEntity
  8
0
100
AcDbHatch
 10
0.0
 20
0.0
 30
0.0
210
0.0
220
0.0
230
1.0
  2
SOLID
 70
     1
 71
     1
 91
        1
 92
        7
 72
     1
 73
     1
 93
        2
 10
4.069028266084954
 20
5.119559779889944
 42
1.0
 10
4.089050773434819
 20
5.119559779889944
 42
1.0
 97
        1
330
1031
 75
     0
 76
     1
 47
0.0003724939392773
 98
        1
 10
4.079039519759887
 20
5.126313156578288
  0
CIRCLE
  5
1031
102
{ACAD_REACTORS
330
1030
102
}
330
19
100
AcDbEntity
  8
0
100
AcDbCircle
 10
4.079039519759887
 20
5.119559779889944
 30
0.0
 40
0.0100112536749318
  0
HATCH
  5
1032
330
19
100
AcDbEntity
  8
0
100
AcDbHatch
 10
0.0
 20
0.0
 30
0.0
210
0.0
220
0.0
230
1.0
  2
SOLID
 70
     1
 71
     1
 91
        1
 92
        7
 72
     1
 73
     1
 93
        2
 10
4.025006255079452
 20
5.101550775387693
 42
1.0
 10
4.045028762429315
 20
5.101550775387693
 42
1.0
 97
        1
330
1033
 75
     0
 76
     1
 47
0.0003724939392773
 98
        1
 10
4.035017508754383
 20
5.108304152076037
  0
CIRCLE
  5
1033
102
{ACAD_REACTORS
330
1032
102
}
330
19
100
AcDbEntity
  8
0
100
AcDbCircle
 10
4.035017508754383
 20
5.101550775387693
 30
0.0
 40
0.0100112536749318
  0
HATCH
  5
1034
330
19
100
AcDbEntity
  8
0
100
AcDbHatch
 10
0.0
 20
0.0
 30
0.0
210
0.0
220
0.0
230
1.0
  2
SOLID
 70
     1
 71
     1
 91
        1
 92
        7
 72
     1
 73
     1
 93
        2
 10
4.316151827865845
 20
4.815407703851925
 42
1.0
 10
4.336174335215709
 20
4.815407703851925
 42
1.0
 97
        1
330
1035
 75
     0
 76
     1
 47
0.0003724939392773
 98
        1
 10
4.326163081540777
 20
4.822161080540268
  0
CIRCLE
  5
1035
102
{ACAD_REACTORS
330
1034
102
}
330
19
100
AcDbEntity
  8
0
100
AcDbCircle
 10
4.326163081540777
 20
4.815407703851925
 30
0.0
 40
0.0100112536749318
  0
HATCH
  5
1036
330
19
100
AcDbEntity
  8
0
100
AcDbHatch
 10
0.0
 20
0.0
 30
0.0
210
0.0
220
0.0
230
1.0
  2
SOLID
 70
     1
 71
     1
 91
        1
 92
        7
 72
     1
 73
     1
 93
        2
 10
4.362174839371598
 20
4.765382691345672
 42
1.0
 10
4.382197346721462
 20
4.765382691345672
 42
1.0
 97
        1
330
1037
 75
     0
 76
     1
 47
0.0003724939392773
 98
        1
 10
4.37218609304653
 20
4.772136068034016
  0
CIRCLE
  5
1037
102
{ACAD_REACTORS
330
1036
102
}
330
19
100
AcDbEntity
  8
0
100
AcDbCircle
 10
4.37218609304653
 20
4.765382691345672
 30
0.0
 40
0.0100112536749318
  0
HATCH
  5
1038
330
19
100
AcDbEntity
  8
0
100
AcDbHatch
 10
0.0
 20
0.0
 30
0.0
210
0.0
220
0.0
230
1.0
  2
SOLID
 70
     1
 71
     1
 91
        1
 92
        7
 72
     1
 73
     1
 93
        2
 10
4.523255379641734
 20
4.626313156578288
 42
1.0
 10
4.543277886991596
 20
4.626313156578288
 42
1.0
 97
        1
330
1039
 75
     0
 76
     1
 47
0.0003724939392773
 98
        1
 10
4.533266633316665
 20
4.633066533266631
  0
CIRCLE
  5
1039
102
{ACAD_REACTORS
330
1038
102
}
330
19
100
AcDbEntity
  8
0
100
AcDbCircle
 10
4.533266633316665
 20
4.626313156578288
 30
0.0
 40
0.0100112536749318
  0
HATCH
  5
103A
330
19
100
AcDbEntity
  8
0
100
AcDbHatch
 10
0.0
 20
0.0
 30
0.0
210
0.0
220
0.0
230
1.0
  2
SOLID
 70
     1
 71
     1
 91
        1
 92
        7
 72
     1
 73
     1
 93
        2
 10
4.474230867385606
 20
4.705352676338168
 42
1.0
 10
4.494253374735468
 20
4.705352676338168
 42
1.0
 97
        1
330
103B
 75
     0
 76
     1
 47
0.0003724939392773
 98
        1
 10
4.484242121060537
 20
4.712106053026512
  0
CIRCLE
  5
103B
102
{ACAD_REACTORS
330
103A
102
}
330
19
100
AcDbEntity
  8
0
100
AcDbCircle
 10
4.484242121060537
 20
4.705352676338168
 30
0.0
 40
0.0100112536749318
  0
HATCH
  5
103C
330
19
100
AcDbEntity
  8
0
100
AcDbHatch
 10
0.0
 20
0.0
 30
0.0
210
0.0
220
0.0
230
1.0
  2
SOLID
 70
     1
 71
     1
 91
        1
 92
        7
 72
     1
 73
     1
 93
        2
 10
4.432209856880352
 20
4.786393196598298
 42
1.0
 10
4.452232364230216
 20
4.786393196598298
 42
1.0
 97
        1
330
103D
 75
     0
 76
     1
 47
0.0003724939392773
 98
        1
 10
4.442221110555284
 20
4.793146573286641
  0
CIRCLE
  5
103D
102
{ACAD_REACTORS
330
103C
102
}
330
19
100
AcDbEntity
  8
0
100
AcDbCircle
 10
4.442221110555284
 20
4.786393196598298
 30
0.0
 40
0.0100112536749318
  0
HATCH
  5
103E
330
19
100
AcDbEntity
  8
0
100
AcDbHatch
 10
0.0
 20
0.0
 30
0.0
210
0.0
220
0.0
230
1.0
  2
SOLID
 70
     1
 71
     1
 91
        1
 92
        7
 72
     1
 73
     1
 93
        2
 10
4.375181342623224
 20
4.843421710855427
 42
1.0
 10
4.395203849973088
 20
4.843421710855427
 42
1.0
 97
        1
330
103F
 75
     0
 76
     1
 47
0.0003724939392773
 98
        1
 10
4.385192596298156
 20
4.850175087543771
  0
CIRCLE
  5
103F
102
{ACAD_REACTORS
330
103E
102
}
330
19
100
AcDbEntity
  8
0
100
AcDbCircle
 10
4.385192596298156
 20
4.843421710855427
 30
0.0
 40
0.0100112536749318
  0
HATCH
  5
1040
330
19
100
AcDbEntity
  8
0
100
AcDbHatch
 10
0.0
 20
0.0
 30
0.0
210
0.0
220
0.0
230
1.0
  2
SOLID
 70
     1
 71
     1
 91
        1
 92
        7
 72
     1
 73
     1
 93
        2
 10
4.31515132761572
 20
4.90345172586293
 42
1.0
 10
4.335173834965584
 20
4.90345172586293
 42
1.0
 97
        1
330
1041
 75
     0
 76
     1
 47
0.0003724939392773
 98
        1
 10
4.325162581290652
 20
4.910205102551274
  0
CIRCLE
  5
1041
102
{ACAD_REACTORS
330
1040
102
}
330
19
100
AcDbEntity
  8
0
100
AcDbCircle
 10
4.325162581290652
 20
4.90345172586293
 30
0.0
 40
0.0100112536749318
  0
HATCH
  5
1042
330
19
100
AcDbEntity
  8
0
100
AcDbHatch
 10
0.0
 20
0.0
 30
0.0
210
0.0
220
0.0
230
1.0
  2
SOLID
 70
     1
 71
     1
 91
        1
 92
        7
 72
     1
 73
     1
 93
        2
 10
3.438713108506165
 20
5.319659829914957
 42
1.0
 10
3.458735615856028
 20
5.319659829914957
 42
1.0
 97
        1
330
1043
 75
     0
 76
     1
 47
0.0003724939392773
 98
        1
 10
3.448724362181097
 20
5.3264132066033
  0
CIRCLE
  5
1043
102
{ACAD_REACTORS
330
1042
102
}
330
19
100
AcDbEntity
  8
0
100
AcDbCircle
 10
3.448724362181097
 20
5.319659829914957
 30
0.0
 40
0.0100112536749318
  0
HATCH
  5
1044
330
19
100
AcDbEntity
  8
0
100
AcDbHatch
 10
0.0
 20
0.0
 30
0.0
210
0.0
220
0.0
230
1.0
  2
SOLID
 70
     1
 71
     1
 91
        1
 92
        7
 72
     1
 73
     1
 93
        2
 10
3.471729616760292
 20
5.400700350175087
 42
1.0
 10
3.491752124110156
 20
5.400700350175087
 42
1.0
 97
        1
330
1045
 75
     0
 76
     1
 47
0.0003724939392773
 98
        1
 10
3.481740870435224
 20
5.40745372686343
  0
CIRCLE
  5
1045
102
{ACAD_REACTORS
330
1044
102
}
330
19
100
AcDbEntity
  8
0
100
AcDbCircle
 10
3.481740870435224
 20
5.400700350175087
 30
0.0
 40
0.0100112536749318
  0
HATCH
  5
1046
330
19
100
AcDbEntity
  8
0
100
AcDbHatch
 10
0.0
 20
0.0
 30
0.0
210
0.0
220
0.0
230
1.0
  2
SOLID
 70
     1
 71
     1
 91
        1
 92
        7
 72
     1
 73
     1
 93
        2
 10
3.604796150026925
 20
5.142571285642821
 42
1.0
 10
3.624818657376788
 20
5.142571285642821
 42
1.0
 97
        1
330
1047
 75
     0
 76
     1
 47
0.0003724939392773
 98
        1
 10
3.614807403701857
 20
5.149324662331164
  0
CIRCLE
  5
1047
102
{ACAD_REACTORS
330
1046
102
}
330
19
100
AcDbEntity
  8
0
100
AcDbCircle
 10
3.614807403701857
 20
5.142571285642821
 30
0.0
 40
0.0100112536749318
  0
HATCH
  5
1048
330
19
100
AcDbEntity
  8
0
100
AcDbHatch
 10
0.0
 20
0.0
 30
0.0
210
0.0
220
0.0
230
1.0
  2
SOLID
 70
     1
 71
     1
 91
        1
 92
        7
 72
     1
 73
     1
 93
        2
 10
3.575781642773298
 20
4.873436718359178
 42
1.0
 10
3.595804150123162
 20
4.873436718359178
 42
1.0
 97
        1
330
1049
 75
     0
 76
     1
 47
0.0003724939392773
 98
        1
 10
3.58579289644823
 20
4.880190095047522
  0
CIRCLE
  5
1049
102
{ACAD_REACTORS
330
1048
102
}
330
19
100
AcDbEntity
  8
0
100
AcDbCircle
 10
3.58579289644823
 20
4.873436718359178
 30
0.0
 40
0.0100112536749318
  0
HATCH
  5
104A
330
19
100
AcDbEntity
  8
0
100
AcDbHatch
 10
0.0
 20
0.0
 30
0.0
210
0.0
220
0.0
230
1.0
  2
SOLID
 70
     1
 71
     1
 91
        1
 92
        7
 72
     1
 73
     1
 93
        2
 10
3.624806155029427
 20
4.918459229614807
 42
1.0
 10
3.64482866237929
 20
4.918459229614807
 42
1.0
 97
        1
330
104B
 75
     0
 76
     1
 47
0.0003724939392773
 98
        1
 10
3.634817408704358
 20
4.92521260630315
  0
CIRCLE
  5
104B
102
{ACAD_REACTORS
330
104A
102
}
330
19
100
AcDbEntity
  8
0
100
AcDbCircle
 10
3.634817408704358
 20
4.918459229614807
 30
0.0
 40
0.0100112536749318
  0
HATCH
  5
104C
330
19
100
AcDbEntity
  8
0
100
AcDbHatch
 10
0.0
 20
0.0
 30
0.0
210
0.0
220
0.0
230
1.0
  2
SOLID
 70
     1
 71
     1
 91
        1
 92
        7
 72
     1
 73
     1
 93
        2
 10
3.707847675789807
 20
4.890445222611305
 42
1.0
 10
3.72787018313967
 20
4.890445222611305
 42
1.0
 97
        1
330
104D
 75
     0
 76
     1
 47
0.0003724939392773
 98
        1
 10
3.717858929464738
 20
4.897198599299649
  0
CIRCLE
  5
104D
102
{ACAD_REACTORS
330
104C
102
}
330
19
100
AcDbEntity
  8
0
100
AcDbCircle
 10
3.717858929464738
 20
4.890445222611305
 30
0.0
 40
0.0100112536749318
  0
CIRCLE
  5
104E
102
{ACAD_REACTORS
330
104F
102
}
330
19
100
AcDbEntity
  8
0
100
AcDbCircle
 10
4.158079039519766
 20
3.918959479739869
 30
0.0
 40
0.0100112536749318
  0
HATCH
  5
104F
330
19
100
AcDbEntity
  8
0
100
AcDbHatch
 10
0.0
 20
0.0
 30
0.0
210
0.0
220
0.0
230
1.0
  2
SOLID
 70
     1
 71
     1
 91
        1
 92
        7
 72
     1
 73
     1
 93
        2
 10
4.148067785844834
 20
3.918959479739869
 42
1.0
 10
4.168090293194697
 20
3.918959479739869
 42
1.0
 97
        1
330
104E
 75
     0
 76
     1
 47
0.0003724939392773
 98
        1
 10
4.158079039519766
 20
3.925712856428212
  0
HATCH
  5
1050
330
19
100
AcDbEntity
  8
0
100
AcDbHatch
 10
0.0
 20
0.0
 30
0.0
210
0.0
220
0.0
230
1.0
  2
SOLID
 70
     1
 71
     1
 91
        1
 92
        7
 72
     1
 73
     1
 93
        2
 10
4.091039271587706
 20
3.988994497248624
 42
1.0
 10
4.111061778937569
 20
3.988994497248624
 42
1.0
 97
        1
330
1051
 75
     0
 76
     1
 47
0.0003724939392773
 98
        1
 10
4.101050525262638
 20
3.995747873936967
  0
CIRCLE
  5
1051
102
{ACAD_REACTORS
330
1050
102
}
330
19
100
AcDbEntity
  8
0
100
AcDbCircle
 10
4.101050525262638
 20
3.988994497248624
 30
0.0
 40
0.0100112536749318
  0
CIRCLE
  5
1052
102
{ACAD_REACTORS
330
1053
102
}
330
19
100
AcDbEntity
  8
0
100
AcDbCircle
 10
7.678839419709862
 20
5.800900450225112
 30
0.0
 40
0.0100112536749318
  0
HATCH
  5
1053
330
19
100
AcDbEntity
  8
0
100
AcDbHatch
 10
0.0
 20
0.0
 30
0.0
210
0.0
220
0.0
230
1.0
  2
SOLID
 70
     1
 71
     1
 91
        1
 92
        7
 72
     1
 73
     1
 93
        2
 10
7.668828166034929
 20
5.800900450225112
 42
1.0
 10
7.688850673384793
 20
5.800900450225112
 42
1.0
 97
        1
330
1052
 75
     0
 76
     1
 47
0.0003724939392773
 98
        1
 10
7.678839419709862
 20
5.807653826913455
  0
HATCH
  5
1054
330
19
100
AcDbEntity
  8
0
100
AcDbHatch
 10
0.0
 20
0.0
 30
0.0
210
0.0
220
0.0
230
1.0
  2
SOLID
 70
     1
 71
     1
 91
        1
 92
        7
 72
     1
 73
     1
 93
        2
 10
8.031009256580202
 20
9.19959979989995
 42
1.0
 10
8.051031763930066
 20
9.19959979989995
 42
1.0
 97
        1
330
1055
 75
     0
 76
     1
 47
0.0003724939392773
 98
        1
 10
8.041020510255134
 20
9.206353176588294
  0
CIRCLE
  5
1055
102
{ACAD_REACTORS
330
1054
102
}
330
19
100
AcDbEntity
  8
0
100
AcDbCircle
 10
8.041020510255134
 20
9.19959979989995
 30
0.0
 40
0.0100112536749318
  0
HATCH
  5
1056
330
19
100
AcDbEntity
  8
0
100
AcDbHatch
 10
0.0
 20
0.0
 30
0.0
210
0.0
220
0.0
230
1.0
  2
SOLID
 70
     1
 71
     1
 91
        1
 92
        7
 72
     1
 73
     1
 93
        2
 10
7.872930217060443
 20
8.948474237118559
 42
1.0
 10
7.892952724410306
 20
8.948474237118559
 42
1.0
 97
        1
330
1057
 75
     0
 76
     1
 47
0.0003724939392773
 98
        1
 10
7.882941470735375
 20
8.955227613806903
  0
CIRCLE
  5
1057
102
{ACAD_REACTORS
330
1056
102
}
330
19
100
AcDbEntity
  8
0
100
AcDbCircle
 10
7.882941470735375
 20
8.948474237118559
 30
0.0
 40
0.0100112536749318
  0
HATCH
  5
1058
330
19
100
AcDbEntity
  8
0
100
AcDbHatch
 10
0.0
 20
0.0
 30
0.0
210
0.0
220
0.0
230
1.0
  2
SOLID
 70
     1
 71
     1
 91
        1
 92
        7
 72
     1
 73
     1
 93
        2
 10
7.698843173538681
 20
9.06353176588294
 42
1.0
 10
7.718865680888545
 20
9.06353176588294
 42
1.0
 97
        1
330
1059
 75
     0
 76
     1
 47
0.0003724939392773
 98
        1
 10
7.708854427213614
 20
9.070285142571285
  0
CIRCLE
  5
1059
102
{ACAD_REACTORS
330
1058
102
}
330
19
100
AcDbEntity
  8
0
100
AcDbCircle
 10
7.708854427213614
 20
9.06353176588294
 30
0.0
 40
0.0100112536749318
  0
HATCH
  5
105A
330
19
100
AcDbEntity
  8
0
100
AcDbHatch
 10
0.0
 20
0.0
 30
0.0
210
0.0
220
0.0
230
1.0
  2
SOLID
 70
     1
 71
     1
 91
        1
 92
        7
 72
     1
 73
     1
 93
        2
 10
8.729358431167496
 20
8.234117058529265
 42
1.0
 10
8.74938093851736
 20
8.234117058529265
 42
1.0
 97
        1
330
105B
 75
     0
 76
     1
 47
0.0003724939392773
 98
        1
 10
8.739369684842428
 20
8.240870435217609
  0
CIRCLE
  5
105B
102
{ACAD_REACTORS
330
105A
102
}
330
19
100
AcDbEntity
  8
0
100
AcDbCircle
 10
8.739369684842428
 20
8.234117058529265
 30
0.0
 40
0.0100112536749318
  0
HATCH
  5
105C
330
19
100
AcDbEntity
  8
0
100
AcDbHatch
 10
0.0
 20
0.0
 30
0.0
210
0.0
220
0.0
230
1.0
  2
SOLID
 70
     1
 71
     1
 91
        1
 92
        7
 72
     1
 73
     1
 93
        2
 10
8.374180842373098
 20
5.316658329164581
 42
1.0
 10
8.394203349722963
 20
5.316658329164581
 42
1.0
 97
        1
330
105D
 75
     0
 76
     1
 47
0.0003724939392773
 98
        1
 10
8.384192096048031
 20
5.323411705852925
  0
CIRCLE
  5
105D
102
{ACAD_REACTORS
330
105C
102
}
330
19
100
AcDbEntity
  8
0
100
AcDbCircle
 10
8.384192096048031
 20
5.316658329164581
 30
0.0
 40
0.0100112536749318
  0
HATCH
  5
105E
330
19
100
AcDbEntity
  8
0
100
AcDbHatch
 10
0.0
 20
0.0
 30
0.0
210
0.0
220
0.0
230
1.0
  2
SOLID
 70
     1
 71
     1
 91
        1
 92
        7
 72
     1
 73
     1
 93
        2
 10
8.229108306104966
 20
5.074537268634316
 42
1.0
 10
8.24913081345483
 20
5.074537268634316
 42
1.0
 97
        1
330
105F
 75
     0
 76
     1
 47
0.0003724939392773
 98
        1
 10
8.239119559779898
 20
5.081290645322659
  0
CIRCLE
  5
105F
102
{ACAD_REACTORS
330
105E
102
}
330
19
100
AcDbEntity
  8
0
100
AcDbCircle
 10
8.239119559779898
 20
5.074537268634316
 30
0.0
 40
0.0100112536749318
  0
HATCH
  5
1060
330
19
100
AcDbEntity
  8
0
100
AcDbHatch
 10
0.0
 20
0.0
 30
0.0
210
0.0
220
0.0
230
1.0
  2
SOLID
 70
     1
 71
     1
 91
        1
 92
        7
 72
     1
 73
     1
 93
        2
 10
7.9829852445742
 20
5.115557778889444
 42
1.0
 10
8.003007751924065
 20
5.115557778889444
 42
1.0
 97
        1
330
1061
 75
     0
 76
     1
 47
0.0003724939392773
 98
        1
 10
7.992996498249132
 20
5.122311155577787
  0
CIRCLE
  5
1061
102
{ACAD_REACTORS
330
1060
102
}
330
19
100
AcDbEntity
  8
0
100
AcDbCircle
 10
7.992996498249132
 20
5.115557778889444
 30
0.0
 40
0.0100112536749318
  0
HATCH
  5
1062
330
19
100
AcDbEntity
  8
0
100
AcDbHatch
 10
0.0
 20
0.0
 30
0.0
210
0.0
220
0.0
230
1.0
  2
SOLID
 70
     1
 71
     1
 91
        1
 92
        7
 72
     1
 73
     1
 93
        2
 10
5.450719111507666
 20
4.226113056528263
 42
1.0
 10
5.470741618857529
 20
4.226113056528263
 42
1.0
 97
        1
330
1063
 75
     0
 76
     1
 47
0.0003724939392773
 98
        1
 10
5.460730365182598
 20
4.232866433216606
  0
CIRCLE
  5
1063
102
{ACAD_REACTORS
330
1062
102
}
330
19
100
AcDbEntity
  8
0
100
AcDbCircle
 10
5.460730365182598
 20
4.226113056528263
 30
0.0
 40
0.0100112536749318
  0
HATCH
  5
1064
330
19
100
AcDbEntity
  8
0
100
AcDbHatch
 10
0.0
 20
0.0
 30
0.0
210
0.0
220
0.0
230
1.0
  2
SOLID
 70
     1
 71
     1
 91
        1
 92
        7
 72
     1
 73
     1
 93
        2
 10
4.756371937920872
 20
4.25312656328164
 42
1.0
 10
4.776394445270736
 20
4.25312656328164
 42
1.0
 97
        1
330
1065
 75
     0
 76
     1
 47
0.0003724939392773
 98
        1
 10
4.766383191595804
 20
4.259879939969983
  0
CIRCLE
  5
1065
102
{ACAD_REACTORS
330
1064
102
}
330
19
100
AcDbEntity
  8
0
100
AcDbCircle
 10
4.766383191595804
 20
4.25312656328164
 30
0.0
 40
0.0100112536749318
  0
HATCH
  5
1066
330
19
100
AcDbEntity
  8
0
100
AcDbHatch
 10
0.0
 20
0.0
 30
0.0
210
0.0
220
0.0
230
1.0
  2
SOLID
 70
     1
 71
     1
 91
        1
 92
        7
 72
     1
 73
     1
 93
        2
 10
4.933460482193008
 20
4.126063031515757
 42
1.0
 10
4.953482989542872
 20
4.126063031515757
 42
1.0
 97
        1
330
1067
 75
     0
 76
     1
 47
0.0003724939392773
 98
        1
 10
4.943471735867941
 20
4.1328164082041
  0
CIRCLE
  5
1067
102
{ACAD_REACTORS
330
1066
102
}
330
19
100
AcDbEntity
  8
0
100
AcDbCircle
 10
4.943471735867941
 20
4.126063031515757
 30
0.0
 40
0.0100112536749318
  0
HATCH
  5
1068
330
19
100
AcDbEntity
  8
0
100
AcDbHatch
 10
0.0
 20
0.0
 30
0.0
210
0.0
220
0.0
230
1.0
  2
SOLID
 70
     1
 71
     1
 91
        1
 92
        7
 72
     1
 73
     1
 93
        2
 10
4.818402953428627
 20
4.044022011005501
 42
1.0
 10
4.83842546077849
 20
4.044022011005501
 42
1.0
 97
        1
330
1069
 75
     0
 76
     1
 47
0.0003724939392773
 98
        1
 10
4.828414207103559
 20
4.050775387693845
  0
CIRCLE
  5
1069
102
{ACAD_REACTORS
330
1068
102
}
330
19
100
AcDbEntity
  8
0
100
AcDbCircle
 10
4.828414207103559
 20
4.044022011005501
 30
0.0
 40
0.0100112536749318
  0
HATCH
  5
106A
330
19
100
AcDbEntity
  8
0
100
AcDbHatch
 10
0.0
 20
0.0
 30
0.0
210
0.0
220
0.0
230
1.0
  2
SOLID
 70
     1
 71
     1
 91
        1
 92
        7
 72
     1
 73
     1
 93
        2
 10
4.608297900902363
 20
4.09704852426213
 42
1.0
 10
4.628320408252226
 20
4.09704852426213
 42
1.0
 97
        1
330
106B
 75
     0
 76
     1
 47
0.0003724939392773
 98
        1
 10
4.618309154577295
 20
4.103801900950473
  0
CIRCLE
  5
106B
102
{ACAD_REACTORS
330
106A
102
}
330
19
100
AcDbEntity
  8
0
100
AcDbCircle
 10
4.618309154577295
 20
4.09704852426213
 30
0.0
 40
0.0100112536749318
  0
HATCH
  5
106C
330
19
100
AcDbEntity
  8
0
100
AcDbHatch
 10
0.0
 20
0.0
 30
0.0
210
0.0
220
0.0
230
1.0
  2
SOLID
 70
     1
 71
     1
 91
        1
 92
        7
 72
     1
 73
     1
 93
        2
 10
5.773880692298061
 20
7.241620810405202
 42
1.0
 10
5.793903199647924
 20
7.241620810405202
 42
1.0
 97
        1
330
106D
 75
     0
 76
     1
 47
0.0003724939392773
 98
        1
 10
5.783891945972993
 20
7.248374187093545
  0
CIRCLE
  5
106D
102
{ACAD_REACTORS
330
106C
102
}
330
19
100
AcDbEntity
  8
0
100
AcDbCircle
 10
5.783891945972993
 20
7.241620810405202
 30
0.0
 40
0.0100112536749318
  0
HATCH
  5
106E
330
19
100
AcDbEntity
  8
0
100
AcDbHatch
 10
0.0
 20
0.0
 30
0.0
210
0.0
220
0.0
230
1.0
  2
SOLID
 70
     1
 71
     1
 91
        1
 92
        7
 72
     1
 73
     1
 93
        2
 10
5.579783643773799
 20
7.12656328164082
 42
1.0
 10
5.599806151123662
 20
7.12656328164082
 42
1.0
 97
        1
330
106F
 75
     0
 76
     1
 47
0.0003724939392773
 98
        1
 10
5.589794897448731
 20
7.133316658329163
  0
CIRCLE
  5
106F
102
{ACAD_REACTORS
330
106E
102
}
330
19
100
AcDbEntity
  8
0
100
AcDbCircle
 10
5.589794897448731
 20
7.12656328164082
 30
0.0
 40
0.0100112536749318
  0
HATCH
  5
1070
330
19
100
AcDbEntity
  8
0
100
AcDbHatch
 10
0.0
 20
0.0
 30
0.0
210
0.0
220
0.0
230
1.0
  2
SOLID
 70
     1
 71
     1
 91
        1
 92
        7
 72
     1
 73
     1
 93
        2
 10
5.630809156530177
 20
6.758379189594796
 42
1.0
 10
5.650831663880041
 20
6.758379189594796
 42
1.0
 97
        1
330
1071
 75
     0
 76
     1
 47
0.0003724939392773
 98
        1
 10
5.64082041020511
 20
6.76513256628314
  0
CIRCLE
  5
1071
102
{ACAD_REACTORS
330
1070
102
}
330
19
100
AcDbEntity
  8
0
100
AcDbCircle
 10
5.64082041020511
 20
6.758379189594796
 30
0.0
 40
0.0100112536749318
  0
HATCH
  5
1072
330
19
100
AcDbEntity
  8
0
100
AcDbHatch
 10
0.0
 20
0.0
 30
0.0
210
0.0
220
0.0
230
1.0
  2
SOLID
 70
     1
 71
     1
 91
        1
 92
        7
 72
     1
 73
     1
 93
        2
 10
5.792890197050437
 20
6.740370185092545
 42
1.0
 10
5.812912704400301
 20
6.740370185092545
 42
1.0
 97
        1
330
1073
 75
     0
 76
     1
 47
0.0003724939392773
 98
        1
 10
5.802901450725369
 20
6.747123561780889
  0
CIRCLE
  5
1073
102
{ACAD_REACTORS
330
1072
102
}
330
19
100
AcDbEntity
  8
0
100
AcDbCircle
 10
5.802901450725369
 20
6.740370185092545
 30
0.0
 40
0.0100112536749318
  0
HATCH
  5
1074
330
19
100
AcDbEntity
  8
0
100
AcDbHatch
 10
0.0
 20
0.0
 30
0.0
210
0.0
220
0.0
230
1.0
  2
SOLID
 70
     1
 71
     1
 91
        1
 92
        7
 72
     1
 73
     1
 93
        2
 10
5.608798151027425
 20
6.505252626313156
 42
1.0
 10
5.628820658377289
 20
6.505252626313156
 42
1.0
 97
        1
330
1075
 75
     0
 76
     1
 47
0.0003724939392773
 98
        1
 10
5.618809404702358
 20
6.512006003001499
  0
CIRCLE
  5
1075
102
{ACAD_REACTORS
330
1074
102
}
330
19
100
AcDbEntity
  8
0
100
AcDbCircle
 10
5.618809404702358
 20
6.505252626313156
 30
0.0
 40
0.0100112536749318
  0
HATCH
  5
1076
330
19
100
AcDbEntity
  8
0
100
AcDbHatch
 10
0.0
 20
0.0
 30
0.0
210
0.0
220
0.0
230
1.0
  2
SOLID
 70
     1
 71
     1
 91
        1
 92
        7
 72
     1
 73
     1
 93
        2
 10
5.504746125014419
 20
6.361180590295147
 42
1.0
 10
5.524768632364283
 20
6.361180590295147
 42
1.0
 97
        1
330
1077
 75
     0
 76
     1
 47
0.0003724939392773
 98
        1
 10
5.514757378689351
 20
6.367933966983491
  0
CIRCLE
  5
1077
102
{ACAD_REACTORS
330
1076
102
}
330
19
100
AcDbEntity
  8
0
100
AcDbCircle
 10
5.514757378689351
 20
6.361180590295147
 30
0.0
 40
0.0100112536749318
  0
HATCH
  5
1078
330
19
100
AcDbEntity
  8
0
100
AcDbHatch
 10
0.0
 20
0.0
 30
0.0
210
0.0
220
0.0
230
1.0
  2
SOLID
 70
     1
 71
     1
 91
        1
 92
        7
 72
     1
 73
     1
 93
        2
 10
5.306647075489657
 20
6.261130565282641
 42
1.0
 10
5.326669582839521
 20
6.261130565282641
 42
1.0
 97
        1
330
1079
 75
     0
 76
     1
 47
0.0003724939392773
 98
        1
 10
5.316658329164589
 20
6.267883941970984
  0
CIRCLE
  5
1079
102
{ACAD_REACTORS
330
1078
102
}
330
19
100
AcDbEntity
  8
0
100
AcDbCircle
 10
5.316658329164589
 20
6.261130565282641
 30
0.0
 40
0.0100112536749318
  0
HATCH
  5
107A
330
19
100
AcDbEntity
  8
0
100
AcDbHatch
 10
0.0
 20
0.0
 30
0.0
210
0.0
220
0.0
230
1.0
  2
SOLID
 70
     1
 71
     1
 91
        1
 92
        7
 72
     1
 73
     1
 93
        2
 10
5.177582543223524
 20
6.41720860430215
 42
1.0
 10
5.197605050573388
 20
6.41720860430215
 42
1.0
 97
        1
330
107B
 75
     0
 76
     1
 47
0.0003724939392773
 98
        1
 10
5.187593796898456
 20
6.423961980990494
  0
CIRCLE
  5
107B
102
{ACAD_REACTORS
330
107A
102
}
330
19
100
AcDbEntity
  8
0
100
AcDbCircle
 10
5.187593796898456
 20
6.41720860430215
 30
0.0
 40
0.0100112536749318
  0
HATCH
  5
107C
330
19
100
AcDbEntity
  8
0
100
AcDbHatch
 10
0.0
 20
0.0
 30
0.0
210
0.0
220
0.0
230
1.0
  2
SOLID
 70
     1
 71
     1
 91
        1
 92
        7
 72
     1
 73
     1
 93
        2
 10
5.11755252821602
 20
6.711355677838919
 42
1.0
 10
5.137575035565884
 20
6.711355677838919
 42
1.0
 97
        1
330
107D
 75
     0
 76
     1
 47
0.0003724939392773
 98
        1
 10
5.127563781890952
 20
6.718109054527262
  0
CIRCLE
  5
107D
102
{ACAD_REACTORS
330
107C
102
}
330
19
100
AcDbEntity
  8
0
100
AcDbCircle
 10
5.127563781890952
 20
6.711355677838919
 30
0.0
 40
0.0100112536749318
  0
HATCH
  5
107E
330
19
100
AcDbEntity
  8
0
100
AcDbHatch
 10
0.0
 20
0.0
 30
0.0
210
0.0
220
0.0
230
1.0
  2
SOLID
 70
     1
 71
     1
 91
        1
 92
        7
 72
     1
 73
     1
 93
        2
 10
5.023505504704264
 20
6.8184092046023
 42
1.0
 10
5.043528012054128
 20
6.8184092046023
 42
1.0
 97
        1
330
107F
 75
     0
 76
     1
 47
0.0003724939392773
 98
        1
 10
5.033516758379196
 20
6.825162581290644
  0
CIRCLE
  5
107F
102
{ACAD_REACTORS
330
107E
102
}
330
19
100
AcDbEntity
  8
0
100
AcDbCircle
 10
5.033516758379196
 20
6.8184092046023
 30
0.0
 40
0.0100112536749318
  0
HATCH
  5
1080
330
19
100
AcDbEntity
  8
0
100
AcDbHatch
 10
0.0
 20
0.0
 30
0.0
210
0.0
220
0.0
230
1.0
  2
SOLID
 70
     1
 71
     1
 91
        1
 92
        7
 72
     1
 73
     1
 93
        2
 10
5.139563533718771
 20
6.882441220610304
 42
1.0
 10
5.159586041068635
 20
6.882441220610304
 42
1.0
 97
        1
330
1081
 75
     0
 76
     1
 47
0.0003724939392773
 98
        1
 10
5.149574787393703
 20
6.889194597298648
  0
CIRCLE
  5
1081
102
{ACAD_REACTORS
330
1080
102
}
330
19
100
AcDbEntity
  8
0
100
AcDbCircle
 10
5.149574787393703
 20
6.882441220610304
 30
0.0
 40
0.0100112536749318
  0
HATCH
  5
1082
330
19
100
AcDbEntity
  8
0
100
AcDbHatch
 10
0.0
 20
0.0
 30
0.0
210
0.0
220
0.0
230
1.0
  2
SOLID
 70
     1
 71
     1
 91
        1
 92
        7
 72
     1
 73
     1
 93
        2
 10
5.212600051977901
 20
6.97648824412206
 42
1.0
 10
5.232622559327765
 20
6.97648824412206
 42
1.0
 97
        1
330
1083
 75
     0
 76
     1
 47
0.0003724939392773
 98
        1
 10
5.222611305652833
 20
6.983241620810404
  0
CIRCLE
  5
1083
102
{ACAD_REACTORS
330
1082
102
}
330
19
100
AcDbEntity
  8
0
100
AcDbCircle
 10
5.222611305652833
 20
6.97648824412206
 30
0.0
 40
0.0100112536749318
  0
HATCH
  5
1084
330
19
100
AcDbEntity
  8
0
100
AcDbHatch
 10
0.0
 20
0.0
 30
0.0
210
0.0
220
0.0
230
1.0
  2
SOLID
 70
     1
 71
     1
 91
        1
 92
        7
 72
     1
 73
     1
 93
        2
 10
5.20259504947665
 20
7.033516758379189
 42
1.0
 10
5.222617556826513
 20
7.033516758379189
 42
1.0
 97
        1
330
1085
 75
     0
 76
     1
 47
0.0003724939392773
 98
        1
 10
5.212606303151582
 20
7.040270135067533
  0
CIRCLE
  5
1085
102
{ACAD_REACTORS
330
1084
102
}
330
19
100
AcDbEntity
  8
0
100
AcDbCircle
 10
5.212606303151582
 20
7.033516758379189
 30
0.0
 40
0.0100112536749318
  0
HATCH
  5
1086
330
19
100
AcDbEntity
  8
0
100
AcDbHatch
 10
0.0
 20
0.0
 30
0.0
210
0.0
220
0.0
230
1.0
  2
SOLID
 70
     1
 71
     1
 91
        1
 92
        7
 72
     1
 73
     1
 93
        2
 10
4.988487995949887
 20
7.012506253126563
 42
1.0
 10
5.008510503299751
 20
7.012506253126563
 42
1.0
 97
        1
330
1087
 75
     0
 76
     1
 47
0.0003724939392773
 98
        1
 10
4.998499249624819
 20
7.019259629814906
  0
CIRCLE
  5
1087
102
{ACAD_REACTORS
330
1086
102
}
330
19
100
AcDbEntity
  8
0
100
AcDbCircle
 10
4.998499249624819
 20
7.012506253126563
 30
0.0
 40
0.0100112536749318
  0
HATCH
  5
1088
330
19
100
AcDbEntity
  8
0
100
AcDbHatch
 10
0.0
 20
0.0
 30
0.0
210
0.0
220
0.0
230
1.0
  2
SOLID
 70
     1
 71
     1
 91
        1
 92
        7
 72
     1
 73
     1
 93
        2
 10
4.576281892898361
 20
6.997498749374687
 42
1.0
 10
4.596304400248225
 20
6.997498749374687
 42
1.0
 97
        1
330
1089
 75
     0
 76
     1
 47
0.0003724939392773
 98
        1
 10
4.586293146573294
 20
7.00425212606303
  0
CIRCLE
  5
1089
102
{ACAD_REACTORS
330
1088
102
}
330
19
100
AcDbEntity
  8
0
100
AcDbCircle
 10
4.586293146573294
 20
6.997498749374687
 30
0.0
 40
0.0100112536749318
  0
HATCH
  5
108A
330
19
100
AcDbEntity
  8
0
100
AcDbHatch
 10
0.0
 20
0.0
 30
0.0
210
0.0
220
0.0
230
1.0
  2
SOLID
 70
     1
 71
     1
 91
        1
 92
        7
 72
     1
 73
     1
 93
        2
 10
4.4021948493766
 20
6.951475737868934
 42
1.0
 10
4.422217356726463
 20
6.951475737868934
 42
1.0
 97
        1
330
108B
 75
     0
 76
     1
 47
0.0003724939392773
 98
        1
 10
4.412206103051532
 20
6.958229114557278
  0
CIRCLE
  5
108B
102
{ACAD_REACTORS
330
108A
102
}
330
19
100
AcDbEntity
  8
0
100
AcDbCircle
 10
4.412206103051532
 20
6.951475737868934
 30
0.0
 40
0.0100112536749318
  0
HATCH
  5
108C
330
19
100
AcDbEntity
  8
0
100
AcDbHatch
 10
0.0
 20
0.0
 30
0.0
210
0.0
220
0.0
230
1.0
  2
SOLID
 70
     1
 71
     1
 91
        1
 92
        7
 72
     1
 73
     1
 93
        2
 10
4.231109306605214
 20
6.929464732366182
 42
1.0
 10
4.251131813955078
 20
6.929464732366182
 42
1.0
 97
        1
330
108D
 75
     0
 76
     1
 47
0.0003724939392773
 98
        1
 10
4.241120560280146
 20
6.936218109054526
  0
CIRCLE
  5
108D
102
{ACAD_REACTORS
330
108C
102
}
330
19
100
AcDbEntity
  8
0
100
AcDbCircle
 10
4.241120560280146
 20
6.929464732366182
 30
0.0
 40
0.0100112536749318
  0
HATCH
  5
108E
330
19
100
AcDbEntity
  8
0
100
AcDbHatch
 10
0.0
 20
0.0
 30
0.0
210
0.0
220
0.0
230
1.0
  2
SOLID
 70
     1
 71
     1
 91
        1
 92
        7
 72
     1
 73
     1
 93
        2
 10
4.281134319111468
 20
6.767383691845923
 42
1.0
 10
4.301156826461331
 20
6.767383691845923
 42
1.0
 97
        1
330
108F
 75
     0
 76
     1
 47
0.0003724939392773
 98
        1
 10
4.2911455727864
 20
6.774137068534266
  0
CIRCLE
  5
108F
102
{ACAD_REACTORS
330
108E
102
}
330
19
100
AcDbEntity
  8
0
100
AcDbCircle
 10
4.2911455727864
 20
6.767383691845923
 30
0.0
 40
0.0100112536749318
  0
HATCH
  5
1090
330
19
100
AcDbEntity
  8
0
100
AcDbHatch
 10
0.0
 20
0.0
 30
0.0
210
0.0
220
0.0
230
1.0
  2
SOLID
 70
     1
 71
     1
 91
        1
 92
        7
 72
     1
 73
     1
 93
        2
 10
4.158072788346085
 20
6.666333166583291
 42
1.0
 10
4.178095295695949
 20
6.666333166583291
 42
1.0
 97
        1
330
1091
 75
     0
 76
     1
 47
0.0003724939392773
 98
        1
 10
4.168084042021017
 20
6.673086543271634
  0
CIRCLE
  5
1091
102
{ACAD_REACTORS
330
1090
102
}
330
19
100
AcDbEntity
  8
0
100
AcDbCircle
 10
4.168084042021017
 20
6.666333166583291
 30
0.0
 40
0.0100112536749318
  0
HATCH
  5
1092
330
19
100
AcDbEntity
  8
0
100
AcDbHatch
 10
0.0
 20
0.0
 30
0.0
210
0.0
220
0.0
230
1.0
  2
SOLID
 70
     1
 71
     1
 91
        1
 92
        7
 72
     1
 73
     1
 93
        2
 10
4.439213358631228
 20
6.666333166583291
 42
1.0
 10
4.459235865981091
 20
6.666333166583291
 42
1.0
 97
        1
330
1093
 75
     0
 76
     1
 47
0.0003724939392773
 98
        1
 10
4.44922461230616
 20
6.673086543271634
  0
CIRCLE
  5
1093
102
{ACAD_REACTORS
330
1092
102
}
330
19
100
AcDbEntity
  8
0
100
AcDbCircle
 10
4.44922461230616
 20
6.666333166583291
 30
0.0
 40
0.0100112536749318
  0
HATCH
  5
1094
330
19
100
AcDbEntity
  8
0
100
AcDbHatch
 10
0.0
 20
0.0
 30
0.0
210
0.0
220
0.0
230
1.0
  2
SOLID
 70
     1
 71
     1
 91
        1
 92
        7
 72
     1
 73
     1
 93
        2
 10
4.551269386645235
 20
5.937968984492246
 42
1.0
 10
4.571291893995098
 20
5.937968984492246
 42
1.0
 97
        1
330
1095
 75
     0
 76
     1
 47
0.0003724939392773
 98
        1
 10
4.561280640320167
 20
5.944722361180589
  0
CIRCLE
  5
1095
102
{ACAD_REACTORS
330
1094
102
}
330
19
100
AcDbEntity
  8
0
100
AcDbCircle
 10
4.561280640320167
 20
5.937968984492246
 30
0.0
 40
0.0100112536749318
  0
HATCH
  5
1096
330
19
100
AcDbEntity
  8
0
100
AcDbHatch
 10
0.0
 20
0.0
 30
0.0
210
0.0
220
0.0
230
1.0
  2
SOLID
 70
     1
 71
     1
 91
        1
 92
        7
 72
     1
 73
     1
 93
        2
 10
4.721354429166495
 20
5.896948474237118
 42
1.0
 10
4.741376936516359
 20
5.896948474237118
 42
1.0
 97
        1
330
1097
 75
     0
 76
     1
 47
0.0003724939392773
 98
        1
 10
4.731365682841427
 20
5.903701850925462
  0
CIRCLE
  5
1097
102
{ACAD_REACTORS
330
1096
102
}
330
19
100
AcDbEntity
  8
0
100
AcDbCircle
 10
4.731365682841427
 20
5.896948474237118
 30
0.0
 40
0.0100112536749318
  0
HATCH
  5
1098
330
19
100
AcDbEntity
  8
0
100
AcDbHatch
 10
0.0
 20
0.0
 30
0.0
210
0.0
220
0.0
230
1.0
  2
SOLID
 70
     1
 71
     1
 91
        1
 92
        7
 72
     1
 73
     1
 93
        2
 10
5.022505004454139
 20
5.712856428214106
 42
1.0
 10
5.042527511804003
 20
5.712856428214106
 42
1.0
 97
        1
330
1099
 75
     0
 76
     1
 47
0.0003724939392773
 98
        1
 10
5.032516258129071
 20
5.71960980490245
  0
CIRCLE
  5
1099
102
{ACAD_REACTORS
330
1098
102
}
330
19
100
AcDbEntity
  8
0
100
AcDbCircle
 10
5.032516258129071
 20
5.712856428214106
 30
0.0
 40
0.0100112536749318
  0
HATCH
  5
109A
330
19
100
AcDbEntity
  8
0
100
AcDbHatch
 10
0.0
 20
0.0
 30
0.0
210
0.0
220
0.0
230
1.0
  2
SOLID
 70
     1
 71
     1
 91
        1
 92
        7
 72
     1
 73
     1
 93
        2
 10
5.226607055479652
 20
5.709854927463731
 42
1.0
 10
5.246629562829515
 20
5.709854927463731
 42
1.0
 97
        1
330
109B
 75
     0
 76
     1
 47
0.0003724939392773
 98
        1
 10
5.236618309154584
 20
5.716608304152074
  0
CIRCLE
  5
109B
102
{ACAD_REACTORS
330
109A
102
}
330
19
100
AcDbEntity
  8
0
100
AcDbCircle
 10
5.236618309154584
 20
5.709854927463731
 30
0.0
 40
0.0100112536749318
  0
HATCH
  5
109C
330
19
100
AcDbEntity
  8
0
100
AcDbHatch
 10
0.0
 20
0.0
 30
0.0
210
0.0
220
0.0
230
1.0
  2
SOLID
 70
     1
 71
     1
 91
        1
 92
        7
 72
     1
 73
     1
 93
        2
 10
4.981484494199012
 20
6.171085542771385
 42
1.0
 10
5.001507001548875
 20
6.171085542771385
 42
1.0
 97
        1
330
109D
 75
     0
 76
     1
 47
0.0003724939392773
 98
        1
 10
4.991495747873944
 20
6.177838919459728
  0
CIRCLE
  5
109D
102
{ACAD_REACTORS
330
109C
102
}
330
19
100
AcDbEntity
  8
0
100
AcDbCircle
 10
4.991495747873944
 20
6.171085542771385
 30
0.0
 40
0.0100112536749318
  0
HATCH
  5
109E
330
19
100
AcDbEntity
  8
0
100
AcDbHatch
 10
0.0
 20
0.0
 30
0.0
210
0.0
220
0.0
230
1.0
  2
SOLID
 70
     1
 71
     1
 91
        1
 92
        7
 72
     1
 73
     1
 93
        2
 10
4.918452978441133
 20
6.195097548774387
 42
1.0
 10
4.938475485790996
 20
6.195097548774387
 42
1.0
 97
        1
330
109F
 75
     0
 76
     1
 47
0.0003724939392773
 98
        1
 10
4.928464232116065
 20
6.20185092546273
  0
CIRCLE
  5
109F
102
{ACAD_REACTORS
330
109E
102
}
330
19
100
AcDbEntity
  8
0
100
AcDbCircle
 10
4.928464232116065
 20
6.195097548774387
 30
0.0
 40
0.0100112536749318
  0
HATCH
  5
10A0
330
19
100
AcDbEntity
  8
0
100
AcDbHatch
 10
0.0
 20
0.0
 30
0.0
210
0.0
220
0.0
230
1.0
  2
SOLID
 70
     1
 71
     1
 91
        1
 92
        7
 72
     1
 73
     1
 93
        2
 10
4.823405454679252
 20
6.342171085542771
 42
1.0
 10
4.843427962029115
 20
6.342171085542771
 42
1.0
 97
        1
330
10A1
 75
     0
 76
     1
 47
0.0003724939392773
 98
        1
 10
4.833416708354184
 20
6.348924462231114
  0
CIRCLE
  5
10A1
102
{ACAD_REACTORS
330
10A0
102
}
330
19
100
AcDbEntity
  8
0
100
AcDbCircle
 10
4.833416708354184
 20
6.342171085542771
 30
0.0
 40
0.0100112536749318
  0
HATCH
  5
10A2
330
19
100
AcDbEntity
  8
0
100
AcDbHatch
 10
0.0
 20
0.0
 30
0.0
210
0.0
220
0.0
230
1.0
  2
SOLID
 70
     1
 71
     1
 91
        1
 92
        7
 72
     1
 73
     1
 93
        2
 10
5.897942723313569
 20
6.125062531265632
 42
1.0
 10
5.917965230663432
 20
6.125062531265632
 42
1.0
 97
        1
330
10A3
 75
     0
 76
     1
 47
0.0003724939392773
 98
        1
 10
5.907953976988501
 20
6.131815907953976
  0
CIRCLE
  5
10A3
102
{ACAD_REACTORS
330
10A2
102
}
330
19
100
AcDbEntity
  8
0
100
AcDbCircle
 10
5.907953976988501
 20
6.125062531265632
 30
0.0
 40
0.0100112536749318
  0
HATCH
  5
10A4
330
19
100
AcDbEntity
  8
0
100
AcDbHatch
 10
0.0
 20
0.0
 30
0.0
210
0.0
220
0.0
230
1.0
  2
SOLID
 70
     1
 71
     1
 91
        1
 92
        7
 72
     1
 73
     1
 93
        2
 10
5.914951227565695
 20
6.025012506253126
 42
1.0
 10
5.934973734915558
 20
6.025012506253126
 42
1.0
 97
        1
330
10A5
 75
     0
 76
     1
 47
0.0003724939392773
 98
        1
 10
5.924962481240627
 20
6.031765882941469
  0
CIRCLE
  5
10A5
102
{ACAD_REACTORS
330
10A4
102
}
330
19
100
AcDbEntity
  8
0
100
AcDbCircle
 10
5.924962481240627
 20
6.025012506253126
 30
0.0
 40
0.0100112536749318
  0
HATCH
  5
10A6
330
19
100
AcDbEntity
  8
0
100
AcDbHatch
 10
0.0
 20
0.0
 30
0.0
210
0.0
220
0.0
230
1.0
  2
SOLID
 70
     1
 71
     1
 91
        1
 92
        7
 72
     1
 73
     1
 93
        2
 10
6.164075789846836
 20
6.17608804402201
 42
1.0
 10
6.184098297196699
 20
6.17608804402201
 42
1.0
 97
        1
330
10A7
 75
     0
 76
     1
 47
0.0003724939392773
 98
        1
 10
6.174087043521768
 20
6.182841420710354
  0
CIRCLE
  5
10A7
102
{ACAD_REACTORS
330
10A6
102
}
330
19
100
AcDbEntity
  8
0
100
AcDbCircle
 10
6.174087043521768
 20
6.17608804402201
 30
0.0
 40
0.0100112536749318
  0
HATCH
  5
10A8
330
19
100
AcDbEntity
  8
0
100
AcDbHatch
 10
0.0
 20
0.0
 30
0.0
210
0.0
220
0.0
230
1.0
  2
SOLID
 70
     1
 71
     1
 91
        1
 92
        7
 72
     1
 73
     1
 93
        2
 10
6.322154829366595
 20
5.815907953976987
 42
1.0
 10
6.342177336716459
 20
5.815907953976987
 42
1.0
 97
        1
330
10A9
 75
     0
 76
     1
 47
0.0003724939392773
 98
        1
 10
6.332166083041527
 20
5.822661330665331
  0
CIRCLE
  5
10A9
102
{ACAD_REACTORS
330
10A8
102
}
330
19
100
AcDbEntity
  8
0
100
AcDbCircle
 10
6.332166083041527
 20
5.815907953976987
 30
0.0
 40
0.0100112536749318
  0
HATCH
  5
10AA
330
19
100
AcDbEntity
  8
0
100
AcDbHatch
 10
0.0
 20
0.0
 30
0.0
210
0.0
220
0.0
230
1.0
  2
SOLID
 70
     1
 71
     1
 91
        1
 92
        7
 72
     1
 73
     1
 93
        2
 10
6.220103803853839
 20
5.725862931465732
 42
1.0
 10
6.240126311203703
 20
5.725862931465732
 42
1.0
 97
        1
330
10AB
 75
     0
 76
     1
 47
0.0003724939392773
 98
        1
 10
6.230115057528772
 20
5.732616308154076
  0
CIRCLE
  5
10AB
102
{ACAD_REACTORS
330
10AA
102
}
330
19
100
AcDbEntity
  8
0
100
AcDbCircle
 10
6.230115057528772
 20
5.725862931465732
 30
0.0
 40
0.0100112536749318
  0
HATCH
  5
10AC
330
19
100
AcDbEntity
  8
0
100
AcDbHatch
 10
0.0
 20
0.0
 30
0.0
210
0.0
220
0.0
230
1.0
  2
SOLID
 70
     1
 71
     1
 91
        1
 92
        7
 72
     1
 73
     1
 93
        2
 10
6.344165834869346
 20
5.088544272136067
 42
1.0
 10
6.36418834221921
 20
5.088544272136067
 42
1.0
 97
        1
330
10AD
 75
     0
 76
     1
 47
0.0003724939392773
 98
        1
 10
6.354177088544279
 20
5.095297648824411
  0
CIRCLE
  5
10AD
102
{ACAD_REACTORS
330
10AC
102
}
330
19
100
AcDbEntity
  8
0
100
AcDbCircle
 10
6.354177088544279
 20
5.088544272136067
 30
0.0
 40
0.0100112536749318
  0
HATCH
  5
10AE
330
19
100
AcDbEntity
  8
0
100
AcDbHatch
 10
0.0
 20
0.0
 30
0.0
210
0.0
220
0.0
230
1.0
  2
SOLID
 70
     1
 71
     1
 91
        1
 92
        7
 72
     1
 73
     1
 93
        2
 10
5.942965234569197
 20
5.000500250125062
 42
1.0
 10
5.96298774191906
 20
5.000500250125062
 42
1.0
 97
        1
330
10AF
 75
     0
 76
     1
 47
0.0003724939392773
 98
        1
 10
5.952976488244129
 20
5.007253626813405
  0
CIRCLE
  5
10AF
102
{ACAD_REACTORS
330
10AE
102
}
330
19
100
AcDbEntity
  8
0
100
AcDbCircle
 10
5.952976488244129
 20
5.000500250125062
 30
0.0
 40
0.0100112536749318
  0
HATCH
  5
10B0
330
19
100
AcDbEntity
  8
0
100
AcDbHatch
 10
0.0
 20
0.0
 30
0.0
210
0.0
220
0.0
230
1.0
  2
SOLID
 70
     1
 71
     1
 91
        1
 92
        7
 72
     1
 73
     1
 93
        2
 10
5.716852178040933
 20
4.918459229614807
 42
1.0
 10
5.736874685390796
 20
4.918459229614807
 42
1.0
 97
        1
330
10B1
 75
     0
 76
     1
 47
0.0003724939392773
 98
        1
 10
5.726863431715865
 20
4.92521260630315
  0
CIRCLE
  5
10B1
102
{ACAD_REACTORS
330
10B0
102
}
330
19
100
AcDbEntity
  8
0
100
AcDbCircle
 10
5.726863431715865
 20
4.918459229614807
 30
0.0
 40
0.0100112536749318
  0
HATCH
  5
10B2
330
19
100
AcDbEntity
  8
0
100
AcDbHatch
 10
0.0
 20
0.0
 30
0.0
210
0.0
220
0.0
230
1.0
  2
SOLID
 70
     1
 71
     1
 91
        1
 92
        7
 72
     1
 73
     1
 93
        2
 10
5.728858181042433
 20
5.022511255627813
 42
1.0
 10
5.748880688392297
 20
5.022511255627813
 42
1.0
 97
        1
330
10B3
 75
     0
 76
     1
 47
0.0003724939392773
 98
        1
 10
5.738869434717365
 20
5.029264632316156
  0
CIRCLE
  5
10B3
102
{ACAD_REACTORS
330
10B2
102
}
330
19
100
AcDbEntity
  8
0
100
AcDbCircle
 10
5.738869434717365
 20
5.022511255627813
 30
0.0
 40
0.0100112536749318
  0
LINE
  5
10B4
330
19
100
AcDbEntity
  8
0
100
AcDbLine
 10
5.811905952976495
 20
5.05352676338169
 30
0.0
 11
5.843921960980497
 21
5.027513756878438
 31
0.0
  0
HATCH
  5
10B5
330
19
100
AcDbEntity
  8
0
100
AcDbHatch
 10
0.0
 20
0.0
 30
0.0
210
0.0
220
0.0
230
1.0
  2
SOLID
 70
     1
 71
     1
 91
        1
 92
        7
 72
     1
 73
     1
 93
        2
 10
5.445716610257041
 20
5.550775387693846
 42
1.0
 10
5.465739117606904
 20
5.550775387693846
 42
1.0
 97
        1
330
10B6
 75
     0
 76
     1
 47
0.0003724939392773
 98
        1
 10
5.455727863931973
 20
5.557528764382189
  0
CIRCLE
  5
10B6
102
{ACAD_REACTORS
330
10B5
102
}
330
19
100
AcDbEntity
  8
0
100
AcDbCircle
 10
5.455727863931973
 20
5.550775387693846
 30
0.0
 40
0.0100112536749318
  0
HATCH
  5
10B7
330
19
100
AcDbEntity
  8
0
100
AcDbHatch
 10
0.0
 20
0.0
 30
0.0
210
0.0
220
0.0
230
1.0
  2
SOLID
 70
     1
 71
     1
 91
        1
 92
        7
 72
     1
 73
     1
 93
        2
 10
5.160574038971397
 20
5.344672336168083
 42
1.0
 10
5.180596546321261
 20
5.344672336168083
 42
1.0
 97
        1
330
10B8
 75
     0
 76
     1
 47
0.0003724939392773
 98
        1
 10
5.170585292646329
 20
5.351425712856426
  0
CIRCLE
  5
10B8
102
{ACAD_REACTORS
330
10B7
102
}
330
19
100
AcDbEntity
  8
0
100
AcDbCircle
 10
5.170585292646329
 20
5.344672336168083
 30
0.0
 40
0.0100112536749318
  0
HATCH
  5
10B9
330
19
100
AcDbEntity
  8
0
100
AcDbHatch
 10
0.0
 20
0.0
 30
0.0
210
0.0
220
0.0
230
1.0
  2
SOLID
 70
     1
 71
     1
 91
        1
 92
        7
 72
     1
 73
     1
 93
        2
 10
5.464726115009417
 20
5.176588294147073
 42
1.0
 10
5.48474862235928
 20
5.176588294147073
 42
1.0
 97
        1
330
10BA
 75
     0
 76
     1
 47
0.0003724939392773
 98
        1
 10
5.474737368684349
 20
5.183341670835416
  0
CIRCLE
  5
10BA
102
{ACAD_REACTORS
330
10B9
102
}
330
19
100
AcDbEntity
  8
0
100
AcDbCircle
 10
5.474737368684349
 20
5.176588294147073
 30
0.0
 40
0.0100112536749318
  0
HATCH
  5
10BB
330
19
100
AcDbEntity
  8
0
100
AcDbHatch
 10
0.0
 20
0.0
 30
0.0
210
0.0
220
0.0
230
1.0
  2
SOLID
 70
     1
 71
     1
 91
        1
 92
        7
 72
     1
 73
     1
 93
        2
 10
5.170579041472649
 20
5.073536768384191
 42
1.0
 10
5.190601548822512
 20
5.073536768384191
 42
1.0
 97
        1
330
10BC
 75
     0
 76
     1
 47
0.0003724939392773
 98
        1
 10
5.180590295147581
 20
5.080290145072534
  0
CIRCLE
  5
10BC
102
{ACAD_REACTORS
330
10BB
102
}
330
19
100
AcDbEntity
  8
0
100
AcDbCircle
 10
5.180590295147581
 20
5.073536768384191
 30
0.0
 40
0.0100112536749318
  0
HATCH
  5
10BD
330
19
100
AcDbEntity
  8
0
100
AcDbHatch
 10
0.0
 20
0.0
 30
0.0
210
0.0
220
0.0
230
1.0
  2
SOLID
 70
     1
 71
     1
 91
        1
 92
        7
 72
     1
 73
     1
 93
        2
 10
4.990488996450137
 20
5.006503251625812
 42
1.0
 10
5.0105115038
 20
5.006503251625812
 42
1.0
 97
        1
330
10BE
 75
     0
 76
     1
 47
0.0003724939392773
 98
        1
 10
5.000500250125069
 20
5.013256628314156
  0
CIRCLE
  5
10BE
102
{ACAD_REACTORS
330
10BD
102
}
330
19
100
AcDbEntity
  8
0
100
AcDbCircle
 10
5.000500250125069
 20
5.006503251625812
 30
0.0
 40
0.0100112536749318
  0
HATCH
  5
10BF
330
19
100
AcDbEntity
  8
0
100
AcDbHatch
 10
0.0
 20
0.0
 30
0.0
210
0.0
220
0.0
230
1.0
  2
SOLID
 70
     1
 71
     1
 91
        1
 92
        7
 72
     1
 73
     1
 93
        2
 10
4.820403953928876
 20
5.010505252626312
 42
1.0
 10
4.84042646127874
 20
5.010505252626312
 42
1.0
 97
        1
330
10C0
 75
     0
 76
     1
 47
0.0003724939392773
 98
        1
 10
4.830415207603808
 20
5.017258629314656
  0
CIRCLE
  5
10C0
102
{ACAD_REACTORS
330
10BF
102
}
330
19
100
AcDbEntity
  8
0
100
AcDbCircle
 10
4.830415207603808
 20
5.010505252626312
 30
0.0
 40
0.0100112536749318
  0
HATCH
  5
10C1
330
19
100
AcDbEntity
  8
0
100
AcDbHatch
 10
0.0
 20
0.0
 30
0.0
210
0.0
220
0.0
230
1.0
  2
SOLID
 70
     1
 71
     1
 91
        1
 92
        7
 72
     1
 73
     1
 93
        2
 10
4.48523637013698
 20
5.104552276138068
 42
1.0
 10
4.505258877486844
 20
5.104552276138068
 42
1.0
 97
        1
330
10C2
 75
     0
 76
     1
 47
0.0003724939392773
 98
        1
 10
4.495247623811912
 20
5.111305652826411
  0
CIRCLE
  5
10C2
102
{ACAD_REACTORS
330
10C1
102
}
330
19
100
AcDbEntity
  8
0
100
AcDbCircle
 10
4.495247623811912
 20
5.104552276138068
 30
0.0
 40
0.0100112536749318
  0
ARC
  5
10C7
330
19
100
AcDbEntity
  8
0
100
AcDbCircle
 10
6.431296960672709
 20
7.595909106299343
 30
0.0
 40
0.0848966930545521
100
AcDbArc
 50
216.8233640186057
 51
270.6962122613568
  0
ENDSEC
  0
SECTION
  2
OBJECTS
  0
DICTIONARY
  5
C
330
0
100
AcDbDictionary
281
     1
  3
ACAD_COLOR
350
10D3
  3
ACAD_GROUP
350
D
  3
ACAD_LAYOUT
350
10CE
  3
ACAD_MATERIAL
350
10D5
  3
ACAD_MLINESTYLE
350
E
  3
ACDBHEADERROUNDTRIPXREC
350
10D2
  3
ACDBVARIABLEDICTIONARY
350
AC
  0
DICTIONARY
  5
10D3
102
{ACAD_REACTORS
330
C
102
}
330
C
100
AcDbDictionary
281
     1
  0
DICTIONARY
  5
D
102
{ACAD_REACTORS
330
C
102
}
330
C
100
AcDbDictionary
281
     1
  0
DICTIONARY
  5
10CE
102
{ACAD_REACTORS
330
C
102
}
330
C
100
AcDbDictionary
281
     1
  3
Layout1
350
10D0
  3
Model
350
10CF
  0
DICTIONARY
  5
10D5
102
{ACAD_REACTORS
330
C
102
}
330
C
100
AcDbDictionary
281
     1
  0
DICTIONARY
  5
E
102
{ACAD_REACTORS
330
C
102
}
330
C
100
AcDbDictionary
281
     1
  3
STANDARD
350
1C
  0
DICTIONARY
  5
10D2
102
{ACAD_REACTORS
330
C
102
}
330
C
100
AcDbDictionary
281
     1
  3
COLORDICT
350
10D4
  3
MATERIALDICT
350
10D6
  0
DICTIONARY
  5
AC
102
{ACAD_REACTORS
330
C
102
}
330
C
100
AcDbDictionary
281
     1
  3
SORTENTS
350
10D1
  0
LAYOUT
  5
10D0
102
{ACAD_REACTORS
330
10CE
102
}
102
{ACAD_XDICTIONARY
360
10D7
102
}
330
10CE
100
AcDbPlotSettings
  1

  2

  4

  6

 40
0.0
 41
0.0
 42
0.0
 43
0.0
 44
0.0
 45
0.0
 46
0.0
 47
0.0
 48
0.0
 49
0.0
140
0.0
141
0.0
142
1.0
143
1.0
 70
   688
 72
     0
 73
     0
 74
     5
  7

 75
    16
147
1.0
148
0.0
149
0.0
100
AcDbLayout
  1
Layout1
 70
     1
 71
     1
 10
0.0
 20
0.0
 11
0.0
 21
0.0
 12
0.0
 22
0.0
 32
0.0
 14
0.0
 24
0.0
 34
0.0
 15
0.0
 25
0.0
 35
0.0
146
0.0
 13
0.0
 23
0.0
 33
0.0
 16
1.0
 26
0.0
 36
0.0
 17
0.0
 27
1.0
 37
0.0
 76
     0
330
16
  0
LAYOUT
  5
10CF
102
{ACAD_REACTORS
330
10CE
102
}
102
{ACAD_XDICTIONARY
360
10D9
102
}
330
10CE
100
AcDbPlotSettings
  1

  2

  4

  6

 40
0.0
 41
0.0
 42
0.0
 43
0.0
 44
0.0
 45
0.0
 46
0.0
 47
0.0
 48
0.0
 49
0.0
140
0.0
141
0.0
142
1.0
143
1.0
 70
   688
 72
     0
 73
     0
 74
     5
  7

 75
    16
147
1.0
148
0.0
149
0.0
100
AcDbLayout
  1
Model
 70
     1
 71
     0
 10
0.0
 20
0.0
 11
0.0
 21
0.0
 12
0.0
 22
0.0
 32
0.0
 14
0.0
 24
0.0
 34
0.0
 15
0.0
 25
0.0
 35
0.0
146
0.0
 13
0.0
 23
0.0
 33
0.0
 16
1.0
 26
0.0
 36
0.0
 17
0.0
 27
1.0
 37
0.0
 76
     0
330
19
  0
MLINESTYLE
  5
1C
102
{ACAD_REACTORS
330
E
102
}
330
E
100
AcDbMlineStyle
  2
STANDARD
 70
     0
  3

 62
     0
 51
90.0
 52
90.0
 71
     2
 49
0.5
 62
   256
  6
BYLAYER
 49
-0.5
 62
   256
  6
BYLAYER
  0
XRECORD
  5
10D4
102
{ACAD_REACTORS
330
10D2
102
}
330
10D2
100
AcDbXrecord
340
10D3
  0
XRECORD
  5
10D6
102
{ACAD_REACTORS
330
10D2
102
}
330
10D2
100
AcDbXrecord
340
10D5
  0
DICTIONARYVAR
  5
10D1
102
{ACAD_REACTORS
330
AC
102
}
330
AC
100
DictionaryVariables
280
     0
  1
96
  0
DICTIONARY
  5
10D7
330
10D0
100
AcDbDictionary
280
     1
281
     1
  3
ACAD_XREC_ROUNDTRIP
360
10D8
  0
DICTIONARY
  5
10D9
330
10CF
100
AcDbDictionary
280
     1
281
     1
  3
ACAD_XREC_ROUNDTRIP
360
10DA
  0
XRECORD
  5
10D8
102
{ACAD_REACTORS
330
10D7
102
}
330
10D7
100
AcDbXrecord
102
SHADEPLOT
 70
     0
102
SHADEPLOTRESLEVEL
 70
     0
102
SHADEPLOTCUSTOMDPI
 70
     0
  0
XRECORD
  5
10DA
102
{ACAD_REACTORS
330
10D9
102
}
330
10D9
100
AcDbXrecord
102
SHADEPLOT
 70
     0
102
SHADEPLOTRESLEVEL
 70
     0
102
SHADEPLOTCUSTOMDPI
 70
     0
  0
ENDSEC
  0
EOF
