  0
SECTION
  2
HEADER
  9
$ACADVER
  1
AC1015
  9
$ACADMAINTVER
 70
     6
  9
$DWGCODEPAGE
  3
ANSI_1252
  9
$INSBASE
 10
0.0
 20
0.0
 30
0.0
  9
$EXTMIN
 10
3.380676301406552
 20
3.991060103165999
 30
0.0
  9
$EXTMAX
 10
9.322448755291347
 20
11.38828350784016
 30
0.0
  9
$LIMMIN
 10
0.0
 20
0.0
  9
$LIMMAX
 10
12.0
 20
9.0
  9
$ORTHOMODE
 70
     0
  9
$REGENMODE
 70
     0
  9
$FILLMODE
 70
     1
  9
$QTEXTMODE
 70
     0
  9
$MIRRTEXT
 70
     1
  9
$LTSCALE
 40
0.25
  9
$ATTMODE
 70
     1
  9
$TEXTSIZE
 40
0.2
  9
$TRACEWID
 40
0.05
  9
$TEXTSTYLE
  7
STANDARD
  9
$CLAYER
  8
0
  9
$CELTYPE
  6
BYLAYER
  9
$CECOLOR
 62
   256
  9
$CELTSCALE
 40
1.0
  9
$DISPSILH
 70
     0
  9
$DIMSCALE
 40
1.0
  9
$DIMASZ
 40
0.18
  9
$DIMEXO
 40
0.0625
  9
$DIMDLI
 40
0.38
  9
$DIMRND
 40
0.0
  9
$DIMDLE
 40
0.0
  9
$DIMEXE
 40
0.18
  9
$DIMTP
 40
0.0
  9
$DIMTM
 40
0.0
  9
$DIMTXT
 40
0.18
  9
$DIMCEN
 40
0.09
  9
$DIMTSZ
 40
0.0
  9
$DIMTOL
 70
     0
  9
$DIMLIM
 70
     0
  9
$DIMTIH
 70
     1
  9
$DIMTOH
 70
     1
  9
$DIMSE1
 70
     0
  9
$DIMSE2
 70
     0
  9
$DIMTAD
 70
     0
  9
$DIMZIN
 70
     0
  9
$DIMBLK
  1

  9
$DIMASO
 70
     1
  9
$DIMSHO
 70
     1
  9
$DIMPOST
  1

  9
$DIMAPOST
  1

  9
$DIMALT
 70
     0
  9
$DIMALTD
 70
     2
  9
$DIMALTF
 40
25.4
  9
$DIMLFAC
 40
1.0
  9
$DIMTOFL
 70
     0
  9
$DIMTVP
 40
0.0
  9
$DIMTIX
 70
     0
  9
$DIMSOXD
 70
     0
  9
$DIMSAH
 70
     0
  9
$DIMBLK1
  1

  9
$DIMBLK2
  1

  9
$DIMSTYLE
  2
STANDARD
  9
$DIMCLRD
 70
     0
  9
$DIMCLRE
 70
     0
  9
$DIMCLRT
 70
     0
  9
$DIMTFAC
 40
1.0
  9
$DIMGAP
 40
0.09
  9
$DIMJUST
 70
     0
  9
$DIMSD1
 70
     0
  9
$DIMSD2
 70
     0
  9
$DIMTOLJ
 70
     1
  9
$DIMTZIN
 70
     0
  9
$DIMALTZ
 70
     0
  9
$DIMALTTZ
 70
     0
  9
$DIMUPT
 70
     0
  9
$DIMDEC
 70
     4
  9
$DIMTDEC
 70
     4
  9
$DIMALTU
 70
     2
  9
$DIMALTTD
 70
     2
  9
$DIMTXSTY
  7
STANDARD
  9
$DIMAUNIT
 70
     0
  9
$DIMADEC
 70
     0
  9
$DIMALTRND
 40
0.0
  9
$DIMAZIN
 70
     0
  9
$DIMDSEP
 70
    46
  9
$DIMATFIT
 70
     3
  9
$DIMFRAC
 70
     0
  9
$DIMLDRBLK
  1

  9
$DIMLUNIT
 70
     2
  9
$DIMLWD
 70
    -2
  9
$DIMLWE
 70
    -2
  9
$DIMTMOVE
 70
     0
  9
$LUNITS
 70
     2
  9
$LUPREC
 70
     4
  9
$SKETCHINC
 40
0.1
  9
$FILLETRAD
 40
0.0
  9
$AUNITS
 70
     0
  9
$AUPREC
 70
     0
  9
$MENU
  1
.
  9
$ELEVATION
 40
0.0
  9
$PELEVATION
 40
0.0
  9
$THICKNESS
 40
0.0
  9
$LIMCHECK
 70
     0
  9
$CHAMFERA
 40
0.5
  9
$CHAMFERB
 40
0.5
  9
$CHAMFERC
 40
1.0
  9
$CHAMFERD
 40
0.0
  9
$SKPOLY
 70
     1
  9
$TDCREATE
 40
2451890.587386782
  9
$TDUCREATE
 40
2451890.920720116
  9
$TDUPDATE
 40
2451893.676045012
  9
$TDUUPDATE
 40
2451894.009378345
  9
$TDINDWG
 40
0.9944280556
  9
$TDUSRTIMER
 40
0.9944280556
  9
$USRTIMER
 70
     1
  9
$ANGBASE
 50
0.0
  9
$ANGDIR
 70
     0
  9
$PDMODE
 70
     0
  9
$PDSIZE
 40
0.0
  9
$PLINEWID
 40
0.0
  9
$SPLFRAME
 70
     0
  9
$SPLINETYPE
 70
     6
  9
$SPLINESEGS
 70
     8
  9
$HANDSEED
  5
115B
  9
$SURFTAB1
 70
     6
  9
$SURFTAB2
 70
     6
  9
$SURFTYPE
 70
     6
  9
$SURFU
 70
     6
  9
$SURFV
 70
     6
  9
$UCSBASE
  2

  9
$UCSNAME
  2

  9
$UCSORG
 10
0.0
 20
0.0
 30
0.0
  9
$UCSXDIR
 10
1.0
 20
0.0
 30
0.0
  9
$UCSYDIR
 10
0.0
 20
1.0
 30
0.0
  9
$UCSORTHOREF
  2

  9
$UCSORTHOVIEW
 70
     0
  9
$UCSORGTOP
 10
0.0
 20
0.0
 30
0.0
  9
$UCSORGBOTTOM
 10
0.0
 20
0.0
 30
0.0
  9
$UCSORGLEFT
 10
0.0
 20
0.0
 30
0.0
  9
$UCSORGRIGHT
 10
0.0
 20
0.0
 30
0.0
  9
$UCSORGFRONT
 10
0.0
 20
0.0
 30
0.0
  9
$UCSORGBACK
 10
0.0
 20
0.0
 30
0.0
  9
$PUCSBASE
  2

  9
$PUCSNAME
  2

  9
$PUCSORG
 10
0.0
 20
0.0
 30
0.0
  9
$PUCSXDIR
 10
1.0
 20
0.0
 30
0.0
  9
$PUCSYDIR
 10
0.0
 20
1.0
 30
0.0
  9
$PUCSORTHOREF
  2

  9
$PUCSORTHOVIEW
 70
     0
  9
$PUCSORGTOP
 10
0.0
 20
0.0
 30
0.0
  9
$PUCSORGBOTTOM
 10
0.0
 20
0.0
 30
0.0
  9
$PUCSORGLEFT
 10
0.0
 20
0.0
 30
0.0
  9
$PUCSORGRIGHT
 10
0.0
 20
0.0
 30
0.0
  9
$PUCSORGFRONT
 10
0.0
 20
0.0
 30
0.0
  9
$PUCSORGBACK
 10
0.0
 20
0.0
 30
0.0
  9
$USERI1
 70
     0
  9
$USERI2
 70
     0
  9
$USERI3
 70
     0
  9
$USERI4
 70
     0
  9
$USERI5
 70
     0
  9
$USERR1
 40
0.0
  9
$USERR2
 40
0.0
  9
$USERR3
 40
0.0
  9
$USERR4
 40
0.0
  9
$USERR5
 40
0.0
  9
$WORLDVIEW
 70
     1
  9
$SHADEDGE
 70
     3
  9
$SHADEDIF
 70
    70
  9
$TILEMODE
 70
     1
  9
$MAXACTVP
 70
    48
  9
$PINSBASE
 10
0.0
 20
0.0
 30
0.0
  9
$PLIMCHECK
 70
     0
  9
$PEXTMIN
 10
1.000000000000000E+20
 20
1.000000000000000E+20
 30
1.000000000000000E+20
  9
$PEXTMAX
 10
-1.000000000000000E+20
 20
-1.000000000000000E+20
 30
-1.000000000000000E+20
  9
$PLIMMIN
 10
0.0
 20
0.0
  9
$PLIMMAX
 10
12.0
 20
9.0
  9
$UNITMODE
 70
     0
  9
$VISRETAIN
 70
     1
  9
$PLINEGEN
 70
     0
  9
$PSLTSCALE
 70
     1
  9
$TREEDEPTH
 70
  3020
  9
$CMLSTYLE
  2
STANDARD
  9
$CMLJUST
 70
     0
  9
$CMLSCALE
 40
1.0
  9
$PROXYGRAPHICS
 70
     1
  9
$MEASUREMENT
 70
     0
  9
$CELWEIGHT
370
    -1
  9
$ENDCAPS
280
     0
  9
$JOINSTYLE
280
     0
  9
$LWDISPLAY
290
     0
  9
$INSUNITS
 70
     1
  9
$HYPERLINKBASE
  1

  9
$STYLESHEET
  1

  9
$XEDIT
290
     1
  9
$CEPSNTYPE
380
     0
  9
$PSTYLEMODE
290
     0
  9
$FINGERPRINTGUID
  2
{FAEB1C30-E019-11D5-929B-00C0DF256EC4}
  9
$VERSIONGUID
  2
{FAEB1C32-E019-11D5-929B-00C0DF256EC4}
  9
$EXTNAMES
290
     1
  9
$PSVPSCALE
 40
0.0
  9
$OLESTARTUP
290
     0
  0
ENDSEC
  0
SECTION
  2
CLASSES
  0
CLASS
  1
LWPOLYLINE
  2
AcDbPolyline
  3
AutoCAD 2000
 90
        0
280
     0
281
     1
  0
CLASS
  1
DICTIONARYVAR
  2
AcDbDictionaryVar
  3
AutoCAD 2000
 90
        0
280
     0
281
     0
  0
CLASS
  1
HATCH
  2
AcDbHatch
  3
AutoCAD 2000
 90
        0
280
     0
281
     1
  0
CLASS
  1
ACDBPLACEHOLDER
  2
AcDbPlaceHolder
  3
ObjectDBX Classes
 90
        0
280
     0
281
     0
  0
CLASS
  1
LAYOUT
  2
AcDbLayout
  3
ObjectDBX Classes
 90
        0
280
     0
281
     0
  0
ENDSEC
  0
SECTION
  2
TABLES
  0
TABLE
  2
VPORT
  5
8
330
0
100
AcDbSymbolTable
 70
     3
  0
VPORT
  5
114D
330
8
100
AcDbSymbolTableRecord
100
AcDbViewportTableRecord
  2
*ACTIVE
 70
     0
 10
0.0
 20
0.0
 11
1.0
 21
1.0
 12
6.351562528348949
 22
7.689671805503082
 13
0.0
 23
0.0
 14
0.5
 24
0.5
 15
0.5
 25
0.5
 16
0.0
 26
0.0
 36
1.0
 17
0.0
 27
0.0
 37
0.0
 40
7.464166602906509
 41
1.519637462235649
 42
50.0
 43
0.0
 44
0.0
 50
0.0
 51
0.0
 71
     0
 72
  2000
 73
     1
 74
     0
 75
     0
 76
     0
 77
     0
 78
     0
281
     0
 65
     1
110
0.0
120
0.0
130
0.0
111
1.0
121
0.0
131
0.0
112
0.0
122
1.0
132
0.0
 79
     0
146
0.0
  0
ENDTAB
  0
TABLE
  2
LTYPE
  5
5
330
0
100
AcDbSymbolTable
 70
     3
  0
LTYPE
  5
13
330
5
100
AcDbSymbolTableRecord
100
AcDbLinetypeTableRecord
  2
BYBLOCK
 70
     0
  3

 72
    65
 73
     0
 40
0.0
  0
LTYPE
  5
14
330
5
100
AcDbSymbolTableRecord
100
AcDbLinetypeTableRecord
  2
BYLAYER
 70
     0
  3

 72
    65
 73
     0
 40
0.0
  0
LTYPE
  5
15
330
5
100
AcDbSymbolTableRecord
100
AcDbLinetypeTableRecord
  2
CONTINUOUS
 70
     0
  3
Solid line
 72
    65
 73
     0
 40
0.0
  0
LTYPE
  5
A96
330
5
100
AcDbSymbolTableRecord
100
AcDbLinetypeTableRecord
  2
DASHED
 70
     0
  3
Dashed __ __ __ __ __ __ __ __ __ __ __ __ __ _
 72
    65
 73
     2
 40
0.75
 49
0.5
 74
     0
 49
-0.25
 74
     0
  0
ENDTAB
  0
TABLE
  2
LAYER
  5
2
330
0
100
AcDbSymbolTable
 70
     1
  0
LAYER
  5
F
330
2
100
AcDbSymbolTableRecord
100
AcDbLayerTableRecord
  2
0
 70
     0
 62
     7
  6
CONTINUOUS
370
    -3
390
0
  0
ENDTAB
  0
TABLE
  2
STYLE
  5
3
330
0
100
AcDbSymbolTable
 70
     1
  0
STYLE
  5
10
330
3
100
AcDbSymbolTableRecord
100
AcDbTextStyleTableRecord
  2
STANDARD
 70
     0
 40
0.0
 41
1.0
 50
0.0
 71
     0
 42
0.2
  3
txt
  4

  0
ENDTAB
  0
TABLE
  2
VIEW
  5
6
330
0
100
AcDbSymbolTable
 70
     1
  0
VIEW
  5
9D4
330
6
100
AcDbSymbolTableRecord
100
AcDbViewTableRecord
  2
INITIAL
 70
     0
 40
7.464166602906509
 10
6.351562528348949
 20
7.689671805503082
 41
11.34282719414494
 11
0.0
 21
0.0
 31
1.0
 12
0.0
 22
0.0
 32
0.0
 42
50.0
 43
0.0
 44
0.0
 50
0.0
 71
     0
281
     0
 72
     0
  0
ENDTAB
  0
TABLE
  2
UCS
  5
7
330
0
100
AcDbSymbolTable
 70
     0
  0
ENDTAB
  0
TABLE
  2
APPID
  5
9
330
0
100
AcDbSymbolTable
 70
     1
  0
APPID
  5
11
330
9
100
AcDbSymbolTableRecord
100
AcDbRegAppTableRecord
  2
ACAD
 70
     0
  0
ENDTAB
  0
TABLE
  2
DIMSTYLE
  5
A
330
0
100
AcDbSymbolTable
 70
     1
100
AcDbDimStyleTable
  0
DIMSTYLE
105
1D
330
A
100
AcDbSymbolTableRecord
100
AcDbDimStyleTableRecord
  2
STANDARD
 70
     0
  3

  4

340
10
  0
ENDTAB
  0
TABLE
  2
BLOCK_RECORD
  5
1
330
0
100
AcDbSymbolTable
 70
     0
  0
BLOCK_RECORD
  5
19
330
1
100
AcDbSymbolTableRecord
100
AcDbBlockTableRecord
  2
*MODEL_SPACE
340
114F
  0
BLOCK_RECORD
  5
16
330
1
100
AcDbSymbolTableRecord
100
AcDbBlockTableRecord
  2
*PAPER_SPACE
340
1150
  0
ENDTAB
  0
ENDSEC
  0
SECTION
  2
BLOCKS
  0
BLOCK
  5
1A
330
19
100
AcDbEntity
  8
0
100
AcDbBlockBegin
  2
*MODEL_SPACE
 70
     0
 10
0.0
 20
0.0
 30
0.0
  3
*MODEL_SPACE
  1

  4

  0
ENDBLK
  5
1B
330
19
100
AcDbEntity
  8
0
100
AcDbBlockEnd
  0
BLOCK
  5
17
330
16
100
AcDbEntity
 67
     1
  8
0
100
AcDbBlockBegin
  2
*PAPER_SPACE
 70
     0
 10
0.0
 20
0.0
 30
0.0
  3
*PAPER_SPACE
  1

  4

  0
ENDBLK
  5
18
330
16
100
AcDbEntity
 67
     1
  8
0
100
AcDbBlockEnd
  0
ENDSEC
  0
SECTION
  2
ENTITIES
  0
LINE
  5
C64
330
19
100
AcDbEntity
  8
0
100
AcDbLine
 10
8.237118559279647
 20
7.161580790395197
 30
0.0
 11
8.237118559279647
 21
5.337668834417208
 31
0.0
  0
LINE
  5
C65
330
19
100
AcDbEntity
  8
0
100
AcDbLine
 10
8.237118559279647
 20
5.337668834417208
 30
0.0
 11
9.071535767883949
 21
5.666833416708354
 31
0.0
  0
LINE
  5
C66
330
19
100
AcDbEntity
  8
0
100
AcDbLine
 10
9.071535767883949
 20
5.666833416708354
 30
0.0
 11
9.071535767883949
 21
7.389694847423711
 31
0.0
  0
LINE
  5
C67
330
19
100
AcDbEntity
  8
0
100
AcDbLine
 10
9.071535767883949
 20
7.389694847423711
 30
0.0
 11
8.237118559279647
 21
7.161580790395197
 31
0.0
  0
LINE
  5
C68
330
19
100
AcDbEntity
  8
0
100
AcDbLine
 10
8.654327163581797
 20
5.502251125562781
 30
0.0
 11
8.654327163581797
 21
7.275637818909455
 31
0.0
  0
LINE
  5
C69
330
19
100
AcDbEntity
  8
0
100
AcDbLine
 10
8.654327163581797
 20
7.275637818909455
 30
0.0
 11
4.774387193596805
 21
11.38769384692346
 31
0.0
  0
LINE
  5
C6B
330
19
100
AcDbEntity
  8
0
100
AcDbLine
 10
5.156309010080006
 20
11.38769384692346
 30
0.0
 11
9.071535767883949
 21
7.389694847423711
 31
0.0
  0
LINE
  5
C6C
330
19
100
AcDbEntity
  8
0
100
AcDbLine
 10
8.237118559279647
 20
7.161580790395197
 30
0.0
 11
4.493246623311663
 21
11.24262131065533
 31
0.0
  0
LINE
  5
C6D
330
19
100
AcDbEntity
  8
0
100
AcDbLine
 10
4.493246623311663
 20
11.24262131065533
 30
0.0
 11
4.911270720518416
 21
11.24262131065533
 31
0.0
  0
LINE
  5
C6E
330
19
100
AcDbEntity
  8
0
100
AcDbLine
 10
4.774387193596805
 20
11.38769384692346
 30
0.0
 11
5.156309010080006
 21
11.38769384692346
 31
0.0
  0
LINE
  5
C70
330
19
100
AcDbEntity
  8
0
100
AcDbLine
 10
8.237118559279647
 20
5.337668834417208
 30
0.0
 11
6.37733782862619
 21
7.577239146365968
 31
0.0
  0
LINE
  5
C71
330
19
100
AcDbEntity
  8
0
100
AcDbLine
 10
4.009004502251132
 20
10.42921460730365
 30
0.0
 11
4.204309495919181
 21
10.75727857394027
 31
0.0
  0
LINE
  5
C72
330
19
100
AcDbEntity
  8
0
100
AcDbLine
 10
4.688021747651199
 20
11.24262131065533
 30
0.0
 11
4.774387193596805
 21
11.38769384692346
 31
0.0
  0
LINE
  5
C73
330
19
100
AcDbEntity
  8
0
100
AcDbLine
 10
4.204309495919181
 20
10.75727857394027
 30
0.0
 11
4.324162081040527
 21
10.73236618309155
 31
0.0
  0
LINE
  5
C74
330
19
100
AcDbEntity
  8
0
100
AcDbLine
 10
4.324162081040527
 20
10.73236618309155
 30
0.0
 11
4.209104552276145
 21
11.00850425212606
 31
0.0
  0
LINE
  5
C75
330
19
100
AcDbEntity
  8
0
100
AcDbLine
 10
4.209104552276145
 20
11.00850425212606
 30
0.0
 11
4.338757578403831
 21
10.98311801827916
 31
0.0
  0
LINE
  5
C76
330
19
100
AcDbEntity
  8
0
100
AcDbLine
 10
4.338757578403832
 20
10.98311801827916
 30
0.0
 11
4.493246623311663
 21
11.24262131065533
 31
0.0
  0
LINE
  5
C77
330
19
100
AcDbEntity
  8
0
100
AcDbLine
 10
4.209104552276145
 20
11.00850425212606
 30
0.0
 11
4.353870662268409
 21
11.00850425212606
 31
0.0
  0
LINE
  5
C78
330
19
100
AcDbEntity
  8
0
100
AcDbLine
 10
4.204309495919181
 20
10.75727857394027
 30
0.0
 11
4.313781918186893
 21
10.75727857394027
 31
0.0
  0
LINE
  5
C79
330
19
100
AcDbEntity
  8
0
100
AcDbLine
 10
3.517758879439726
 20
8.392196098049023
 30
0.0
 11
5.805902951475745
 21
7.641648341618466
 31
0.0
  0
LINE
  5
C7A
330
19
100
AcDbEntity
  8
0
100
AcDbLine
 10
3.517758879439726
 20
8.392196098049023
 30
0.0
 11
3.517758879439726
 21
8.939469734867434
 31
0.0
  0
LINE
  5
C7B
330
19
100
AcDbEntity
  8
0
100
AcDbLine
 10
3.517758879439726
 20
9.741870935467734
 30
0.0
 11
4.256128064032023
 21
9.804902451225612
 31
0.0
  0
LINE
  5
C7C
330
19
100
AcDbEntity
  8
0
100
AcDbLine
 10
4.256128064032023
 20
9.804902451225612
 30
0.0
 11
4.560464450825715
 21
9.765139908227443
 31
0.0
  0
LINE
  5
C7D
330
19
100
AcDbEntity
  8
0
100
AcDbLine
 10
3.517758879439726
 20
9.741870935467734
 30
0.0
 11
4.541270635317665
 21
9.506675970779845
 31
0.0
  0
LINE
  5
C7E
330
19
100
AcDbEntity
  8
0
100
AcDbLine
 10
3.975894931076943
 20
9.780980110607496
 30
0.0
 11
4.659571977457595
 21
9.645793433303247
 31
0.0
  0
LINE
  5
C7F
330
19
100
AcDbEntity
  8
0
100
AcDbLine
 10
3.517758879439726
 20
8.939469734867434
 30
0.0
 11
3.598799399699856
 21
8.992496248124061
 31
0.0
  0
LINE
  5
C80
330
19
100
AcDbEntity
  8
0
100
AcDbLine
 10
3.598799399699856
 20
8.992496248124061
 30
0.0
 11
3.414707353676844
 21
9.170585292646322
 31
0.0
  0
LINE
  5
C81
330
19
100
AcDbEntity
  8
0
100
AcDbLine
 10
3.414707353676844
 20
9.170585292646322
 30
0.0
 11
3.517758879439726
 21
9.212799170669671
 31
0.0
  0
LINE
  5
C82
330
19
100
AcDbEntity
  8
0
100
AcDbLine
 10
3.517758879439725
 20
9.212799170669669
 30
0.0
 11
3.517758879439726
 21
9.741870935467734
 31
0.0
  0
LWPOLYLINE
  5
D96
330
19
100
AcDbEntity
  8
0
100
AcDbPolyline
 90
       15
 70
     0
 43
0.0
 10
8.266827803499639
 20
7.169702742052461
 10
8.256128064032023
 20
7.092546273136568
 10
8.262131065532774
 20
7.022511255627813
 10
8.2831415707854
 20
6.956478239119559
 10
8.302151075537775
 20
6.88744372186093
 10
8.28114057028515
 20
6.849424712356178
 10
8.263131565782899
 20
6.817408704352175
 10
8.257128564282148
 20
6.778389194597298
 10
8.267133566783398
 20
6.675337668834416
 10
8.279139569784899
 20
6.555277638819409
 10
8.284142071035525
 20
6.450225112556278
 10
8.274137068534275
 20
6.369184592296147
 10
8.257128564282148
 20
6.32616308154077
 10
8.238119059529772
 20
6.303151575787894
 10
8.237118559279647
 20
6.298704908009559
  0
LWPOLYLINE
  5
D97
330
19
100
AcDbEntity
  8
0
100
AcDbPolyline
 90
       17
 70
     0
 43
0.0
 10
8.323279385900518
 20
7.185135548751982
 10
8.321160580290153
 20
7.110555277638818
 10
8.322161080540278
 20
7.04952476238119
 10
8.331165582791403
 20
6.971485742871435
 10
8.339169584792403
 20
6.913456728364182
 10
8.350175087543779
 20
6.873436718359179
 10
8.35617808904453
 20
6.844422211105552
 10
8.343171585792904
 20
6.81240620310155
 10
8.325162581290652
 20
6.788394197098548
 10
8.325162581290652
 20
6.746373186593296
 10
8.334167083541779
 20
6.583291645822911
 10
8.336168084042027
 20
6.448224112056027
 10
8.334167083541779
 20
6.321160580290145
 10
8.332166083041528
 20
6.233116558279139
 10
8.286143071535776
 20
6.071035517758879
 10
8.284142071035525
 20
5.92696348174087
 10
8.237118559279647
 20
5.850925462731365
  0
LWPOLYLINE
  5
D98
330
19
100
AcDbEntity
  8
0
100
AcDbPolyline
 90
       23
 70
     0
 43
0.0
 10
8.390580602123849
 20
7.20353444239577
 10
8.376188094047031
 20
7.12656328164082
 10
8.376188094047031
 20
7.016508254127063
 10
8.384192096048031
 20
6.96248124062031
 10
8.401200600300157
 20
6.901450725362681
 10
8.416208104052034
 20
6.854427213606803
 10
8.424212106053034
 20
6.805402701350674
 10
8.424212106053034
 20
6.764382191095547
 10
8.409204602301157
 20
6.716358179089544
 10
8.399199599799907
 20
6.671335667833916
 10
8.409204602301157
 20
6.469234617308653
 10
8.405202601300658
 20
6.366183091545772
 10
8.395197598799406
 20
6.265132566283141
 10
8.385192596298156
 20
6.192096048024011
 10
8.378189094547281
 20
6.067033516758379
 10
8.373186593296655
 20
5.961980990495247
 10
8.379189594797406
 20
5.893946973486743
 10
8.383191595797905
 20
5.833916958479239
 10
8.369184592296156
 20
5.763881940970484
 10
8.317158579289652
 20
5.682841420710354
 10
8.28514257128565
 20
5.596798399199599
 10
8.251125562781398
 20
5.505752876438218
 10
8.237118559279647
 20
5.474767686873739
  0
LWPOLYLINE
  5
D99
330
19
100
AcDbEntity
  8
0
100
AcDbPolyline
 90
       29
 70
     0
 43
0.0
 10
8.44389784586491
 20
7.218110379533615
 10
8.441220610305161
 20
7.119559779889944
 10
8.435217608804409
 20
7.003501750875437
 10
8.443221610805409
 20
6.940470235117558
 10
8.460230115057536
 20
6.884442221110555
 10
8.479239619809912
 20
6.8104052026013
 10
8.489244622311162
 20
6.755377688844422
 10
8.500250125062538
 20
6.701350675337668
 10
8.51825912956479
 20
6.669334667333666
 10
8.53626813406704
 20
6.640320160080039
 10
8.543271635817916
 20
6.587293646823411
 10
8.53626813406704
 20
6.509254627313656
 10
8.521260630315165
 20
6.457228614307152
 10
8.496248124062038
 20
6.400200100050024
 10
8.480240120060037
 20
6.338169084542271
 10
8.474237118559287
 20
6.277138569284642
 10
8.478239119559786
 20
6.188094047023511
 10
8.479239619809912
 20
6.114057028514257
 10
8.473236618309162
 20
6.041020510255127
 10
8.462231115557787
 20
5.937968984492246
 10
8.456228114057035
 20
5.856928464232115
 10
8.451225612806411
 20
5.768884442221109
 10
8.452226113056536
 20
5.711855927963981
 10
8.45322661330666
 20
5.656828414207102
 10
8.449224612306161
 20
5.60680340170085
 10
8.420210105052533
 20
5.536768384192095
 10
8.397198599299657
 20
5.469734867433716
 10
8.387193596798406
 20
5.407703851925962
 10
8.38793151286681
 20
5.397162193805909
  0
LWPOLYLINE
  5
D9A
330
19
100
AcDbEntity
  8
0
100
AcDbPolyline
 90
       24
 70
     0
 43
0.0
 10
8.50958501162453
 20
7.236068021971496
 10
8.502251125562788
 20
7.182591295647823
 10
8.512256128064038
 20
7.089544772386192
 10
8.53026513256629
 20
7.009504752376188
 10
8.548274137068541
 20
6.930465232616307
 10
8.570285142571294
 20
6.848424212106052
 10
8.582291145572794
 20
6.772386193096548
 10
8.589294647323669
 20
6.711355677838919
 10
8.60930465232617
 20
6.643321660830415
 10
8.630315157578796
 20
6.570285142571285
 10
8.636318159079547
 20
6.49824912456228
 10
8.618309154577295
 20
6.419209604802401
 10
8.597298649324669
 20
6.353176588294146
 10
8.585292646323168
 20
6.269134567283641
 10
8.580290145072544
 20
6.185092546273136
 10
8.575287643821918
 20
6.113056528264131
 10
8.561280640320167
 20
6.060030015007503
 10
8.549274637318666
 20
5.985992996498248
 10
8.547273636818416
 20
5.903951975987993
 10
8.548274137068541
 20
5.789894947473736
 10
8.546273136568292
 20
5.719859929964982
 10
8.555277638819417
 20
5.590795397698849
 10
8.544272136068042
 20
5.508754377188594
 10
8.537708709312886
 20
5.456246963147347
  0
LWPOLYLINE
  5
D9B
330
19
100
AcDbEntity
  8
0
100
AcDbPolyline
 90
        8
 70
     0
 43
0.0
 10
8.654327163581797
 20
6.135827913956975
 10
8.637318659329672
 20
6.097048524262131
 10
8.618309154577295
 20
6.003001500750375
 10
8.625312656328172
 20
5.899949974987493
 10
8.632316158079046
 20
5.807903951975987
 10
8.621310655327671
 20
5.68984492246123
 10
8.616308154077046
 20
5.571785892946473
 10
8.62355723896045
 20
5.490112869926781
  0
LWPOLYLINE
  5
D9C
330
19
100
AcDbEntity
  8
0
100
AcDbPolyline
 90
       10
 70
     0
 43
0.0
 10
8.581379831220636
 20
7.255695382724388
 10
8.577288644322168
 20
7.2016008004002
 10
8.581290645322669
 20
7.096548274137068
 10
8.589294647323669
 20
7.036518259129564
 10
8.602301150575295
 20
6.987493746873436
 10
8.622311155577796
 20
6.938469234617308
 10
8.627313656828422
 20
6.880440220110055
 10
8.631315657828921
 20
6.825412706353176
 10
8.644322161080547
 20
6.767383691845923
 10
8.654327163581797
 20
6.749874937468735
  0
LWPOLYLINE
  5
D9D
330
19
100
AcDbEntity
  8
0
100
AcDbPolyline
 90
        8
 70
     0
 43
0.0
 10
9.019840807098907
 20
7.375562412101182
 10
9.02051025512757
 20
7.318659329664832
 10
9.017508754377197
 20
7.257628814407203
 10
9.027513756878447
 20
7.193596798399199
 10
9.037518759379697
 20
7.105552776388193
 10
9.043521760880447
 20
7.012506253126563
 10
9.055527763881948
 20
6.929464732366182
 10
9.071535767883949
 20
6.838419209604802
  0
LWPOLYLINE
  5
D9E
330
19
100
AcDbEntity
  8
0
100
AcDbPolyline
 90
       12
 70
     0
 43
0.0
 10
8.965557616275037
 20
7.360722403098973
 10
8.967483741870943
 20
7.28064032016008
 10
8.973486743371693
 20
7.180590295147574
 10
8.975487743871943
 20
7.101550775387693
 10
8.986493246623319
 20
7.041520760380189
 10
9.001500750375195
 20
6.986493246623311
 10
9.012506253126571
 20
6.918459229614807
 10
9.019509754877445
 20
6.824412206103051
 10
9.029514757378697
 20
6.741370685342671
 10
9.040520260130073
 20
6.676338169084541
 10
9.057528764382198
 20
6.618309154577288
 10
9.071535767883949
 20
6.570285142571285
  0
LWPOLYLINE
  5
D9F
330
19
100
AcDbEntity
  8
0
100
AcDbPolyline
 90
       26
 70
     0
 43
0.0
 10
8.895557386205752
 20
7.341585649554851
 10
8.883441720860438
 20
7.292646323161581
 10
8.883441720860438
 20
7.229614807403701
 10
8.900450225112564
 20
7.177588794397198
 10
8.914457228614314
 20
7.12656328164082
 10
8.922461230615316
 20
7.05952976488244
 10
8.932466233116566
 20
6.988494247123561
 10
8.940470235117566
 20
6.909454727363682
 10
8.942471235617816
 20
6.792396198099049
 10
8.947473736868442
 20
6.728364182091045
 10
8.960480240120067
 20
6.646323161580789
 10
8.977488744372193
 20
6.594297148574286
 10
8.99249624812407
 20
6.554277138569284
 10
9.00050025012507
 20
6.352176088044021
 10
9.001500750375195
 20
6.238119059529764
 10
9.00250125062532
 20
6.187093546773386
 10
8.984492246123068
 20
6.133066533266633
 10
8.945472736368192
 20
6.066033016508253
 10
8.890445222611312
 20
6.001000500250124
 10
8.843421710855434
 20
5.935967983991995
 10
8.818409204602308
 20
5.881940970485242
 10
8.800400200100057
 20
5.788894447223611
 10
8.795397698849431
 20
5.731865932966483
 10
8.788394197098556
 20
5.651825912956477
 10
8.784392196098056
 20
5.587793896948473
 10
8.786139327726017
 20
5.554248969691616
  0
LWPOLYLINE
  5
DA0
330
19
100
AcDbEntity
  8
0
100
AcDbPolyline
 90
       29
 70
     0
 43
0.0
 10
8.838509743675122
 20
7.325989891165183
 10
8.831415707853934
 20
7.281640820410204
 10
8.826413206603309
 20
7.224612306153076
 10
8.82841420710356
 20
7.167583791895948
 10
8.834417208604309
 20
7.131565782891445
 10
8.85642821410706
 20
7.092546273136568
 10
8.865432716358185
 20
7.058529264632315
 10
8.867433716858436
 20
6.990495247623811
 10
8.871435717858937
 20
6.921460730365182
 10
8.879439719859937
 20
6.857428714357178
 10
8.898449224612314
 20
6.780390195097549
 10
8.908454227113564
 20
6.635317658829414
 10
8.918459229614815
 20
6.538269134567283
 10
8.923461730865441
 20
6.466233116558279
 10
8.925462731365689
 20
6.392196098049023
 10
8.896448224112064
 20
6.341170585292645
 10
8.85642821410706
 20
6.288144072036017
 10
8.824412206103059
 20
6.226113056528264
 10
8.794397198599308
 20
6.182091045522761
 10
8.768384192096056
 20
6.152076038019009
 10
8.745372686343179
 20
6.097048524262131
 10
8.733366683341679
 20
6.034017008504251
 10
8.727363681840927
 20
5.941970985492746
 10
8.724362181090552
 20
5.878939469734867
 10
8.720360180090053
 20
5.801900950475237
 10
8.715357678839427
 20
5.708854427213606
 10
8.709354677338677
 20
5.625812906453226
 10
8.699349674837427
 20
5.564782391195597
 10
8.699856161039929
 20
5.5202116053754
  0
LWPOLYLINE
  5
DA1
330
19
100
AcDbEntity
  8
0
100
AcDbPolyline
 90
       13
 70
     0
 43
0.0
 10
8.778240697521897
 20
7.309513461281568
 10
8.779389694847431
 20
7.194597298649324
 10
8.788394197098556
 20
7.090545272636318
 10
8.794397198599308
 20
6.96648324162081
 10
8.807403701850932
 20
6.862431215607804
 10
8.816408204102059
 20
6.804402201100549
 10
8.827413706853434
 20
6.733366683341671
 10
8.832416208104059
 20
6.651325662831415
 10
8.816408204102059
 20
6.557278639319659
 10
8.78339169584793
 20
6.481240620310154
 10
8.736368184092052
 20
6.421210605302651
 10
8.693346673336675
 20
6.365182591295647
 10
8.654327163581797
 20
6.333257537859837
  0
LWPOLYLINE
  5
DA2
330
19
100
AcDbEntity
  8
0
100
AcDbPolyline
 90
       12
 70
     0
 43
0.0
 10
8.719244139286122
 20
7.293384905792651
 10
8.719359679839927
 20
7.200600300150074
 10
8.724362181090552
 20
7.12856428214107
 10
8.734367183591804
 20
7.061530765382691
 10
8.742371185592804
 20
6.994497248624311
 10
8.741370685342679
 20
6.936468234117058
 10
8.751375687843929
 20
6.877438719359679
 10
8.758379189594805
 20
6.823411705852926
 10
8.753376688344179
 20
6.761380690345172
 10
8.732366183091553
 20
6.691345672836418
 10
8.706353176588301
 20
6.651325662831415
 10
8.654327163581797
 20
6.552750059240146
  0
LINE
  5
DAC
330
19
100
AcDbEntity
  8
0
100
AcDbLine
 10
4.541270635317665
 20
9.531765882941471
 30
0.0
 11
4.541270635317665
 21
8.496248124062031
 31
0.0
  0
LINE
  5
DAD
330
19
100
AcDbEntity
  8
0
100
AcDbLine
 10
4.541270635317665
 20
8.496248124062031
 30
0.0
 11
5.805902951475745
 21
8.128902546511352
 31
0.0
  0
LINE
  5
DAE
330
19
100
AcDbEntity
  8
0
100
AcDbLine
 10
4.541270635317665
 20
9.531765882941471
 30
0.0
 11
5.877938969484749
 21
9.251625812906452
 31
0.0
  0
LINE
  5
DAF
330
19
100
AcDbEntity
  8
0
100
AcDbLine
 10
5.877938969484749
 20
9.251625812906452
 30
0.0
 11
5.877938969484749
 21
8.788530537813999
 31
0.0
  0
LINE
  5
DB0
330
19
100
AcDbEntity
  8
0
100
AcDbLine
 10
4.574287143571793
 20
9.561780890445224
 30
0.0
 11
5.910955477738876
 21
9.281640820410205
 31
0.0
  0
LINE
  5
DB1
330
19
100
AcDbEntity
  8
0
100
AcDbLine
 10
5.910955477738876
 20
9.281640820410205
 30
0.0
 11
5.910955477738876
 21
8.79302978142378
 31
0.0
  0
LINE
  5
DB2
330
19
100
AcDbEntity
  8
0
100
AcDbLine
 10
5.877938969484749
 20
9.251625812906452
 30
0.0
 11
5.910955477738876
 21
9.281640820410205
 31
0.0
  0
LINE
  5
DB4
330
19
100
AcDbEntity
  8
0
100
AcDbLine
 10
4.762008550563998
 20
9.522438080596556
 30
0.0
 11
4.009004502251132
 21
10.42921460730365
 31
0.0
  0
LINE
  5
DB5
330
19
100
AcDbEntity
  8
0
100
AcDbLine
 10
4.541270635317665
 20
9.531765882941471
 30
0.0
 11
4.574287143571793
 21
9.561780890445224
 31
0.0
  0
LINE
  5
DB9
330
19
100
AcDbEntity
  8
0
100
AcDbLine
 10
7.273636818409212
 20
6.497905128617318
 30
0.0
 11
7.27363681840921
 21
4.918433575762238
 31
0.0
  0
LINE
  5
DBA
330
19
100
AcDbEntity
  8
0
100
AcDbLine
 10
6.541270635317666
 20
4.543271635817908
 30
0.0
 11
7.206603301650833
 21
4.796398199099549
 31
0.0
  0
LINE
  5
DBB
330
19
100
AcDbEntity
  8
0
100
AcDbLine
 10
7.206603301650833
 20
4.796398199099549
 30
0.0
 11
7.27363681840921
 21
4.918433575762238
 31
0.0
  0
LINE
  5
DBC
330
19
100
AcDbEntity
  8
0
100
AcDbLine
 10
6.541270635317666
 20
4.543271635817908
 30
0.0
 11
6.458229114557286
 21
4.607303651825912
 31
0.0
  0
LINE
  5
DBD
330
19
100
AcDbEntity
  8
0
100
AcDbLine
 10
6.458229114557286
 20
4.607303651825912
 30
0.0
 11
6.458229114557286
 21
6.302324002865091
 31
0.0
  0
LINE
  5
DBE
330
19
100
AcDbEntity
  8
0
100
AcDbLine
 10
6.422211105552784
 20
4.612306153076538
 30
0.0
 11
6.422211105552785
 21
6.347173586793407
 31
0.0
  0
LINE
  5
DBF
330
19
100
AcDbEntity
  8
0
100
AcDbLine
 10
6.505252626313165
 20
4.548274137068535
 30
0.0
 11
6.422211105552784
 21
4.612306153076538
 31
0.0
  0
LINE
  5
DC0
330
19
100
AcDbEntity
  8
0
100
AcDbLine
 10
6.458229114557286
 20
4.607303651825912
 30
0.0
 11
6.422211105552784
 21
4.612306153076538
 31
0.0
  0
LINE
  5
DC1
330
19
100
AcDbEntity
  8
0
100
AcDbLine
 10
6.541270635317666
 20
4.543271635817908
 30
0.0
 11
6.505252626313165
 21
4.548274137068535
 31
0.0
  0
LINE
  5
DC3
330
19
100
AcDbEntity
  8
0
100
AcDbLine
 10
6.338967958870357
 20
6.485302796770259
 30
0.0
 11
5.955179114666424
 21
6.654648473829067
 31
0.0
  0
LINE
  5
DC4
330
19
100
AcDbEntity
  8
0
100
AcDbLine
 10
5.835917958979496
 20
8.653326663331665
 30
0.0
 11
5.835917958979495
 21
6.837627267734233
 31
0.0
  0
LINE
  5
DC5
330
19
100
AcDbEntity
  8
0
100
AcDbLine
 10
5.835917958979496
 20
8.653326663331665
 30
0.0
 11
5.906953476738376
 21
8.781390695347673
 31
0.0
  0
LINE
  5
DC6
330
19
100
AcDbEntity
  8
0
100
AcDbLine
 10
5.906953476738376
 20
8.781390695347673
 30
0.0
 11
6.431662893904197
 21
8.852894183057645
 31
0.0
  0
LINE
  5
DC7
330
19
100
AcDbEntity
  8
0
100
AcDbLine
 10
5.876938469234625
 20
8.788394197098549
 30
0.0
 11
6.425677361718223
 21
8.863172242567259
 31
0.0
  0
LINE
  5
DC8
330
19
100
AcDbEntity
  8
0
100
AcDbLine
 10
5.805902951475745
 20
8.660330165082542
 30
0.0
 11
5.876938469234625
 21
8.788394197098549
 31
0.0
  0
LINE
  5
DC9
330
19
100
AcDbEntity
  8
0
100
AcDbLine
 10
5.805902951475745
 20
8.660330165082542
 30
0.0
 11
5.805902951475746
 21
6.815407703851927
 31
0.0
  0
LINE
  5
DCA
330
19
100
AcDbEntity
  8
0
100
AcDbLine
 10
5.835917958979496
 20
8.653326663331665
 30
0.0
 11
5.805902951475745
 21
8.660330165082542
 31
0.0
  0
LINE
  5
DCB
330
19
100
AcDbEntity
  8
0
100
AcDbLine
 10
5.906953476738376
 20
8.781390695347673
 30
0.0
 11
5.876938469234625
 21
8.788394197098549
 31
0.0
  0
ARC
  5
DCE
330
19
100
AcDbEntity
  8
0
100
AcDbCircle
 10
6.035917958979495
 20
6.837627267734233
 30
0.0
 40
0.2
100
AcDbArc
 50
180.0
 51
246.1906738047536
  0
ARC
  5
DD0
330
19
100
AcDbEntity
  8
0
100
AcDbCircle
 10
6.007687752606572
 20
6.853092690492542
 30
0.0
 40
0.2052736324653273
100
AcDbArc
 50
190.5785968165102
 51
255.1791090751032
  0
ARC
  5
DD1
330
19
100
AcDbEntity
  8
0
100
AcDbCircle
 10
6.258229114557286
 20
6.302324002865091
 30
0.0
 40
0.2
100
AcDbArc
 50
0.0
 51
66.19067380475379
  0
ARC
  5
DD2
330
19
100
AcDbEntity
  8
0
100
AcDbCircle
 10
6.211259458062272
 20
6.316081654442212
 30
0.0
 40
0.2120029626902832
100
AcDbArc
 50
5.708378624170321
 51
52.95872653354206
  0
LINE
  5
DD3
330
19
100
AcDbEntity
  8
0
100
AcDbLine
 10
6.657328664332172
 20
8.739117180774059
 30
0.0
 11
6.657328664332173
 21
7.68984492246123
 31
0.0
  0
LINE
  5
DD4
330
19
100
AcDbEntity
  8
0
100
AcDbLine
 10
6.481093431714893
 20
8.860366366942571
 30
0.0
 11
6.580770251516006
 21
8.836330821742303
 31
0.0
  0
LINE
  5
DD5
330
19
100
AcDbEntity
  8
0
100
AcDbLine
 10
6.468606940568644
 20
8.851023599307851
 30
0.0
 11
6.548037194470057
 21
8.831870204750064
 31
0.0
  0
ARC
  5
DDB
330
19
100
AcDbEntity
  8
0
100
AcDbCircle
 10
6.557328664332172
 20
8.739117180774059
 30
0.0
 40
0.1
100
AcDbArc
 50
0.0000000000000509
 51
76.44280707046364
  0
ARC
  5
DDC
330
19
100
AcDbEntity
  8
0
100
AcDbCircle
 10
6.534609261870866
 20
8.733112125351427
 30
0.0
 40
0.0996667829339132
100
AcDbArc
 50
1.643231134576401
 51
82.25709301417614
  0
LINE
  5
DDF
330
19
100
AcDbEntity
  8
0
100
AcDbLine
 10
6.634235058126659
 20
8.735970156281121
 30
0.0
 11
6.634235058126659
 21
7.657876970039737
 31
0.0
  0
LINE
  5
DE0
330
19
100
AcDbEntity
  8
0
100
AcDbLine
 10
6.445165353384811
 20
8.853809958339607
 30
0.0
 11
6.445165353384812
 21
7.629171826136751
 31
0.0
  0
ARC
  5
DE1
330
19
100
AcDbEntity
  8
0
100
AcDbCircle
 10
6.445165353384811
 20
8.753809958339607
 30
0.0
 40
0.1
100
AcDbArc
 50
76.44280707046404
 51
97.76004208895283
  0
ARC
  5
DE2
330
19
100
AcDbEntity
  8
0
100
AcDbCircle
 10
6.445931050939145
 20
8.714545905490205
 30
0.0
 40
0.15
100
AcDbArc
 50
76.44280707046448
 51
97.76004208895334
  0
ARC
  5
DE4
330
19
100
AcDbEntity
  8
0
100
AcDbCircle
 10
6.445165353384812
 20
7.558911862899095
 30
0.0
 40
0.0702599632376553
100
AcDbArc
 50
90.0
 51
274.5342194904135
  0
ARC
  5
DE5
330
19
100
AcDbEntity
  8
0
100
AcDbCircle
 10
6.492739602149551
 20
7.665519090831883
 30
0.0
 40
0.0529847169425278
100
AcDbArc
 50
13.44528258262377
 51
153.8816002793656
  0
ARC
  5
DE6
330
19
100
AcDbEntity
  8
0
100
AcDbCircle
 10
6.598210927140094
 20
7.708226125608944
 30
0.0
 40
0.06190941349964
100
AcDbArc
 50
209.395371386164
 51
342.7282061912931
  0
LINE
  5
DE7
330
19
100
AcDbEntity
  8
0
100
AcDbLine
 10
7.457524175079922
 20
9.037828437732255
 30
0.0
 11
7.624812406203109
 21
9.071535767883942
 31
0.0
  0
LINE
  5
DE8
330
19
100
AcDbEntity
  8
0
100
AcDbLine
 10
7.495406754255605
 20
8.999144978762487
 30
0.0
 11
7.684736395138069
 21
9.037293488492535
 31
0.0
  0
LINE
  5
DE9
330
19
100
AcDbEntity
  8
0
100
AcDbLine
 10
7.624812406203109
 20
9.071535767883942
 30
0.0
 11
7.684736395138069
 21
9.037293488492535
 31
0.0
  0
LINE
  5
DEA
330
19
100
AcDbEntity
  8
0
100
AcDbLine
 10
7.684736395138069
 20
9.037293488492535
 30
0.0
 11
7.753876938469242
 21
8.945472736368183
 31
0.0
  0
LINE
  5
DEB
330
19
100
AcDbEntity
  8
0
100
AcDbLine
 10
7.753876938469242
 20
8.945472736368183
 30
0.0
 11
7.753876938469243
 21
8.735210447811779
 31
0.0
  0
ARC
  5
DF5
330
19
100
AcDbEntity
  8
0
  6
DASHED
100
AcDbCircle
 10
6.451586533902599
 20
7.549213809515427
 30
0.0
 40
0.1992285975662141
100
AcDbArc
 50
141.2790324858111
 51
252.0524825479398
  0
ARC
  5
DF6
330
19
100
AcDbEntity
  8
0
  6
DASHED
100
AcDbCircle
 10
6.451586533902599
 20
7.549213809515427
 30
0.0
 40
0.2792285975662142
100
AcDbArc
 50
141.2790324858111
 51
252.0524825479398
  0
ARC
  5
DF8
330
19
100
AcDbEntity
  8
0
  6
DASHED
100
AcDbCircle
 10
6.264940012189596
 20
7.698858047045427
 30
0.0
 40
0.0400000000000002
100
AcDbArc
 50
321.2790324858103
 51
141.2790324858102
  0
ARC
  5
DFA
330
19
100
AcDbEntity
  8
0
  6
DASHED
100
AcDbCircle
 10
6.377869269408889
 20
7.321626272929914
 30
0.0
 40
0.0400000000000004
100
AcDbArc
 50
252.0524825479386
 51
72.052482547941
  0
ARC
  5
DFC
330
19
100
AcDbEntity
  8
0
  6
DASHED
100
AcDbCircle
 10
6.050525262631322
 20
8.662714122592359
 30
0.0
 40
0.0398850170068959
100
AcDbArc
 50
7.760042088951392
 51
187.7600420889564
  0
ARC
  5
DFE
330
19
100
AcDbEntity
  8
0
  6
DASHED
100
AcDbCircle
 10
6.394445692552717
 20
7.05668955652092
 30
0.0
 40
0.041816730220257
100
AcDbArc
 50
244.8670450070863
 51
64.86704500708626
  0
LWPOLYLINE
  5
E02
330
19
100
AcDbEntity
  8
0
  6
DASHED
100
AcDbPolyline
 90
        4
 70
   128
 43
0.0
 10
6.412206103051533
 20
7.094547273636818
 10
6.159078597144376
 20
7.213298449247586
 42
-0.2908441147418461
 10
6.090045022511262
 20
7.321937408582262
 10
6.090045022511262
 20
8.668099580852552
  0
LWPOLYLINE
  5
E03
330
19
100
AcDbEntity
  8
0
  6
DASHED
100
AcDbPolyline
 90
        4
 70
   128
 43
0.0
 10
6.3766852820539
 20
7.018831839405023
 10
6.126061460473238
 20
7.13640844706015
 42
-0.290844114741845
 10
6.011005502751383
 20
7.317473379284611
 10
6.011005502751383
 20
8.657328664332166
  0
ARC
  5
E04
330
19
100
AcDbEntity
  8
0
100
AcDbCircle
 10
6.416150846131186
 20
7.566051705365422
 30
0.0
 40
0.0702599632376553
100
AcDbArc
 50
268.4525012759307
 51
290.8464194455831
  0
LWPOLYLINE
  5
E0F
330
19
100
AcDbEntity
  8
0
100
AcDbPolyline
 90
        3
 70
     1
 43
0.0
 10
6.192096048024019
 20
6.941470735367683
 10
6.256128064032023
 20
6.958479239619809
 10
6.218109054527271
 20
7.011505752876437
  0
LWPOLYLINE
  5
E10
330
19
100
AcDbEntity
  8
0
100
AcDbPolyline
 90
        3
 70
     1
 43
0.0
 10
6.820410205102558
 20
6.631315657828914
 10
6.884442221110562
 20
6.64832416208104
 10
6.84642321160581
 20
6.701350675337668
  0
LWPOLYLINE
  5
E11
330
19
100
AcDbEntity
  8
0
100
AcDbPolyline
 90
        3
 70
     1
 43
0.0
 10
6.574287143571793
 20
5.636818409204602
 10
6.638319159579797
 20
5.653826913456728
 10
6.600300150075045
 20
5.706853426713356
  0
LWPOLYLINE
  5
E12
330
19
100
AcDbEntity
  8
0
100
AcDbPolyline
 90
        3
 70
     1
 43
0.0
 10
7.005502751375694
 20
5.420710355177588
 10
7.069534767383698
 20
5.437718859429714
 10
7.031515757878946
 20
5.490745372686343
  0
LWPOLYLINE
  5
E13
330
19
100
AcDbEntity
  8
0
100
AcDbPolyline
 90
        3
 70
     1
 43
0.0
 10
6.845422711355685
 20
4.750375187593796
 10
6.909454727363689
 20
4.767383691845922
 10
6.871435717858937
 20
4.82041020510255
  0
LINE
  5
E18
330
19
100
AcDbEntity
  8
0
100
AcDbLine
 10
5.772886443221617
 20
9.21560780390195
 30
0.0
 11
5.571698021943144
 21
9.258530355588226
 31
0.0
  0
LINE
  5
E19
330
19
100
AcDbEntity
  8
0
100
AcDbLine
 10
5.772886443221617
 20
8.945472736368183
 30
0.0
 11
5.571698021943143
 21
8.992874082745574
 31
0.0
  0
LINE
  5
E1A
330
19
100
AcDbEntity
  8
0
100
AcDbLine
 10
5.772886443221617
 20
8.69859466361601
 30
0.0
 11
5.571698021943143
 21
8.74902494750223
 31
0.0
  0
LINE
  5
E1B
330
19
100
AcDbEntity
  8
0
100
AcDbLine
 10
5.772886443221617
 20
8.42515056654965
 30
0.0
 11
5.571698021943144
 21
8.478566531675114
 31
0.0
  0
LINE
  5
E1C
330
19
100
AcDbEntity
  8
0
100
AcDbLine
 10
5.772886443221617
 20
9.21560780390195
 30
0.0
 11
5.772886443221617
 21
9.163581790895446
 31
0.0
  0
LINE
  5
E1E
330
19
100
AcDbEntity
  8
0
100
AcDbLine
 10
5.772886443221617
 20
9.163581790895448
 30
0.0
 11
5.571698021943143
 21
9.207602807502076
 31
0.0
  0
LINE
  5
E1F
330
19
100
AcDbEntity
  8
0
100
AcDbLine
 10
5.458867699957316
 20
9.282602145090031
 30
0.0
 11
5.458867699957317
 21
9.232290637180871
 31
0.0
  0
LINE
  5
E20
330
19
100
AcDbEntity
  8
0
100
AcDbLine
 10
5.144848956693014
 20
9.349596486278113
 30
0.0
 11
5.144848956693014
 21
9.300999483466294
 31
0.0
  0
LINE
  5
E21
330
19
100
AcDbEntity
  8
0
100
AcDbLine
 10
4.830830213428713
 20
9.416590827466195
 30
0.0
 11
4.830830213428713
 21
9.369708329751713
 31
0.0
  0
LINE
  5
E22
330
19
100
AcDbEntity
  8
0
100
AcDbLine
 10
5.772886443221617
 20
8.896448224112056
 30
0.0
 11
5.574272106447213
 21
8.944018441136695
 31
0.0
  0
LINE
  5
E23
330
19
100
AcDbEntity
  8
0
100
AcDbLine
 10
5.772886443221617
 20
8.651325662831415
 30
0.0
 11
5.571698021943144
 21
8.702017427216315
 31
0.0
  0
LINE
  5
E24
330
19
100
AcDbEntity
  8
0
100
AcDbLine
 10
5.772886443221617
 20
8.378189094547274
 30
0.0
 11
5.571698021943145
 21
8.432050561661198
 31
0.0
  0
LINE
  5
E26
330
19
100
AcDbEntity
  8
0
100
AcDbLine
 10
5.458867699957317
 20
8.462257104555039
 30
0.0
 11
5.25767927867884
 21
8.516118571668962
 31
0.0
  0
LINE
  5
E27
330
19
100
AcDbEntity
  8
0
100
AcDbLine
 10
5.458867699957317
 20
8.730446340079354
 30
0.0
 11
5.257679278678841
 21
8.781138104464251
 31
0.0
  0
LINE
  5
E28
330
19
100
AcDbEntity
  8
0
100
AcDbLine
 10
5.458867699957317
 20
8.508523228516765
 30
0.0
 11
5.25767927867884
 21
8.56193919364223
 31
0.0
  0
LINE
  5
E29
330
19
100
AcDbEntity
  8
0
100
AcDbLine
 10
5.458867699957316
 20
8.777307217090911
 30
0.0
 11
5.257679278678841
 21
8.827737500977131
 31
0.0
  0
LINE
  5
E2A
330
19
100
AcDbEntity
  8
0
100
AcDbLine
 10
5.458867699957316
 20
8.971659007026757
 30
0.0
 11
5.257679278678841
 21
9.019845744291008
 31
0.0
  0
LINE
  5
E2B
330
19
100
AcDbEntity
  8
0
100
AcDbLine
 10
5.458867699957316
 20
9.232290637180871
 30
0.0
 11
5.25767927867884
 21
9.276311653787497
 31
0.0
  0
LINE
  5
E2C
330
19
100
AcDbEntity
  8
0
100
AcDbLine
 10
5.458867699957316
 20
9.019457666136388
 30
0.0
 11
5.257679278678841
 21
9.066859012513779
 31
0.0
  0
LINE
  5
E2D
330
19
100
AcDbEntity
  8
0
100
AcDbLine
 10
5.458867699957316
 20
9.282602145090031
 30
0.0
 11
5.257679278678841
 21
9.325524696776309
 31
0.0
  0
LINE
  5
E2F
330
19
100
AcDbEntity
  8
0
100
AcDbLine
 10
5.144848956693013
 20
9.349596486278113
 30
0.0
 11
4.943660535414539
 21
9.392519037964393
 31
0.0
  0
LINE
  5
E30
330
19
100
AcDbEntity
  8
0
100
AcDbLine
 10
5.144848956693014
 20
9.093442595904595
 30
0.0
 11
4.943660535414539
 21
9.140843942281988
 31
0.0
  0
LINE
  5
E31
330
19
100
AcDbEntity
  8
0
100
AcDbLine
 10
5.144848956693014
 20
9.300999483466294
 30
0.0
 11
4.94366053541454
 21
9.345020500072918
 31
0.0
  0
LINE
  5
E32
330
19
100
AcDbEntity
  8
0
100
AcDbLine
 10
5.144848956693014
 20
9.046869789941459
 30
0.0
 11
4.94366053541454
 21
9.095056527205708
 31
0.0
  0
LINE
  5
E33
330
19
100
AcDbEntity
  8
0
100
AcDbLine
 10
5.144848956693014
 20
8.856019770565812
 30
0.0
 11
4.943660535414539
 21
8.90645005445203
 31
0.0
  0
LINE
  5
E34
330
19
100
AcDbEntity
  8
0
100
AcDbLine
 10
5.144848956693013
 20
8.59189589048388
 30
0.0
 11
4.943660535414539
 21
8.645311855609343
 31
0.0
  0
LINE
  5
E35
330
19
100
AcDbEntity
  8
0
100
AcDbLine
 10
5.144848956693014
 20
8.809567017327289
 30
0.0
 11
4.943660535414539
 21
8.86025878171219
 31
0.0
  0
LINE
  5
E36
330
19
100
AcDbEntity
  8
0
100
AcDbLine
 10
5.144848956693014
 20
8.546325114562805
 30
0.0
 11
4.94366053541454
 21
8.600186581676729
 31
0.0
  0
LINE
  5
E38
330
19
100
AcDbEntity
  8
0
100
AcDbLine
 10
4.830830213428714
 20
8.630393124570572
 30
0.0
 11
4.629314657328671
 21
8.684342171085543
 31
0.0
  0
LINE
  5
E39
330
19
100
AcDbEntity
  8
0
100
AcDbLine
 10
4.830830213428714
 20
8.888687694575225
 30
0.0
 11
4.629641792150238
 21
8.939379458960126
 31
0.0
  0
LINE
  5
E3A
330
19
100
AcDbEntity
  8
0
100
AcDbLine
 10
4.830830213428713
 20
8.675268552450994
 30
0.0
 11
4.629641792150239
 21
8.728684517576459
 31
0.0
  0
LINE
  5
E3B
330
19
100
AcDbEntity
  8
0
100
AcDbLine
 10
4.830830213428714
 20
8.934732324040709
 30
0.0
 11
4.629641792150238
 21
8.985162607926927
 31
0.0
  0
LINE
  5
E3C
330
19
100
AcDbEntity
  8
0
100
AcDbLine
 10
4.830830213428714
 20
9.122080572856161
 30
0.0
 11
4.628314157078546
 21
9.170585292646322
 31
0.0
  0
LINE
  5
E3D
330
19
100
AcDbEntity
  8
0
100
AcDbLine
 10
4.830830213428713
 20
9.369708329751713
 30
0.0
 11
4.629641792150238
 21
9.413729346358341
 31
0.0
  0
LINE
  5
E3E
330
19
100
AcDbEntity
  8
0
100
AcDbLine
 10
4.830830213428714
 20
9.167427525672801
 30
0.0
 11
4.629641792150238
 21
9.214828872050193
 31
0.0
  0
LINE
  5
E3F
330
19
100
AcDbEntity
  8
0
100
AcDbLine
 10
4.830830213428713
 20
9.416590827466196
 30
0.0
 11
4.629641792150238
 21
9.459513379152472
 31
0.0
  0
LINE
  5
E44
330
19
100
AcDbEntity
  8
0
100
AcDbLine
 10
4.830830213428713
 20
8.675268552450993
 30
0.0
 11
4.830830213428713
 21
8.630393124570572
 31
0.0
  0
LINE
  5
E45
330
19
100
AcDbEntity
  8
0
100
AcDbLine
 10
4.830830213428713
 20
8.934732324040709
 30
0.0
 11
4.830830213428713
 21
8.888687694575227
 31
0.0
  0
LINE
  5
E46
330
19
100
AcDbEntity
  8
0
100
AcDbLine
 10
4.830830213428713
 20
9.167427525672801
 30
0.0
 11
4.830830213428713
 21
9.122080572856161
 31
0.0
  0
LINE
  5
E49
330
19
100
AcDbEntity
  8
0
100
AcDbLine
 10
5.144848956693014
 20
8.591895890483878
 30
0.0
 11
5.144848956693014
 21
8.546325114562805
 31
0.0
  0
LINE
  5
E4A
330
19
100
AcDbEntity
  8
0
100
AcDbLine
 10
5.144848956693014
 20
8.856019770565812
 30
0.0
 11
5.144848956693014
 21
8.809567017327289
 31
0.0
  0
LINE
  5
E4C
330
19
100
AcDbEntity
  8
0
100
AcDbLine
 10
5.458867699957316
 20
9.019457666136388
 30
0.0
 11
5.458867699957316
 21
8.971659007026759
 31
0.0
  0
LINE
  5
E4D
330
19
100
AcDbEntity
  8
0
100
AcDbLine
 10
5.458867699957316
 20
8.777307217090909
 30
0.0
 11
5.458867699957315
 21
8.730446340079354
 31
0.0
  0
LINE
  5
E4F
330
19
100
AcDbEntity
  8
0
100
AcDbLine
 10
5.458867699957315
 20
8.508523228516767
 30
0.0
 11
5.458867699957316
 21
8.462257104555039
 31
0.0
  0
LINE
  5
E51
330
19
100
AcDbEntity
  8
0
100
AcDbLine
 10
5.772886443221617
 20
8.42515056654965
 30
0.0
 11
5.772886443221617
 21
8.375187593796898
 31
0.0
  0
LINE
  5
E52
330
19
100
AcDbEntity
  8
0
100
AcDbLine
 10
5.772886443221617
 20
8.69859466361601
 30
0.0
 11
5.772886443221617
 21
8.651325662831415
 31
0.0
  0
LINE
  5
E55
330
19
100
AcDbEntity
  8
0
100
AcDbLine
 10
5.772886443221616
 20
8.945472736368185
 30
0.0
 11
5.772886443221617
 21
8.896448224112056
 31
0.0
  0
LINE
  5
E59
330
19
100
AcDbEntity
  8
0
100
AcDbLine
 10
5.144848956693015
 20
9.093442595904596
 30
0.0
 11
5.144848956693014
 21
9.046869789941457
 31
0.0
  0
LINE
  5
E5A
330
19
100
AcDbEntity
  8
0
100
AcDbLine
 10
5.571698021943142
 20
9.207602807502076
 30
0.0
 11
5.603684362326302
 21
9.251706228535454
 31
0.0
  0
LINE
  5
E5B
330
19
100
AcDbEntity
  8
0
100
AcDbLine
 10
5.257679278678842
 20
9.2763116537875
 30
0.0
 11
5.28858878057884
 21
9.318930307872272
 31
0.0
  0
LINE
  5
E5D
330
19
100
AcDbEntity
  8
0
100
AcDbLine
 10
4.943660535414541
 20
9.345020500072923
 30
0.0
 11
4.973493198831377
 21
9.386154387209086
 31
0.0
  0
LINE
  5
E5E
330
19
100
AcDbEntity
  8
0
100
AcDbLine
 10
4.629641792150239
 20
9.413729346358343
 30
0.0
 11
4.658397617083916
 21
9.453378466545901
 31
0.0
  0
LINE
  5
E5F
330
19
100
AcDbEntity
  8
0
100
AcDbLine
 10
5.574272106447213
 20
8.944018441136695
 30
0.0
 11
5.603684362326302
 21
8.984572661752063
 31
0.0
  0
LINE
  5
E60
330
19
100
AcDbEntity
  8
0
100
AcDbLine
 10
5.257679278678841
 20
9.019845744291008
 30
0.0
 11
5.286799989749962
 21
9.059997976955838
 31
0.0
  0
LINE
  5
E61
330
19
100
AcDbEntity
  8
0
100
AcDbLine
 10
4.94366053541454
 20
9.095056527205708
 30
0.0
 11
4.972021934983951
 21
9.134161805625245
 31
0.0
  0
LINE
  5
E62
330
19
100
AcDbEntity
  8
0
100
AcDbLine
 10
4.628314157078546
 20
9.170585292646322
 30
0.0
 11
4.655913034864683
 21
9.208639190418623
 31
0.0
  0
LINE
  5
E63
330
19
100
AcDbEntity
  8
0
100
AcDbLine
 10
5.571698021943144
 20
8.702017427216315
 30
0.0
 11
5.60054615144738
 21
8.741793818835676
 31
0.0
  0
LINE
  5
E64
330
19
100
AcDbEntity
  8
0
100
AcDbLine
 10
5.257679278678841
 20
8.781138104464251
 30
0.0
 11
5.28627694597221
 21
8.820569153659109
 31
0.0
  0
LINE
  5
E65
330
19
100
AcDbEntity
  8
0
100
AcDbLine
 10
4.943660535414539
 20
8.86025878171219
 30
0.0
 11
4.972007740497036
 21
8.899344488482543
 31
0.0
  0
LINE
  5
E66
330
19
100
AcDbEntity
  8
0
100
AcDbLine
 10
4.629641792150238
 20
8.939379458960126
 30
0.0
 11
4.657738535021864
 21
8.978119823305972
 31
0.0
  0
LINE
  5
E67
330
19
100
AcDbEntity
  8
0
100
AcDbLine
 10
4.629314657328671
 20
8.684342171085543
 30
0.0
 11
4.656334416059901
 21
8.721597567647605
 31
0.0
  0
LINE
  5
E68
330
19
100
AcDbEntity
  8
0
100
AcDbLine
 10
4.94366053541454
 20
8.600186581676729
 30
0.0
 11
4.97110361278633
 21
8.638025658647749
 31
0.0
  0
LINE
  5
E69
330
19
100
AcDbEntity
  8
0
100
AcDbLine
 10
5.25767927867884
 20
8.516118571668962
 30
0.0
 11
5.285545234150131
 21
8.554540721621905
 31
0.0
  0
LINE
  5
E6A
330
19
100
AcDbEntity
  8
0
100
AcDbLine
 10
5.571698021943145
 20
8.432050561661198
 30
0.0
 11
5.59998685551393
 21
8.471055784596059
 31
0.0
  0
LINE
  5
E90
330
19
100
AcDbEntity
  8
0
100
AcDbLine
 10
5.643821910955484
 20
9.12856428214107
 30
0.0
 11
5.442725354270496
 21
9.171971709620635
 31
0.0
  0
LINE
  5
E91
330
19
100
AcDbEntity
  8
0
100
AcDbLine
 10
5.643821910955484
 20
9.082541270635318
 30
0.0
 11
5.442725354270497
 21
9.1258430839361
 31
0.0
  0
LINE
  5
E92
330
19
100
AcDbEntity
  8
0
100
AcDbLine
 10
5.643821910955484
 20
9.12856428214107
 30
0.0
 11
5.643821910955484
 21
9.082541270635318
 31
0.0
  0
LINE
  5
E93
330
19
100
AcDbEntity
  8
0
100
AcDbLine
 10
5.327989239138418
 20
9.196737919838169
 30
0.0
 11
5.327989239138419
 21
9.150549035734617
 31
0.0
  0
LINE
  5
E94
330
19
100
AcDbEntity
  8
0
100
AcDbLine
 10
5.012156567321352
 20
9.264911557535267
 30
0.0
 11
5.012156567321351
 21
9.218556800833907
 31
0.0
  0
LINE
  5
E95
330
19
100
AcDbEntity
  8
0
100
AcDbLine
 10
5.643821910955484
 20
8.852426213106552
 30
0.0
 11
5.442725354270497
 21
8.897827445171366
 31
0.0
  0
LINE
  5
E96
330
19
100
AcDbEntity
  8
0
100
AcDbLine
 10
5.643821910955484
 20
8.801400700350175
 30
0.0
 11
5.442725354270497
 21
8.848007784664226
 31
0.0
  0
LINE
  5
E97
330
19
100
AcDbEntity
  8
0
100
AcDbLine
 10
5.643821910955484
 20
8.607303651825912
 30
0.0
 11
5.442725354270497
 21
8.654900469976203
 31
0.0
  0
LINE
  5
E98
330
19
100
AcDbEntity
  8
0
100
AcDbLine
 10
5.643821910955484
 20
8.550275137568784
 30
0.0
 11
5.442725354270497
 21
8.600312134574127
 31
0.0
  0
LINE
  5
E99
330
19
100
AcDbEntity
  8
0
100
AcDbLine
 10
5.643821910955484
 20
8.314157078539269
 30
0.0
 11
5.442725354270497
 21
8.366836678914881
 31
0.0
  0
LINE
  5
E9A
330
19
100
AcDbEntity
  8
0
100
AcDbLine
 10
5.643821910955484
 20
8.261225618899582
 30
0.0
 11
5.442725354270497
 21
8.317317106696002
 31
0.0
  0
LINE
  5
E9C
330
19
100
AcDbEntity
  8
0
100
AcDbLine
 10
5.327989239138418
 20
8.396893149266466
 30
0.0
 11
5.12689268245343
 21
8.449572749642078
 31
0.0
  0
LINE
  5
E9D
330
19
100
AcDbEntity
  8
0
100
AcDbLine
 10
5.327989239138418
 20
8.628860861334587
 30
0.0
 11
5.12689268245343
 21
8.678897858339932
 31
0.0
  0
LINE
  5
E9E
330
19
100
AcDbEntity
  8
0
100
AcDbLine
 10
5.327989239138418
 20
8.682056946930544
 30
0.0
 11
5.12689268245343
 21
8.729653765080837
 31
0.0
  0
LINE
  5
E9F
330
19
100
AcDbEntity
  8
0
100
AcDbLine
 10
5.327989239138418
 20
8.874599566641896
 30
0.0
 11
5.12689268245343
 21
8.921206650955947
 31
0.0
  0
LINE
  5
EA0
330
19
100
AcDbEntity
  8
0
100
AcDbLine
 10
5.327989239138418
 20
8.923731225301658
 30
0.0
 11
5.12689268245343
 21
8.969132457366472
 31
0.0
  0
LINE
  5
EA1
330
19
100
AcDbEntity
  8
0
100
AcDbLine
 10
5.327989239138418
 20
9.150549035734615
 30
0.0
 11
5.12689268245343
 21
9.193850849035398
 31
0.0
  0
LINE
  5
EA2
330
19
100
AcDbEntity
  8
0
100
AcDbLine
 10
5.327989239138418
 20
9.196737919838169
 30
0.0
 11
5.12689268245343
 21
9.240145347317732
 31
0.0
  0
LINE
  5
EA5
330
19
100
AcDbEntity
  8
0
100
AcDbLine
 10
5.012156567321351
 20
8.479629219993663
 30
0.0
 11
4.807403701850932
 21
8.533266633316657
 31
0.0
  0
LINE
  5
EA6
330
19
100
AcDbEntity
  8
0
100
AcDbLine
 10
5.012156567321352
 20
8.437414856039915
 30
0.0
 11
4.811060010636364
 21
8.493506343836335
 31
0.0
  0
LINE
  5
EA7
330
19
100
AcDbEntity
  8
0
100
AcDbLine
 10
5.327989239138418
 20
8.349320237469746
 30
0.0
 11
5.12689268245343
 21
8.405411725266168
 31
0.0
  0
LINE
  5
EA8
330
19
100
AcDbEntity
  8
0
100
AcDbLine
 10
5.012156567321352
 20
8.995036237496763
 30
0.0
 11
4.811060010636364
 21
9.04043746956158
 31
0.0
  0
LINE
  5
EA9
330
19
100
AcDbEntity
  8
0
100
AcDbLine
 10
5.012156567321351
 20
8.947798432933617
 30
0.0
 11
4.811060010636363
 21
8.994405517247666
 31
0.0
  0
LINE
  5
EAA
330
19
100
AcDbEntity
  8
0
100
AcDbLine
 10
5.012156567321357
 20
8.707446585100389
 30
0.0
 11
4.811060010636364
 21
8.757483582105737
 31
0.0
  0
LINE
  5
EAB
330
19
100
AcDbEntity
  8
0
100
AcDbLine
 10
5.012156567321352
 20
8.756810242035176
 30
0.0
 11
4.811060010636364
 21
8.804407060185469
 31
0.0
  0
LINE
  5
EAC
330
19
100
AcDbEntity
  8
0
100
AcDbLine
 10
5.012156567321351
 20
9.218556800833909
 30
0.0
 11
4.811060010636363
 21
9.26185861413469
 31
0.0
  0
LINE
  5
EAD
330
19
100
AcDbEntity
  8
0
100
AcDbLine
 10
5.012156567321352
 20
9.264911557535269
 30
0.0
 11
4.811060010636364
 21
9.308318985014832
 31
0.0
  0
LINE
  5
EAF
330
19
100
AcDbEntity
  8
0
100
AcDbLine
 10
5.327989239138419
 20
8.923731225301658
 30
0.0
 11
5.327989239138418
 21
8.874599566641896
 31
0.0
  0
LINE
  5
EB2
330
19
100
AcDbEntity
  8
0
100
AcDbLine
 10
5.643821910955484
 20
8.852426213106552
 30
0.0
 11
5.643821910955484
 21
8.801400700350174
 31
0.0
  0
LINE
  5
EB3
330
19
100
AcDbEntity
  8
0
100
AcDbLine
 10
5.012156567321351
 20
8.995036237496763
 30
0.0
 11
5.012156567321353
 21
8.947798432933617
 31
0.0
  0
LINE
  5
EB5
330
19
100
AcDbEntity
  8
0
100
AcDbLine
 10
5.643821910955484
 20
8.607303651825911
 30
0.0
 11
5.643821910955484
 21
8.550275137568784
 31
0.0
  0
LINE
  5
EB8
330
19
100
AcDbEntity
  8
0
100
AcDbLine
 10
5.012156567321352
 20
8.479629219993665
 30
0.0
 11
5.012156567321352
 21
8.437414856039915
 31
0.0
  0
LINE
  5
EB9
330
19
100
AcDbEntity
  8
0
100
AcDbLine
 10
5.327989239138418
 20
8.682056946930542
 30
0.0
 11
5.327989239138419
 21
8.628860861334587
 31
0.0
  0
LINE
  5
EBC
330
19
100
AcDbEntity
  8
0
100
AcDbLine
 10
5.643821910955484
 20
8.314157078539267
 30
0.0
 11
5.643821910955484
 21
8.261225618899582
 31
0.0
  0
LINE
  5
EBD
330
19
100
AcDbEntity
  8
0
100
AcDbLine
 10
5.327989239138419
 20
8.396893149266466
 30
0.0
 11
5.327989239138418
 21
8.349320237469749
 31
0.0
  0
LINE
  5
EBF
330
19
100
AcDbEntity
  8
0
100
AcDbLine
 10
5.012156567321357
 20
8.756810242035177
 30
0.0
 11
5.012156567321357
 21
8.707446585100389
 31
0.0
  0
LINE
  5
EC0
330
19
100
AcDbEntity
  8
0
100
AcDbLine
 10
5.442725354270497
 20
9.1258430839361
 30
0.0
 11
5.47423021202767
 21
9.165171270812076
 31
0.0
  0
LINE
  5
EC1
330
19
100
AcDbEntity
  8
0
100
AcDbLine
 10
5.12689268245343
 20
9.193850849035398
 30
0.0
 11
5.158510827622095
 21
9.233320455006938
 31
0.0
  0
LINE
  5
EC2
330
19
100
AcDbEntity
  8
0
100
AcDbLine
 10
4.811060010636363
 20
9.26185861413469
 30
0.0
 11
4.842791443216525
 21
9.301469639201798
 31
0.0
  0
LINE
  5
EC3
330
19
100
AcDbEntity
  8
0
100
AcDbLine
 10
5.442725354270497
 20
8.848007784664226
 30
0.0
 11
5.476522253562616
 21
8.89019717594584
 31
0.0
  0
LINE
  5
EC4
330
19
100
AcDbEntity
  8
0
100
AcDbLine
 10
5.12689268245343
 20
8.921206650955947
 30
0.0
 11
5.159404819956214
 21
8.961792246653669
 31
0.0
  0
LINE
  5
EC5
330
19
100
AcDbEntity
  8
0
100
AcDbLine
 10
4.811060010636363
 20
8.994405517247666
 30
0.0
 11
4.842287386349814
 21
9.033387317361498
 31
0.0
  0
LINE
  5
EC6
330
19
100
AcDbEntity
  8
0
100
AcDbLine
 10
5.442725354270497
 20
8.600312134574127
 30
0.0
 11
5.479484984238474
 21
8.64619996584177
 31
0.0
  0
LINE
  5
EC7
330
19
100
AcDbEntity
  8
0
100
AcDbLine
 10
5.12689268245343
 20
8.678897858339932
 30
0.0
 11
5.161071565849347
 21
8.721564088537422
 31
0.0
  0
LINE
  5
EC8
330
19
100
AcDbEntity
  8
0
100
AcDbLine
 10
4.811060010636364
 20
8.757483582105737
 30
0.0
 11
4.842658147460224
 21
8.796928211233078
 31
0.0
  0
LINE
  5
EC9
330
19
100
AcDbEntity
  8
0
100
AcDbLine
 10
5.442725354270497
 20
8.317317106696002
 30
0.0
 11
5.47551362608482
 21
8.358247406752994
 31
0.0
  0
LINE
  5
ECA
330
19
100
AcDbEntity
  8
0
100
AcDbLine
 10
5.12689268245343
 20
8.405411725266168
 30
0.0
 11
5.156132912244517
 21
8.441912928680059
 31
0.0
  0
LINE
  5
ECB
330
19
100
AcDbEntity
  8
0
100
AcDbLine
 10
4.811060010636364
 20
8.493506343836335
 30
0.0
 11
4.836752198404215
 21
8.525578450607128
 31
0.0
  0
ELLIPSE
  5
ECD
330
19
100
AcDbEntity
  8
0
100
AcDbEllipse
 10
7.151575787893954
 20
6.385692846423211
 30
0.0
 11
0.0
 21
0.0575287643821909
 31
0.0
210
0.0
220
0.0
230
1.0
 40
0.6956521739130428
 41
0.0
 42
6.283185307179586
  0
ELLIPSE
  5
ECF
330
19
100
AcDbEntity
  8
0
100
AcDbEllipse
 10
7.131565782891452
 20
6.390695347673836
 30
0.0
 11
0.0
 21
0.0575287643821909
 31
0.0
210
0.0
220
0.0
230
1.0
 40
0.6956521739130428
 41
6.106447509121838
 42
9.256454053271114
  0
LINE
  5
ED0
330
19
100
AcDbEntity
  8
0
100
AcDbLine
 10
7.155920954999231
 20
6.442881516588803
 30
0.0
 11
7.138602066221164
 21
6.447327957002024
 31
0.0
  0
LINE
  5
ED1
330
19
100
AcDbEntity
  8
0
100
AcDbLine
 10
7.147354965489622
 20
6.328484936150553
 30
0.0
 11
7.124861223373203
 21
6.333979640330347
 31
0.0
  0
LINE
  5
ED2
330
19
100
AcDbEntity
  8
0
100
AcDbLine
 10
7.147354965489622
 20
5.781711549457206
 30
0.0
 11
7.124861223373203
 21
5.787206253637
 31
0.0
  0
ELLIPSE
  5
ED3
330
19
100
AcDbEntity
  8
0
100
AcDbEllipse
 10
7.151575787893954
 20
5.838919459729864
 30
0.0
 11
0.0
 21
0.0575287643821909
 31
0.0
210
0.0
220
0.0
230
1.0
 40
0.6956521739130428
 41
0.0
 42
6.283185307179586
  0
LINE
  5
ED4
330
19
100
AcDbEntity
  8
0
100
AcDbLine
 10
7.155920954999231
 20
5.896108129895455
 30
0.0
 11
7.138602066221164
 21
5.900554570308676
 31
0.0
  0
ELLIPSE
  5
ED5
330
19
100
AcDbEntity
  8
0
100
AcDbEllipse
 10
7.131565782891452
 20
5.843921960980489
 30
0.0
 11
0.0
 21
0.0575287643821909
 31
0.0
210
0.0
220
0.0
230
1.0
 40
0.6956521739130428
 41
6.106447509121838
 42
9.256454053271114
  0
ELLIPSE
  5
ED6
330
19
100
AcDbEntity
  8
0
100
AcDbEllipse
 10
7.151575787893954
 20
5.398699349674836
 30
0.0
 11
0.0
 21
0.0575287643821909
 31
0.0
210
0.0
220
0.0
230
1.0
 40
0.6956521739130428
 41
0.0
 42
6.283185307179586
  0
LINE
  5
ED7
330
19
100
AcDbEntity
  8
0
100
AcDbLine
 10
7.147354965489622
 20
5.341491439402178
 30
0.0
 11
7.124861223373203
 21
5.346986143581972
 31
0.0
  0
LINE
  5
ED8
330
19
100
AcDbEntity
  8
0
100
AcDbLine
 10
7.155920954999231
 20
5.455888019840428
 30
0.0
 11
7.138602066221164
 21
5.460334460253649
 31
0.0
  0
ELLIPSE
  5
ED9
330
19
100
AcDbEntity
  8
0
100
AcDbEllipse
 10
7.131565782891452
 20
5.403701850925462
 30
0.0
 11
0.0
 21
0.0575287643821909
 31
0.0
210
0.0
220
0.0
230
1.0
 40
0.6956521739130428
 41
6.106447509121838
 42
9.256454053271114
  0
ELLIPSE
  5
EDA
330
19
100
AcDbEntity
  8
0
100
AcDbEllipse
 10
7.131565782891452
 20
4.918459229614807
 30
0.0
 11
0.0
 21
0.0575287643821909
 31
0.0
210
0.0
220
0.0
230
1.0
 40
0.6956521739130428
 41
6.106447509121838
 42
9.256454053271114
  0
ELLIPSE
  5
EDB
330
19
100
AcDbEntity
  8
0
100
AcDbEllipse
 10
7.151575787893954
 20
4.913456728364182
 30
0.0
 11
0.0
 21
0.0575287643821909
 31
0.0
210
0.0
220
0.0
230
1.0
 40
0.6956521739130428
 41
0.0
 42
6.283185307179586
  0
LINE
  5
EDC
330
19
100
AcDbEntity
  8
0
100
AcDbLine
 10
7.147354965489622
 20
4.856248818091523
 30
0.0
 11
7.124861223373203
 21
4.861743522271318
 31
0.0
  0
LINE
  5
EDD
330
19
100
AcDbEntity
  8
0
100
AcDbLine
 10
7.155920954999231
 20
4.970645398529773
 30
0.0
 11
7.138602066221164
 21
4.975091838942994
 31
0.0
  0
LINE
  5
EDE
330
19
100
AcDbEntity
  8
0
100
AcDbLine
 10
6.746154365189471
 20
6.20942540638567
 30
0.0
 11
6.723660623073053
 21
6.214920110565465
 31
0.0
  0
ELLIPSE
  5
EDF
330
19
100
AcDbEntity
  8
0
100
AcDbEllipse
 10
6.750375187593804
 20
6.266633316658329
 30
0.0
 11
0.0
 21
0.0575287643821909
 31
0.0
210
0.0
220
0.0
230
1.0
 40
0.6956521739130428
 41
0.0
 42
6.283185307179586
  0
LINE
  5
EE0
330
19
100
AcDbEntity
  8
0
100
AcDbLine
 10
6.754720354699081
 20
6.32382198682392
 30
0.0
 11
6.737401465921014
 21
6.328268427237141
 31
0.0
  0
ELLIPSE
  5
EE1
330
19
100
AcDbEntity
  8
0
100
AcDbEllipse
 10
6.730365182591302
 20
6.271635817908954
 30
0.0
 11
0.0
 21
0.0575287643821909
 31
0.0
210
0.0
220
0.0
230
1.0
 40
0.6956521739130428
 41
6.106447509121838
 42
9.256454053271114
  0
ELLIPSE
  5
EE2
330
19
100
AcDbEntity
  8
0
100
AcDbEllipse
 10
6.750375187593804
 20
5.719859929964981
 30
0.0
 11
0.0
 21
0.0575287643821909
 31
0.0
210
0.0
220
0.0
230
1.0
 40
0.6956521739130428
 41
0.0
 42
6.283185307179586
  0
LINE
  5
EE3
330
19
100
AcDbEntity
  8
0
100
AcDbLine
 10
6.746154365189471
 20
5.662652019692323
 30
0.0
 11
6.723660623073053
 21
5.668146723872117
 31
0.0
  0
LINE
  5
EE4
330
19
100
AcDbEntity
  8
0
100
AcDbLine
 10
6.754720354699081
 20
5.777048600130573
 30
0.0
 11
6.737401465921014
 21
5.781495040543794
 31
0.0
  0
ELLIPSE
  5
EE5
330
19
100
AcDbEntity
  8
0
100
AcDbEllipse
 10
6.730365182591302
 20
5.724862431215606
 30
0.0
 11
0.0
 21
0.0575287643821909
 31
0.0
210
0.0
220
0.0
230
1.0
 40
0.6956521739130428
 41
6.106447509121838
 42
9.256454053271114
  0
ELLIPSE
  5
EE6
330
19
100
AcDbEntity
  8
0
100
AcDbEllipse
 10
6.730365182591302
 20
5.284642321160579
 30
0.0
 11
0.0
 21
0.0575287643821909
 31
0.0
210
0.0
220
0.0
230
1.0
 40
0.6956521739130428
 41
6.106447509121838
 42
9.256454053271114
  0
ELLIPSE
  5
EE7
330
19
100
AcDbEntity
  8
0
100
AcDbEllipse
 10
6.750375187593804
 20
5.279639819909954
 30
0.0
 11
0.0
 21
0.0575287643821909
 31
0.0
210
0.0
220
0.0
230
1.0
 40
0.6956521739130428
 41
0.0
 42
6.283185307179586
  0
LINE
  5
EE8
330
19
100
AcDbEntity
  8
0
100
AcDbLine
 10
6.746154365189471
 20
5.222431909637296
 30
0.0
 11
6.723660623073053
 21
5.22792661381709
 31
0.0
  0
LINE
  5
EE9
330
19
100
AcDbEntity
  8
0
100
AcDbLine
 10
6.754720354699081
 20
5.336828490075545
 30
0.0
 11
6.737401465921014
 21
5.341274930488766
 31
0.0
  0
ELLIPSE
  5
EEA
330
19
100
AcDbEntity
  8
0
100
AcDbEllipse
 10
6.730365182591302
 20
4.799399699849924
 30
0.0
 11
0.0
 21
0.0575287643821909
 31
0.0
210
0.0
220
0.0
230
1.0
 40
0.6956521739130428
 41
6.106447509121838
 42
9.256454053271114
  0
ELLIPSE
  5
EEB
330
19
100
AcDbEntity
  8
0
100
AcDbEllipse
 10
6.750375187593804
 20
4.794397198599299
 30
0.0
 11
0.0
 21
0.0575287643821909
 31
0.0
210
0.0
220
0.0
230
1.0
 40
0.6956521739130428
 41
0.0
 42
6.283185307179586
  0
LINE
  5
EEC
330
19
100
AcDbEntity
  8
0
100
AcDbLine
 10
6.746154365189471
 20
4.737189288326641
 30
0.0
 11
6.723660623073053
 21
4.742683992506435
 31
0.0
  0
LINE
  5
EED
330
19
100
AcDbEntity
  8
0
100
AcDbLine
 10
6.754720354699081
 20
4.85158586876489
 30
0.0
 11
6.737401465921014
 21
4.856032309178112
 31
0.0
  0
ELLIPSE
  5
EEE
330
19
100
AcDbEntity
  8
0
100
AcDbEllipse
 10
7.039519759879947
 20
6.081040520260129
 30
0.0
 11
0.0
 21
0.0575287643821909
 31
0.0
210
0.0
220
0.0
230
1.0
 40
0.6956521739130428
 41
0.0
 42
6.283185307179586
  0
LINE
  5
EEF
330
19
100
AcDbEntity
  8
0
100
AcDbLine
 10
7.035298937475615
 20
6.023832609987471
 30
0.0
 11
7.012805195359196
 21
6.029327314167265
 31
0.0
  0
LINE
  5
EF0
330
19
100
AcDbEntity
  8
0
100
AcDbLine
 10
7.043864926985224
 20
6.138229190425721
 30
0.0
 11
7.026546038207157
 21
6.142675630838942
 31
0.0
  0
ELLIPSE
  5
EF1
330
19
100
AcDbEntity
  8
0
100
AcDbEllipse
 10
7.019509754877445
 20
6.086043021510754
 30
0.0
 11
0.0
 21
0.0575287643821909
 31
0.0
210
0.0
220
0.0
230
1.0
 40
0.6956521739130428
 41
6.106447509121838
 42
9.256454053271114
  0
ELLIPSE
  5
EF2
330
19
100
AcDbEntity
  8
0
100
AcDbEllipse
 10
7.019509754877445
 20
5.645822911455727
 30
0.0
 11
0.0
 21
0.0575287643821909
 31
0.0
210
0.0
220
0.0
230
1.0
 40
0.6956521739130428
 41
6.106447509121838
 42
9.256454053271114
  0
ELLIPSE
  5
EF3
330
19
100
AcDbEntity
  8
0
100
AcDbEllipse
 10
7.039519759879947
 20
5.640820410205102
 30
0.0
 11
0.0
 21
0.0575287643821909
 31
0.0
210
0.0
220
0.0
230
1.0
 40
0.6956521739130428
 41
0.0
 42
6.283185307179586
  0
LINE
  5
EF4
330
19
100
AcDbEntity
  8
0
100
AcDbLine
 10
7.035298937475615
 20
5.583612499932444
 30
0.0
 11
7.012805195359196
 21
5.589107204112238
 31
0.0
  0
LINE
  5
EF5
330
19
100
AcDbEntity
  8
0
100
AcDbLine
 10
7.043864926985224
 20
5.698009080370693
 30
0.0
 11
7.026546038207157
 21
5.702455520783914
 31
0.0
  0
ELLIPSE
  5
EF6
330
19
100
AcDbEntity
  8
0
100
AcDbEllipse
 10
7.019509754877445
 20
5.160580290145072
 30
0.0
 11
0.0
 21
0.0575287643821909
 31
0.0
210
0.0
220
0.0
230
1.0
 40
0.6956521739130428
 41
6.106447509121838
 42
9.256454053271114
  0
ELLIPSE
  5
EF7
330
19
100
AcDbEntity
  8
0
100
AcDbEllipse
 10
7.039519759879947
 20
5.155577788894447
 30
0.0
 11
0.0
 21
0.0575287643821909
 31
0.0
210
0.0
220
0.0
230
1.0
 40
0.6956521739130428
 41
0.0
 42
6.283185307179586
  0
LINE
  5
EF8
330
19
100
AcDbEntity
  8
0
100
AcDbLine
 10
7.035298937475615
 20
5.098369878621789
 30
0.0
 11
7.012805195359196
 21
5.103864582801583
 31
0.0
  0
LINE
  5
EF9
330
19
100
AcDbEntity
  8
0
100
AcDbLine
 10
7.043864926985224
 20
5.212766459060038
 30
0.0
 11
7.026546038207157
 21
5.217212899473259
 31
0.0
  0
ELLIPSE
  5
EFA
330
19
100
AcDbEntity
  8
0
100
AcDbEllipse
 10
6.618309154577295
 20
5.966983491745872
 30
0.0
 11
0.0
 21
0.0575287643821909
 31
0.0
210
0.0
220
0.0
230
1.0
 40
0.6956521739130428
 41
6.106447509121838
 42
9.256454053271114
  0
LINE
  5
EFB
330
19
100
AcDbEntity
  8
0
100
AcDbLine
 10
6.642664326685074
 20
6.019169660660838
 30
0.0
 11
6.625345437907007
 21
6.023616101074059
 31
0.0
  0
LINE
  5
EFC
330
19
100
AcDbEntity
  8
0
100
AcDbLine
 10
6.634098337175464
 20
5.904773080222588
 30
0.0
 11
6.611604595059045
 21
5.910267784402382
 31
0.0
  0
ELLIPSE
  5
EFD
330
19
100
AcDbEntity
  8
0
100
AcDbEllipse
 10
6.638319159579797
 20
5.961980990495246
 30
0.0
 11
0.0
 21
0.0575287643821909
 31
0.0
210
0.0
220
0.0
230
1.0
 40
0.6956521739130428
 41
0.0
 42
6.283185307179586
  0
ELLIPSE
  5
EFE
330
19
100
AcDbEntity
  8
0
100
AcDbEllipse
 10
6.618309154577295
 20
5.526763381690844
 30
0.0
 11
0.0
 21
0.0575287643821909
 31
0.0
210
0.0
220
0.0
230
1.0
 40
0.6956521739130428
 41
6.106447509121838
 42
9.256454053271114
  0
ELLIPSE
  5
EFF
330
19
100
AcDbEntity
  8
0
100
AcDbEllipse
 10
6.638319159579797
 20
5.521760880440219
 30
0.0
 11
0.0
 21
0.0575287643821909
 31
0.0
210
0.0
220
0.0
230
1.0
 40
0.6956521739130428
 41
0.0
 42
6.283185307179586
  0
LINE
  5
F00
330
19
100
AcDbEntity
  8
0
100
AcDbLine
 10
6.634098337175464
 20
5.464552970167561
 30
0.0
 11
6.611604595059045
 21
5.470047674347355
 31
0.0
  0
LINE
  5
F01
330
19
100
AcDbEntity
  8
0
100
AcDbLine
 10
6.642664326685074
 20
5.57894955060581
 30
0.0
 11
6.625345437907007
 21
5.583395991019032
 31
0.0
  0
ELLIPSE
  5
F02
330
19
100
AcDbEntity
  8
0
100
AcDbEllipse
 10
6.618309154577295
 20
5.041520760380189
 30
0.0
 11
0.0
 21
0.0575287643821909
 31
0.0
210
0.0
220
0.0
230
1.0
 40
0.6956521739130428
 41
6.106447509121838
 42
9.256454053271114
  0
LINE
  5
F03
330
19
100
AcDbEntity
  8
0
100
AcDbLine
 10
6.642664326685074
 20
5.093706929295156
 30
0.0
 11
6.625345437907007
 21
5.098153369708377
 31
0.0
  0
LINE
  5
F04
330
19
100
AcDbEntity
  8
0
100
AcDbLine
 10
6.634098337175464
 20
4.979310348856906
 30
0.0
 11
6.611604595059045
 21
4.9848050530367
 31
0.0
  0
ELLIPSE
  5
F05
330
19
100
AcDbEntity
  8
0
100
AcDbEllipse
 10
6.638319159579797
 20
5.036518259129564
 30
0.0
 11
0.0
 21
0.0575287643821909
 31
0.0
210
0.0
220
0.0
230
1.0
 40
0.6956521739130428
 41
0.0
 42
6.283185307179586
  0
ELLIPSE
  5
F06
330
19
100
AcDbEntity
  8
0
100
AcDbEllipse
 10
6.439219609804909
 20
6.871935967983991
 30
0.0
 11
0.0
 21
0.0575287643821909
 31
0.0
210
0.0
220
0.0
230
1.0
 40
0.6956521739130428
 41
0.0
 42
6.283185307179586
  0
ELLIPSE
  5
F07
330
19
100
AcDbEntity
  8
0
100
AcDbEllipse
 10
6.428214107053534
 20
6.875937968984491
 30
0.0
 11
0.0
 21
0.0575287643821909
 31
0.0
210
0.0
220
0.0
230
1.0
 40
0.6956521739130428
 41
3.036136931608947
 42
5.893107509176381
  0
ELLIPSE
  5
F09
330
19
100
AcDbEntity
  8
0
100
AcDbEllipse
 10
6.562281140570292
 20
8.722361180590294
 30
0.0
 11
0.0
 21
-0.03901950975487623
 31
0.0
210
0.0
220
0.0
230
1.0
 40
0.4615384615384773
 41
0.0
 42
6.283185307179586
  0
ELLIPSE
  5
F0A
330
19
100
AcDbEntity
  8
0
100
AcDbEllipse
 10
6.580290145072543
 20
8.725362681340672
 30
0.0
 11
0.0
 21
-0.03901950975487623
 31
0.0
210
0.0
220
0.0
230
1.0
 40
0.4615384615384773
 41
0.0682682091523218
 42
3.226749330788051
  0
LINE
  5
F0B
330
19
100
AcDbEntity
  8
0
100
AcDbLine
 10
6.561050516635535
 20
8.761289482753076
 30
0.0
 11
6.579059521137786
 21
8.764290983503454
 31
0.0
  0
LINE
  5
F0C
330
19
100
AcDbEntity
  8
0
100
AcDbLine
 10
6.563509628299442
 20
8.683432561683599
 30
0.0
 11
6.581518632801693
 21
8.686434062433976
 31
0.0
  0
ELLIPSE
  5
F0D
330
19
100
AcDbEntity
  8
0
100
AcDbEllipse
 10
6.580290145072543
 20
8.457228614307155
 30
0.0
 11
0.0
 21
-0.03901950975487623
 31
0.0
210
0.0
220
0.0
230
1.0
 40
0.4615384615384773
 41
0.0682682091523218
 42
3.226749330788051
  0
LINE
  5
F0E
330
19
100
AcDbEntity
  8
0
100
AcDbLine
 10
6.563509628299442
 20
8.415298494650083
 30
0.0
 11
6.581518632801693
 21
8.41829999540046
 31
0.0
  0
LINE
  5
F0F
330
19
100
AcDbEntity
  8
0
100
AcDbLine
 10
6.561050516635535
 20
8.49315541571956
 30
0.0
 11
6.579059521137786
 21
8.496156916469937
 31
0.0
  0
ELLIPSE
  5
F10
330
19
100
AcDbEntity
  8
0
100
AcDbEllipse
 10
6.562281140570292
 20
8.454227113556778
 30
0.0
 11
0.0
 21
-0.03901950975487623
 31
0.0
210
0.0
220
0.0
230
1.0
 40
0.4615384615384773
 41
0.0
 42
6.283185307179586
  0
ELLIPSE
  5
F11
330
19
100
AcDbEntity
  8
0
100
AcDbEllipse
 10
6.580290145072543
 20
8.189094547273639
 30
0.0
 11
0.0
 21
-0.03901950975487623
 31
0.0
210
0.0
220
0.0
230
1.0
 40
0.4615384615384773
 41
0.0682682091523218
 42
3.226749330788051
  0
ELLIPSE
  5
F12
330
19
100
AcDbEntity
  8
0
100
AcDbEllipse
 10
6.562281140570292
 20
8.186093046523261
 30
0.0
 11
0.0
 21
-0.03901950975487623
 31
0.0
210
0.0
220
0.0
230
1.0
 40
0.4615384615384773
 41
0.0
 42
6.283185307179586
  0
LINE
  5
F13
330
19
100
AcDbEntity
  8
0
100
AcDbLine
 10
6.561050516635535
 20
8.225021348686044
 30
0.0
 11
6.579059521137786
 21
8.228022849436421
 31
0.0
  0
LINE
  5
F14
330
19
100
AcDbEntity
  8
0
100
AcDbLine
 10
6.563509628299442
 20
8.147164427616566
 30
0.0
 11
6.581518632801693
 21
8.150165928366944
 31
0.0
  0
ELLIPSE
  5
F15
330
19
100
AcDbEntity
  8
0
100
AcDbEllipse
 10
6.580290145072543
 20
7.920960480240122
 30
0.0
 11
0.0
 21
-0.03901950975487623
 31
0.0
210
0.0
220
0.0
230
1.0
 40
0.4615384615384773
 41
0.0682682091523218
 42
3.226749330788051
  0
LINE
  5
F16
330
19
100
AcDbEntity
  8
0
100
AcDbLine
 10
6.563509628299442
 20
7.87903036058305
 30
0.0
 11
6.581518632801693
 21
7.882031861333427
 31
0.0
  0
LINE
  5
F17
330
19
100
AcDbEntity
  8
0
100
AcDbLine
 10
6.561050516635535
 20
7.956887281652527
 30
0.0
 11
6.579059521137786
 21
7.959888782402905
 31
0.0
  0
ELLIPSE
  5
F18
330
19
100
AcDbEntity
  8
0
100
AcDbEllipse
 10
6.562281140570292
 20
7.917958979489745
 30
0.0
 11
0.0
 21
-0.03901950975487623
 31
0.0
210
0.0
220
0.0
230
1.0
 40
0.4615384615384773
 41
0.0
 42
6.283185307179586
  0
ELLIPSE
  5
F19
330
19
100
AcDbEntity
  8
0
100
AcDbEllipse
 10
6.485242621310662
 20
7.811905952976488
 30
0.0
 11
0.0
 21
-0.03901950975487623
 31
0.0
210
0.0
220
0.0
230
1.0
 40
0.4615384615384773
 41
0.0
 42
6.283185307179586
  0
ELLIPSE
  5
F1A
330
19
100
AcDbEntity
  8
0
100
AcDbEllipse
 10
6.503251625812913
 20
7.814907453726866
 30
0.0
 11
0.0
 21
-0.03901950975487623
 31
0.0
210
0.0
220
0.0
230
1.0
 40
0.4615384615384773
 41
0.0682682091523218
 42
3.226749330788051
  0
LINE
  5
F1B
330
19
100
AcDbEntity
  8
0
100
AcDbLine
 10
6.486471109039812
 20
7.772977334069793
 30
0.0
 11
6.504480113542063
 21
7.775978834820171
 31
0.0
  0
LINE
  5
F1C
330
19
100
AcDbEntity
  8
0
100
AcDbLine
 10
6.484011997375905
 20
7.850834255139271
 30
0.0
 11
6.502021001878156
 21
7.853835755889648
 31
0.0
  0
ELLIPSE
  5
F1D
330
19
100
AcDbEntity
  8
0
100
AcDbEllipse
 10
6.503251625812913
 20
8.083041520760382
 30
0.0
 11
0.0
 21
-0.03901950975487623
 31
0.0
210
0.0
220
0.0
230
1.0
 40
0.4615384615384773
 41
0.0682682091523218
 42
3.226749330788051
  0
LINE
  5
F1E
330
19
100
AcDbEntity
  8
0
100
AcDbLine
 10
6.486471109039812
 20
8.04111140110331
 30
0.0
 11
6.504480113542063
 21
8.044112901853687
 31
0.0
  0
LINE
  5
F1F
330
19
100
AcDbEntity
  8
0
100
AcDbLine
 10
6.484011997375905
 20
8.118968322172787
 30
0.0
 11
6.502021001878156
 21
8.121969822923164
 31
0.0
  0
ELLIPSE
  5
F20
330
19
100
AcDbEntity
  8
0
100
AcDbEllipse
 10
6.485242621310662
 20
8.080040020010005
 30
0.0
 11
0.0
 21
-0.03901950975487623
 31
0.0
210
0.0
220
0.0
230
1.0
 40
0.4615384615384773
 41
0.0
 42
6.283185307179586
  0
ELLIPSE
  5
F21
330
19
100
AcDbEntity
  8
0
100
AcDbEllipse
 10
6.503251625812913
 20
8.351175587793899
 30
0.0
 11
0.0
 21
-0.03901950975487623
 31
0.0
210
0.0
220
0.0
230
1.0
 40
0.4615384615384773
 41
0.0682682091523218
 42
3.226749330788051
  0
ELLIPSE
  5
F22
330
19
100
AcDbEntity
  8
0
100
AcDbEllipse
 10
6.485242621310662
 20
8.348174087043521
 30
0.0
 11
0.0
 21
-0.03901950975487623
 31
0.0
210
0.0
220
0.0
230
1.0
 40
0.4615384615384773
 41
0.0
 42
6.283185307179586
  0
LINE
  5
F23
330
19
100
AcDbEntity
  8
0
100
AcDbLine
 10
6.484011997375905
 20
8.387102389206303
 30
0.0
 11
6.502021001878156
 21
8.390103889956681
 31
0.0
  0
LINE
  5
F24
330
19
100
AcDbEntity
  8
0
100
AcDbLine
 10
6.486471109039812
 20
8.309245468136826
 30
0.0
 11
6.504480113542063
 21
8.312246968887203
 31
0.0
  0
ELLIPSE
  5
F25
330
19
100
AcDbEntity
  8
0
100
AcDbEllipse
 10
6.503251625812913
 20
8.619309654827415
 30
0.0
 11
0.0
 21
-0.03901950975487623
 31
0.0
210
0.0
220
0.0
230
1.0
 40
0.4615384615384773
 41
0.0682682091523218
 42
3.226749330788051
  0
LINE
  5
F26
330
19
100
AcDbEntity
  8
0
100
AcDbLine
 10
6.486471109039812
 20
8.577379535170342
 30
0.0
 11
6.504480113542063
 21
8.58038103592072
 31
0.0
  0
LINE
  5
F27
330
19
100
AcDbEntity
  8
0
100
AcDbLine
 10
6.484011997375905
 20
8.65523645623982
 30
0.0
 11
6.502021001878156
 21
8.658237956990197
 31
0.0
  0
ELLIPSE
  5
F28
330
19
100
AcDbEntity
  8
0
100
AcDbEllipse
 10
6.485242621310662
 20
8.616308154077037
 30
0.0
 11
0.0
 21
-0.03901950975487623
 31
0.0
210
0.0
220
0.0
230
1.0
 40
0.4615384615384773
 41
0.0
 42
6.283185307179586
  0
LINE
  5
10CA
330
19
100
AcDbEntity
  8
0
100
AcDbLine
 10
6.422211105552784
 20
4.612306153076538
 30
0.0
 11
6.422211105552784
 21
3.991685662979618
 31
0.0
  0
LINE
  5
10CB
330
19
100
AcDbEntity
  8
0
100
AcDbLine
 10
6.422211105552784
 20
3.991685662979618
 30
0.0
 11
6.822631008595043
 21
4.174392193297867
 31
0.0
  0
LINE
  5
10CC
330
19
100
AcDbEntity
  8
0
100
AcDbLine
 10
6.822631008595043
 20
4.650315507155017
 30
0.0
 11
6.822631008595043
 21
4.035540347349472
 31
0.0
  0
LINE
  5
10CD
330
19
100
AcDbEntity
  8
0
100
AcDbLine
 10
7.22288913725261
 20
4.82604677160535
 30
0.0
 11
7.22288913725261
 21
4.197459794775141
 31
0.0
  0
LINE
  5
10CE
330
19
100
AcDbEntity
  8
0
100
AcDbLine
 10
6.822631008595044
 20
4.035540347349472
 30
0.0
 11
7.222889137252611
 21
4.197459794775142
 31
0.0
  0
LINE
  5
10CF
330
19
100
AcDbEntity
  8
0
100
AcDbLine
 10
5.49058058430382
 20
6.321399203362478
 30
0.0
 11
5.49058058430382
 21
4.506017208093932
 31
0.0
  0
LINE
  5
10D0
330
19
100
AcDbEntity
  8
0
100
AcDbLine
 10
5.49058058430382
 20
4.506017208093932
 30
0.0
 11
5.763021150325319
 21
4.35560910737413
 31
0.0
  0
LINE
  5
10D1
330
19
100
AcDbEntity
  8
0
100
AcDbLine
 10
4.218935890932364
 20
6.466218989011895
 30
0.0
 11
5.805902951475746
 21
6.876456209959669
 31
0.0
  0
LINE
  5
10D2
330
19
100
AcDbEntity
  8
0
100
AcDbLine
 10
4.218935890932364
 20
6.466218989011895
 30
0.0
 11
4.218935890932364
 21
5.968498573672219
 31
0.0
  0
LINE
  5
10D3
330
19
100
AcDbEntity
  8
0
100
AcDbLine
 10
4.218935890932364
 20
5.968498573672219
 30
0.0
 11
6.239440273104338
 21
6.52921908977013
 31
0.0
  0
LINE
  5
10D4
330
19
100
AcDbEntity
  8
0
100
AcDbLine
 10
9.322140784258759
 20
7.384715092076095
 30
0.0
 11
9.322140784258759
 21
7.785417506370201
 31
0.0
  0
LINE
  5
10D5
330
19
100
AcDbEntity
  8
0
100
AcDbLine
 10
3.380764207608107
 20
6.901603217289012
 30
0.0
 11
3.656857470144701
 21
6.758187906996905
 31
0.0
  0
LINE
  5
10D6
330
19
100
AcDbEntity
  8
0
100
AcDbLine
 10
3.380764207608107
 20
6.414793714244429
 30
0.0
 11
3.592335014445188
 21
6.302140155484436
 31
0.0
  0
LINE
  5
10D8
330
19
100
AcDbEntity
  8
0
100
AcDbLine
 10
3.380764207608107
 20
6.901603217289012
 30
0.0
 11
3.380764207608107
 21
6.414793714244429
 31
0.0
  0
LINE
  5
10D9
330
19
100
AcDbEntity
  8
0
100
AcDbLine
 10
3.380764207608107
 20
6.901603217289012
 30
0.0
 11
3.722389934907983
 21
6.992371223441181
 31
0.0
  0
LINE
  5
10DA
330
19
100
AcDbEntity
  8
0
100
AcDbLine
 10
3.722389934907983
 20
6.992371223441181
 30
0.0
 11
3.975951157638096
 21
6.871763837865326
 31
0.0
  0
LINE
  5
10DB
330
19
100
AcDbEntity
  8
0
100
AcDbLine
 10
4.613903019880645
 20
6.568319543821133
 30
0.0
 11
4.613903019880645
 21
7.071015683624042
 31
0.0
  0
LINE
  5
10DC
330
19
100
AcDbEntity
  8
0
100
AcDbLine
 10
4.613903019880645
 20
7.071015683624042
 30
0.0
 11
5.805902951475745
 21
7.350079127182172
 31
0.0
  0
LINE
  5
10DD
330
19
100
AcDbEntity
  8
0
100
AcDbLine
 10
9.158203999027522
 20
8.1348985297483
 30
0.0
 11
9.158203999027522
 21
7.743039203217931
 31
0.0
  0
LINE
  5
10DE
330
19
100
AcDbEntity
  8
0
100
AcDbLine
 10
3.722389934907983
 20
6.992371223441181
 30
0.0
 11
3.722389934907983
 21
7.422411320361706
 31
0.0
  0
LINE
  5
10DF
330
19
100
AcDbEntity
  8
0
100
AcDbLine
 10
3.722389934907983
 20
7.422411320361706
 30
0.0
 11
3.975951157638095
 21
7.322468527804756
 31
0.0
  0
LINE
  5
10E0
330
19
100
AcDbEntity
  8
0
100
AcDbLine
 10
3.722389934907983
 20
7.422411320361706
 30
0.0
 11
5.407048800168582
 21
7.772478865825899
 31
0.0
  0
LINE
  5
10E1
330
19
100
AcDbEntity
  8
0
100
AcDbLine
 10
8.255177255908038
 20
8.364312238283301
 30
0.0
 11
8.511143572775149
 21
8.299284062252017
 31
0.0
  0
LINE
  5
10E2
330
19
100
AcDbEntity
  8
0
100
AcDbLine
 10
9.322140784258759
 20
7.785417506370201
 30
0.0
 11
9.158203999027522
 21
7.844153344443452
 31
0.0
  0
LINE
  5
10E3
330
19
100
AcDbEntity
  8
0
100
AcDbLine
 10
8.140443959784854
 20
8.340470970365448
 30
0.0
 11
8.255177255908038
 21
8.364312238283301
 31
0.0
  0
LINE
  5
10E4
330
19
100
AcDbEntity
  8
0
100
AcDbLine
 10
8.49403270202542
 20
7.979406969437678
 30
0.0
 11
9.158203999027522
 21
8.1348985297483
 31
0.0
  0
LINE
  5
10E5
330
19
100
AcDbEntity
  8
0
100
AcDbLine
 10
8.812916957850176
 20
7.653781146309444
 30
0.0
 11
9.322140784258759
 21
7.785417506370201
 31
0.0
  0
LINE
  5
10E6
330
19
100
AcDbEntity
  8
0
100
AcDbLine
 10
9.071535767883949
 20
7.315168410881889
 30
0.0
 11
9.322140784258759
 21
7.384715092076095
 31
0.0
  0
LINE
  5
10E7
330
19
100
AcDbEntity
  8
0
100
AcDbLine
 10
8.511143572775151
 20
8.299284062252017
 30
0.0
 11
8.455987590633393
 21
8.219893668448817
 31
0.0
  0
LINE
  5
10E8
330
19
100
AcDbEntity
  8
0
100
AcDbLine
 10
8.455987590633393
 20
8.219893668448817
 30
0.0
 11
8.888362254401303
 21
8.275043892176802
 31
0.0
  0
LINE
  5
10E9
330
19
100
AcDbEntity
  8
0
100
AcDbLine
 10
8.888362254401303
 20
8.275043892176802
 30
0.0
 11
8.837734641409428
 21
8.216313686456754
 31
0.0
  0
LINE
  5
10EA
330
19
100
AcDbEntity
  8
0
100
AcDbLine
 10
8.837734641409426
 20
8.216313686456752
 30
0.0
 11
9.158203999027522
 21
8.1348985297483
 31
0.0
  0
LINE
  5
10EB
330
19
100
AcDbEntity
  8
0
100
AcDbLine
 10
8.511143572775151
 20
8.299284062252017
 30
0.0
 11
8.511143572775151
 21
8.226928920534466
 31
0.0
  0
LINE
  5
10EC
330
19
100
AcDbEntity
  8
0
100
AcDbLine
 10
8.888362254401303
 20
8.275043892176802
 30
0.0
 11
8.888362254401304
 21
8.203451754582378
 31
0.0
  0
LINE
  5
10ED
330
19
100
AcDbEntity
  8
0
100
AcDbLine
 10
3.975951157638096
 20
7.322468527804757
 30
0.0
 11
3.975951157638096
 21
7.237133906820186
 31
0.0
  0
LINE
  5
10EE
330
19
100
AcDbEntity
  8
0
100
AcDbLine
 10
3.975951157638096
 20
7.237133906820186
 30
0.0
 11
4.400997765450356
 21
7.232213452090231
 31
0.0
  0
LINE
  5
10EF
330
19
100
AcDbEntity
  8
0
100
AcDbLine
 10
4.400997765450356
 20
7.232213452090231
 30
0.0
 11
4.354202654685006
 21
7.173378258809042
 31
0.0
  0
LINE
  5
10F0
330
19
100
AcDbEntity
  8
0
100
AcDbLine
 10
4.354202654685006
 20
7.173378258809041
 30
0.0
 11
4.613903019880645
 21
7.071015683624042
 31
0.0
  0
LINE
  5
10F1
330
19
100
AcDbEntity
  8
0
100
AcDbLine
 10
4.354202654685006
 20
7.173378258809041
 30
0.0
 11
4.354202654685006
 21
6.691847036479894
 31
0.0
  0
LINE
  5
10F2
330
19
100
AcDbEntity
  8
0
100
AcDbLine
 10
3.975951157638096
 20
7.237133906820186
 30
0.0
 11
3.975951157638096
 21
6.807914202252756
 31
0.0
  0
LINE
  5
10F3
330
19
100
AcDbEntity
  8
0
100
AcDbLine
 10
3.975951157638096
 20
6.807914202252756
 30
0.0
 11
4.354202654685006
 21
6.807914202252756
 31
0.0
  0
LINE
  5
10F4
330
19
100
AcDbEntity
  8
0
100
AcDbLine
 10
4.354202654685006
 20
6.691847036479895
 30
0.0
 11
4.613903019880645
 21
6.568319543821133
 31
0.0
  0
LINE
  5
10F5
330
19
100
AcDbEntity
  8
0
100
AcDbLine
 10
3.592335014445189
 20
6.673868986744397
 30
0.0
 11
3.592335014445189
 21
6.209450100207365
 31
0.0
  0
LINE
  5
10F6
330
19
100
AcDbEntity
  8
0
100
AcDbLine
 10
3.592335014445189
 20
6.209450100207365
 30
0.0
 11
3.947267932040083
 21
6.209450100207366
 31
0.0
  0
LINE
  5
10F7
330
19
100
AcDbEntity
  8
0
100
AcDbLine
 10
3.947267932040083
 20
6.607335596722654
 30
0.0
 11
3.947267932040082
 21
6.113151623059347
 31
0.0
  0
LINE
  5
10F8
330
19
100
AcDbEntity
  8
0
100
AcDbLine
 10
3.947267932040082
 20
6.113151623059347
 30
0.0
 11
4.218935890932364
 21
5.968498573672219
 31
0.0
  0
LINE
  5
10F9
330
19
100
AcDbEntity
  8
0
100
AcDbLine
 10
3.947267932040083
 20
6.607335596722654
 30
0.0
 11
4.008897920358407
 21
6.673592771641533
 31
0.0
  0
LINE
  5
10FA
330
19
100
AcDbEntity
  8
0
100
AcDbLine
 10
4.008897920358407
 20
6.673592771641533
 30
0.0
 11
3.592335014445189
 21
6.673868986744397
 31
0.0
  0
LINE
  5
10FB
330
19
100
AcDbEntity
  8
0
100
AcDbLine
 10
3.592335014445189
 20
6.673868986744397
 30
0.0
 11
3.656857470144701
 21
6.758187906996906
 31
0.0
  0
LINE
  5
10FC
330
19
100
AcDbEntity
  8
0
100
AcDbLine
 10
3.947267932040082
 20
6.607335596722654
 30
0.0
 11
4.218935890932364
 21
6.466218989011895
 31
0.0
  0
LINE
  5
10FD
330
19
100
AcDbEntity
  8
0
100
AcDbLine
 10
3.722389934907983
 20
7.367782639246624
 30
0.0
 11
3.80836315006171
 21
7.350878613728472
 31
0.0
  0
LINE
  5
10FE
330
19
100
AcDbEntity
  8
0
100
AcDbLine
 10
3.80836315006171
 20
7.350878613728472
 30
0.0
 11
3.920859689942248
 21
7.277219926407602
 31
0.0
  0
LINE
  5
10FF
330
19
100
AcDbEntity
  8
0
100
AcDbLine
 10
3.920859689942248
 20
7.277219926407602
 30
0.0
 11
3.969766021805228
 21
7.247366455834498
 31
0.0
  0
LINE
  5
1100
330
19
100
AcDbEntity
  8
0
100
AcDbLine
 10
3.722389934907983
 20
7.269850665699793
 30
0.0
 11
3.790071135315799
 21
7.257534947407972
 31
0.0
  0
LINE
  5
1101
330
19
100
AcDbEntity
  8
0
100
AcDbLine
 10
3.790071135315799
 20
7.257534947407972
 30
0.0
 11
3.975951157638096
 21
7.163565858649171
 31
0.0
  0
LINE
  5
1102
330
19
100
AcDbEntity
  8
0
100
AcDbLine
 10
3.722389934907984
 20
7.19862114721658
 30
0.0
 11
3.975951157638096
 21
7.079628407160434
 31
0.0
  0
LINE
  5
1103
330
19
100
AcDbEntity
  8
0
100
AcDbLine
 10
3.722389934907984
 20
7.116444320897944
 30
0.0
 11
3.822714015219529
 21
7.087146374240579
 31
0.0
  0
LINE
  5
1104
330
19
100
AcDbEntity
  8
0
100
AcDbLine
 10
3.822714015219529
 20
7.087146374240579
 30
0.0
 11
3.848188981755684
 21
7.049086442050502
 31
0.0
  0
LINE
  5
1105
330
19
100
AcDbEntity
  8
0
100
AcDbLine
 10
3.848188981755684
 20
7.049086442050502
 30
0.0
 11
3.975951157638096
 21
6.995226207008175
 31
0.0
  0
LINE
  5
1106
330
19
100
AcDbEntity
  8
0
100
AcDbLine
 10
3.722389934907983
 20
7.039242325426767
 30
0.0
 11
3.816686314852163
 21
7.002991293883962
 31
0.0
  0
LINE
  5
1107
330
19
100
AcDbEntity
  8
0
100
AcDbLine
 10
3.816686314852163
 20
7.002991293883962
 30
0.0
 11
3.975951157638096
 21
6.906731528340965
 31
0.0
  0
LINE
  5
1108
330
19
100
AcDbEntity
  8
0
100
AcDbLine
 10
3.975951157638096
 20
7.161223342667324
 30
0.0
 11
4.200350687676292
 21
7.157377930013909
 31
0.0
  0
LINE
  5
1109
330
19
100
AcDbEntity
  8
0
100
AcDbLine
 10
4.200350687676292
 20
7.157377930013909
 30
0.0
 11
4.354202654685006
 21
7.163042050648436
 31
0.0
  0
LINE
  5
110A
330
19
100
AcDbEntity
  8
0
100
AcDbLine
 10
3.975951157638096
 20
7.05057778940074
 30
0.0
 11
4.141658674052446
 21
7.04388787282907
 31
0.0
  0
LINE
  5
110B
330
19
100
AcDbEntity
  8
0
100
AcDbLine
 10
4.141658674052446
 20
7.04388787282907
 30
0.0
 11
4.354202654685006
 21
7.059713956314353
 31
0.0
  0
LINE
  5
110C
330
19
100
AcDbEntity
  8
0
100
AcDbLine
 10
3.975951157638096
 20
6.948126628564698
 30
0.0
 11
4.354202654685006
 21
6.961009588606085
 31
0.0
  0
LINE
  5
110D
330
19
100
AcDbEntity
  8
0
100
AcDbLine
 10
3.975951157638095
 20
6.834532639510773
 30
0.0
 11
4.087159131805931
 21
6.844340325297312
 31
0.0
  0
LINE
  5
110E
330
19
100
AcDbEntity
  8
0
100
AcDbLine
 10
4.087159131805931
 20
6.844340325297312
 30
0.0
 11
4.240822630120483
 21
6.838005194644529
 31
0.0
  0
LINE
  5
110F
330
19
100
AcDbEntity
  8
0
100
AcDbLine
 10
4.240822630120483
 20
6.838005194644529
 30
0.0
 11
4.354202654685006
 21
6.853896554191159
 31
0.0
  0
LINE
  5
1110
330
19
100
AcDbEntity
  8
0
100
AcDbLine
 10
4.354202654685006
 20
7.111620562168886
 30
0.0
 11
4.43140154465007
 21
7.096065720662266
 31
0.0
  0
LINE
  5
1111
330
19
100
AcDbEntity
  8
0
100
AcDbLine
 10
4.43140154465007
 20
7.096065720662266
 30
0.0
 11
4.613903019880644
 21
7.0253911142633
 31
0.0
  0
LINE
  5
1112
330
19
100
AcDbEntity
  8
0
100
AcDbLine
 10
4.354202654685006
 20
7.015593925699061
 30
0.0
 11
4.421556250623045
 21
7.006379412798599
 31
0.0
  0
LINE
  5
1113
330
19
100
AcDbEntity
  8
0
100
AcDbLine
 10
4.421556250623045
 20
7.006379412798599
 30
0.0
 11
4.452968145566042
 21
6.98956691640346
 31
0.0
  0
LINE
  5
1114
330
19
100
AcDbEntity
  8
0
100
AcDbLine
 10
4.452968145566042
 20
6.98956691640346
 30
0.0
 11
4.613903019880645
 21
6.951557167208556
 31
0.0
  0
LINE
  5
1115
330
19
100
AcDbEntity
  8
0
100
AcDbLine
 10
4.354202654685006
 20
6.90053084982793
 30
0.0
 11
4.404196076658047
 21
6.913030989654752
 31
0.0
  0
LINE
  5
1116
330
19
100
AcDbEntity
  8
0
100
AcDbLine
 10
4.404196076658047
 20
6.913030989654752
 30
0.0
 11
4.613903019880645
 21
6.852375376378541
 31
0.0
  0
LINE
  5
1117
330
19
100
AcDbEntity
  8
0
100
AcDbLine
 10
4.354202654685006
 20
6.829962339516797
 30
0.0
 11
4.430617380973267
 21
6.81853395334683
 31
0.0
  0
LINE
  5
1118
330
19
100
AcDbEntity
  8
0
100
AcDbLine
 10
4.430617380973267
 20
6.81853395334683
 30
0.0
 11
4.500685359189207
 21
6.771920311435411
 31
0.0
  0
LINE
  5
1119
330
19
100
AcDbEntity
  8
0
100
AcDbLine
 10
4.500685359189207
 20
6.771920311435411
 30
0.0
 11
4.613903019880645
 21
6.753165856063481
 31
0.0
  0
LINE
  5
111A
330
19
100
AcDbEntity
  8
0
100
AcDbLine
 10
4.354202654685006
 20
6.747180054382836
 30
0.0
 11
4.433021362902117
 21
6.737111188980307
 31
0.0
  0
LINE
  5
111B
330
19
100
AcDbEntity
  8
0
100
AcDbLine
 10
4.433021362902117
 20
6.737111188980307
 30
0.0
 11
4.472564171687969
 21
6.704530159240457
 31
0.0
  0
LINE
  5
111C
330
19
100
AcDbEntity
  8
0
100
AcDbLine
 10
4.472564171687969
 20
6.704530159240457
 30
0.0
 11
4.613903019880645
 21
6.665911260746619
 31
0.0
  0
LINE
  5
111D
330
19
100
AcDbEntity
  8
0
100
AcDbLine
 10
3.380764207608107
 20
6.831455201947543
 30
0.0
 11
3.512543132432597
 21
6.752911440048544
 31
0.0
  0
LINE
  5
111E
330
19
100
AcDbEntity
  8
0
100
AcDbLine
 10
3.512543132432597
 20
6.752911440048544
 30
0.0
 11
3.605398181816186
 21
6.690940131291808
 31
0.0
  0
LINE
  5
111F
330
19
100
AcDbEntity
  8
0
100
AcDbLine
 10
3.380764207608107
 20
6.765239556903773
 30
0.0
 11
3.463109914351717
 21
6.693031034524506
 31
0.0
  0
LINE
  5
1120
330
19
100
AcDbEntity
  8
0
100
AcDbLine
 10
3.463109914351717
 20
6.693031034524506
 30
0.0
 11
3.539159936242504
 21
6.670439955808245
 31
0.0
  0
LINE
  5
1121
330
19
100
AcDbEntity
  8
0
100
AcDbLine
 10
3.539159936242504
 20
6.670439955808245
 30
0.0
 11
3.592335014445188
 21
6.616511047883212
 31
0.0
  0
LINE
  5
1122
330
19
100
AcDbEntity
  8
0
100
AcDbLine
 10
3.380764207608108
 20
6.681550040685371
 30
0.0
 11
3.484255980857494
 21
6.617988430958214
 31
0.0
  0
LINE
  5
1123
330
19
100
AcDbEntity
  8
0
100
AcDbLine
 10
3.484255980857494
 20
6.617988430958214
 30
0.0
 11
3.592335014445189
 21
6.550743941998638
 31
0.0
  0
LINE
  5
1124
330
19
100
AcDbEntity
  8
0
100
AcDbLine
 10
3.380764207608107
 20
6.59319492069092
 30
0.0
 11
3.592335014445189
 21
6.460223439211575
 31
0.0
  0
LINE
  5
1125
330
19
100
AcDbEntity
  8
0
100
AcDbLine
 10
3.380764207608107
 20
6.472938138022635
 30
0.0
 11
3.592335014445189
 21
6.37860928600046
 31
0.0
  0
LINE
  5
1126
330
19
100
AcDbEntity
  8
0
100
AcDbLine
 10
3.592335014445189
 20
6.591780108129121
 30
0.0
 11
3.95046689298198
 21
6.610774736019439
 31
0.0
  0
LINE
  5
1127
330
19
100
AcDbEntity
  8
0
100
AcDbLine
 10
3.592335014445188
 20
6.517632117627373
 30
0.0
 11
3.947267932040083
 21
6.513119762295055
 31
0.0
  0
LINE
  5
1128
330
19
100
AcDbEntity
  8
0
100
AcDbLine
 10
3.592335014445189
 20
6.423154099639799
 30
0.0
 11
3.735520522131623
 21
6.424280985102387
 31
0.0
  0
LINE
  5
1129
330
19
100
AcDbEntity
  8
0
100
AcDbLine
 10
3.735520522131623
 20
6.424280985102387
 30
0.0
 11
3.947267932040083
 21
6.438563876738368
 31
0.0
  0
LINE
  5
112A
330
19
100
AcDbEntity
  8
0
100
AcDbLine
 10
3.592335014445189
 20
6.342459480209895
 30
0.0
 11
3.713786874292757
 21
6.34853215294334
 31
0.0
  0
LINE
  5
112B
330
19
100
AcDbEntity
  8
0
100
AcDbLine
 10
3.713786874292757
 20
6.34853215294334
 30
0.0
 11
3.838488116285681
 21
6.33771927148063
 31
0.0
  0
LINE
  5
112C
330
19
100
AcDbEntity
  8
0
100
AcDbLine
 10
3.838488116285681
 20
6.33771927148063
 30
0.0
 11
3.947267932040083
 21
6.346028533328954
 31
0.0
  0
LINE
  5
112D
330
19
100
AcDbEntity
  8
0
100
AcDbLine
 10
3.592335014445189
 20
6.261122645000104
 30
0.0
 11
3.947267932040083
 21
6.263931101372812
 31
0.0
  0
LINE
  5
112E
330
19
100
AcDbEntity
  8
0
100
AcDbLine
 10
3.947267932040083
 20
6.558886530414952
 30
0.0
 11
4.025594238027948
 21
6.496809767203866
 31
0.0
  0
LINE
  5
112F
330
19
100
AcDbEntity
  8
0
100
AcDbLine
 10
4.025594238027948
 20
6.496809767203866
 30
0.0
 11
4.147920492088328
 21
6.454554955518686
 31
0.0
  0
LINE
  5
1130
330
19
100
AcDbEntity
  8
0
100
AcDbLine
 10
4.147920492088328
 20
6.454554955518686
 30
0.0
 11
4.218935890932364
 21
6.410596487834818
 31
0.0
  0
LINE
  5
1131
330
19
100
AcDbEntity
  8
0
100
AcDbLine
 10
3.947267932040083
 20
6.462855188662116
 30
0.0
 11
4.022963596910046
 21
6.449642115046814
 31
0.0
  0
LINE
  5
1132
330
19
100
AcDbEntity
  8
0
100
AcDbLine
 10
4.022963596910046
 20
6.449642115046814
 30
0.0
 11
4.129643515765086
 21
6.362136331664926
 31
0.0
  0
LINE
  5
1133
330
19
100
AcDbEntity
  8
0
100
AcDbLine
 10
4.129643515765086
 20
6.362136331664926
 30
0.0
 11
4.218935890932363
 21
6.319997386279228
 31
0.0
  0
LINE
  5
1134
330
19
100
AcDbEntity
  8
0
100
AcDbLine
 10
3.947267932040083
 20
6.388660500809966
 30
0.0
 11
4.043703626003783
 21
6.349623364878537
 31
0.0
  0
LINE
  5
1135
330
19
100
AcDbEntity
  8
0
100
AcDbLine
 10
4.043703626003783
 20
6.349623364878537
 30
0.0
 11
4.112779609748138
 21
6.299314309923504
 31
0.0
  0
LINE
  5
1136
330
19
100
AcDbEntity
  8
0
100
AcDbLine
 10
4.112779609748138
 20
6.299314309923504
 30
0.0
 11
4.218935890932364
 21
6.244987209168975
 31
0.0
  0
LINE
  5
1137
330
19
100
AcDbEntity
  8
0
100
AcDbLine
 10
3.947267932040082
 20
6.307072731783081
 30
0.0
 11
4.02629833677078
 21
6.253499814334469
 31
0.0
  0
LINE
  5
1138
330
19
100
AcDbEntity
  8
0
100
AcDbLine
 10
4.02629833677078
 20
6.253499814334469
 30
0.0
 11
4.126260412089261
 21
6.211359166409629
 31
0.0
  0
LINE
  5
1139
330
19
100
AcDbEntity
  8
0
100
AcDbLine
 10
4.126260412089261
 20
6.211359166409629
 30
0.0
 11
4.218935890932364
 21
6.161042930937352
 31
0.0
  0
LINE
  5
113A
330
19
100
AcDbEntity
  8
0
100
AcDbLine
 10
3.947267932040083
 20
6.215460513155313
 30
0.0
 11
4.073730903212279
 21
6.13299218202083
 31
0.0
  0
LINE
  5
113B
330
19
100
AcDbEntity
  8
0
100
AcDbLine
 10
4.073730903212279
 20
6.13299218202083
 30
0.0
 11
4.162405620201132
 21
6.08443331870898
 31
0.0
  0
LINE
  5
113C
330
19
100
AcDbEntity
  8
0
100
AcDbLine
 10
4.162405620201132
 20
6.08443331870898
 30
0.0
 11
4.218935890932363
 21
6.068035463795804
 31
0.0
  0
LINE
  5
113D
330
19
100
AcDbEntity
  8
0
100
AcDbLine
 10
5.76302115032532
 20
4.35560910737413
 30
0.0
 11
5.830189958653394
 21
4.457886139534652
 31
0.0
  0
LINE
  5
113E
330
19
100
AcDbEntity
  8
0
100
AcDbLine
 10
5.830189958653394
 20
4.457886139534652
 30
0.0
 11
5.876899056533277
 21
4.120904299533775
 31
0.0
  0
LINE
  5
113F
330
19
100
AcDbEntity
  8
0
100
AcDbLine
 10
5.876899056533277
 20
4.120904299533775
 30
0.0
 11
5.963040124582071
 21
4.245183283256928
 31
0.0
  0
LINE
  5
1140
330
19
100
AcDbEntity
  8
0
100
AcDbLine
 10
5.963040124582071
 20
4.245183283256927
 30
0.0
 11
6.422211105552784
 21
3.991685662979618
 31
0.0
  0
LINE
  5
1141
330
19
100
AcDbEntity
  8
0
100
AcDbLine
 10
5.76302115032532
 20
4.35560910737413
 30
0.0
 11
5.842302057292332
 21
4.370503649380005
 31
0.0
  0
LINE
  5
1146
330
19
100
AcDbEntity
  8
0
100
AcDbLine
 10
5.876899056533277
 20
4.120904299533775
 30
0.0
 11
6.041520789931029
 21
4.201855933036139
 31
0.0
  0
LINE
  5
1147
330
19
100
AcDbEntity
  8
0
100
AcDbLine
 10
6.822631008595044
 20
4.035540347349472
 30
0.0
 11
6.666142962770236
 21
4.102988679956732
 31
0.0
  0
ENDSEC
  0
SECTION
  2
OBJECTS
  0
DICTIONARY
  5
C
330
0
100
AcDbDictionary
281
     1
  3
ACAD_COLOR
350
1153
  3
ACAD_GROUP
350
D
  3
ACAD_LAYOUT
350
114E
  3
ACAD_MATERIAL
350
1155
  3
ACAD_MLINESTYLE
350
E
  3
ACDBHEADERROUNDTRIPXREC
350
1152
  3
ACDBVARIABLEDICTIONARY
350
AC
  0
DICTIONARY
  5
1153
102
{ACAD_REACTORS
330
C
102
}
330
C
100
AcDbDictionary
281
     1
  0
DICTIONARY
  5
D
102
{ACAD_REACTORS
330
C
102
}
330
C
100
AcDbDictionary
281
     1
  0
DICTIONARY
  5
114E
102
{ACAD_REACTORS
330
C
102
}
330
C
100
AcDbDictionary
281
     1
  3
Layout1
350
1150
  3
Model
350
114F
  0
DICTIONARY
  5
1155
102
{ACAD_REACTORS
330
C
102
}
330
C
100
AcDbDictionary
281
     1
  0
DICTIONARY
  5
E
102
{ACAD_REACTORS
330
C
102
}
330
C
100
AcDbDictionary
281
     1
  3
STANDARD
350
1C
  0
DICTIONARY
  5
1152
102
{ACAD_REACTORS
330
C
102
}
330
C
100
AcDbDictionary
281
     1
  3
COLORDICT
350
1154
  3
MATERIALDICT
350
1156
  0
DICTIONARY
  5
AC
102
{ACAD_REACTORS
330
C
102
}
330
C
100
AcDbDictionary
281
     1
  3
SORTENTS
350
1151
  0
LAYOUT
  5
1150
102
{ACAD_REACTORS
330
114E
102
}
102
{ACAD_XDICTIONARY
360
1157
102
}
330
114E
100
AcDbPlotSettings
  1

  2

  4

  6

 40
0.0
 41
0.0
 42
0.0
 43
0.0
 44
0.0
 45
0.0
 46
0.0
 47
0.0
 48
0.0
 49
0.0
140
0.0
141
0.0
142
1.0
143
1.0
 70
   688
 72
     0
 73
     0
 74
     5
  7

 75
    16
147
1.0
148
0.0
149
0.0
100
AcDbLayout
  1
Layout1
 70
     1
 71
     1
 10
0.0
 20
0.0
 11
0.0
 21
0.0
 12
0.0
 22
0.0
 32
0.0
 14
0.0
 24
0.0
 34
0.0
 15
0.0
 25
0.0
 35
0.0
146
0.0
 13
0.0
 23
0.0
 33
0.0
 16
1.0
 26
0.0
 36
0.0
 17
0.0
 27
1.0
 37
0.0
 76
     0
330
16
  0
LAYOUT
  5
114F
102
{ACAD_REACTORS
330
114E
102
}
102
{ACAD_XDICTIONARY
360
1159
102
}
330
114E
100
AcDbPlotSettings
  1

  2

  4

  6

 40
0.0
 41
0.0
 42
0.0
 43
0.0
 44
0.0
 45
0.0
 46
0.0
 47
0.0
 48
0.0
 49
0.0
140
0.0
141
0.0
142
1.0
143
1.0
 70
   688
 72
     0
 73
     0
 74
     5
  7

 75
    16
147
1.0
148
0.0
149
0.0
100
AcDbLayout
  1
Model
 70
     1
 71
     0
 10
0.0
 20
0.0
 11
0.0
 21
0.0
 12
0.0
 22
0.0
 32
0.0
 14
0.0
 24
0.0
 34
0.0
 15
0.0
 25
0.0
 35
0.0
146
0.0
 13
0.0
 23
0.0
 33
0.0
 16
1.0
 26
0.0
 36
0.0
 17
0.0
 27
1.0
 37
0.0
 76
     0
330
19
  0
MLINESTYLE
  5
1C
102
{ACAD_REACTORS
330
E
102
}
330
E
100
AcDbMlineStyle
  2
STANDARD
 70
     0
  3

 62
     0
 51
90.0
 52
90.0
 71
     2
 49
0.5
 62
   256
  6
BYLAYER
 49
-0.5
 62
   256
  6
BYLAYER
  0
XRECORD
  5
1154
102
{ACAD_REACTORS
330
1152
102
}
330
1152
100
AcDbXrecord
340
1153
  0
XRECORD
  5
1156
102
{ACAD_REACTORS
330
1152
102
}
330
1152
100
AcDbXrecord
340
1155
  0
DICTIONARYVAR
  5
1151
102
{ACAD_REACTORS
330
AC
102
}
330
AC
100
DictionaryVariables
280
     0
  1
96
  0
DICTIONARY
  5
1157
330
1150
100
AcDbDictionary
280
     1
281
     1
  3
ACAD_XREC_ROUNDTRIP
360
1158
  0
DICTIONARY
  5
1159
330
114F
100
AcDbDictionary
280
     1
281
     1
  3
ACAD_XREC_ROUNDTRIP
360
115A
  0
XRECORD
  5
1158
102
{ACAD_REACTORS
330
1157
102
}
330
1157
100
AcDbXrecord
102
SHADEPLOT
 70
     0
102
SHADEPLOTRESLEVEL
 70
     0
102
SHADEPLOTCUSTOMDPI
 70
     0
  0
XRECORD
  5
115A
102
{ACAD_REACTORS
330
1159
102
}
330
1159
100
AcDbXrecord
102
SHADEPLOT
 70
     0
102
SHADEPLOTRESLEVEL
 70
     0
102
SHADEPLOTCUSTOMDPI
 70
     0
  0
ENDSEC
  0
EOF
